ISO-10303-21;
HEADER;
FILE_DESCRIPTION((''),'1');
FILE_NAME('//Big_tech03/bigt/Translate/21_\X2\8F2A90ED7DDA\X0\-DXF/21_CK\X2\30DC30FC30EA30F330B030B730B930C630E0\X0\/01_CK\X2\30D930FC30B930DB30EB30C0\X0\ CK/BBT/BBT50/BBT50-CK5-320.stp','2012-05-17T02:44:31',(''),(''),'Spatial Interop R18','Kubotek KeyCreator V8.5.1 (14335)',' ');
FILE_SCHEMA(('CONFIG_CONTROL_DESIGN'));
ENDSEC;
DATA;
#1=DESIGN_CONTEXT('',#27,'design');
#2=APPLICATION_PROTOCOL_DEFINITION('INTERNATIONAL STANDARD','config_control_design',1994,#27);
#3=PRODUCT_CATEGORY_RELATIONSHIP('NONE','NONE',#28,#29);
#4=DATE_AND_TIME(#30,#31);
#5=DATE_TIME_ROLE('creation_date');
#6=DATE_TIME_ROLE('classification_date');
#7=PERSON_AND_ORGANIZATION_ROLE('creator');
#8=PERSON_AND_ORGANIZATION_ROLE('design_supplier');
#9=PERSON_AND_ORGANIZATION_ROLE('classification_officer');
#10=PERSON_AND_ORGANIZATION_ROLE('design_owner');
#11=APPROVAL_PERSON_ORGANIZATION(#32,#33,#34);
#12=APPROVAL_DATE_TIME(#4,#33);
#13=CC_DESIGN_APPROVAL(#33,(#35,#36,#37));
#14=CC_DESIGN_DATE_AND_TIME_ASSIGNMENT(#4,#5,(#37));
#15=CC_DESIGN_DATE_AND_TIME_ASSIGNMENT(#4,#6,(#35));
#16=CC_DESIGN_PERSON_AND_ORGANIZATION_ASSIGNMENT(#32,#10,(#38));
#17=CC_DESIGN_PERSON_AND_ORGANIZATION_ASSIGNMENT(#32,#7,(#37));
#18=CC_DESIGN_PERSON_AND_ORGANIZATION_ASSIGNMENT(#32,#7,(#36));
#19=CC_DESIGN_PERSON_AND_ORGANIZATION_ASSIGNMENT(#32,#8,(#36));
#20=CC_DESIGN_SECURITY_CLASSIFICATION(#35,(#36));
#21=CC_DESIGN_PERSON_AND_ORGANIZATION_ASSIGNMENT(#32,#9,(#35));
#22=SHAPE_DEFINITION_REPRESENTATION(#39,#40);
#23= (GEOMETRIC_REPRESENTATION_CONTEXT(3)GLOBAL_UNCERTAINTY_ASSIGNED_CONTEXT((#43))GLOBAL_UNIT_ASSIGNED_CONTEXT((#45,#46,#47))REPRESENTATION_CONTEXT('NONE','WORKSPACE'));
#27=APPLICATION_CONTEXT('CONFIGURATION CONTROLLED 3D DESIGNS OF MECHANICAL PARTS AND ASSEMBLIES');
#28=PRODUCT_CATEGORY('part','NONE');
#29=PRODUCT_RELATED_PRODUCT_CATEGORY('detail',' ',(#38));
#30=CALENDAR_DATE(2012,17,4);
#31=LOCAL_TIME(11,44,31.0,#49);
#32=PERSON_AND_ORGANIZATION(#50,#51);
#33=APPROVAL(#52,'SOLID MODEL');
#34=APPROVAL_ROLE('APPROVED');
#35=SECURITY_CLASSIFICATION('','',#53);
#36=PRODUCT_DEFINITION_FORMATION_WITH_SPECIFIED_SOURCE(' ','NONE',#38,.NOT_KNOWN.);
#37=PRODUCT_DEFINITION('NONE','NONE',#36,#1);
#38=PRODUCT('1','1','PART-1-DESC',(#54));
#39=PRODUCT_DEFINITION_SHAPE('NONE','NONE',#37);
#40=ADVANCED_BREP_SHAPE_REPRESENTATION('1',(#55,#56),#23);
#43=UNCERTAINTY_MEASURE_WITH_UNIT(LENGTH_MEASURE(1.0E-006),#45,'','');
#45= (CONVERSION_BASED_UNIT('MILLIMETRE',#59)LENGTH_UNIT()NAMED_UNIT(#62));
#46= (NAMED_UNIT(#64)PLANE_ANGLE_UNIT()SI_UNIT($,.RADIAN.));
#47= (NAMED_UNIT(#64)SOLID_ANGLE_UNIT()SI_UNIT($,.STERADIAN.));
#49=COORDINATED_UNIVERSAL_TIME_OFFSET(9,0,.AHEAD.);
#50=PERSON('','UNSPECIFIED',$,$,$,$);
#51=ORGANIZATION('UNSPECIFIED','UNSPECIFIED','UNSPECIFIED');
#52=APPROVAL_STATUS('approved');
#53=SECURITY_CLASSIFICATION_LEVEL('unclassified');
#54=MECHANICAL_CONTEXT('',#27,'mechanical');
#55=MANIFOLD_SOLID_BREP('1',#70);
#56=AXIS2_PLACEMENT_3D('',#71,#72,#73);
#59=LENGTH_MEASURE_WITH_UNIT(LENGTH_MEASURE(1.0),#74);
#62=DIMENSIONAL_EXPONENTS(1.0,0.0,0.0,0.0,0.0,0.0,0.0);
#64=DIMENSIONAL_EXPONENTS(0.0,0.0,0.0,0.0,0.0,0.0,0.0);
#70=CLOSED_SHELL('',(#75,#76,#77,#78,#79,#80,#81,#82,#83,#84,#85,#86,#87));
#71=CARTESIAN_POINT('',(0.0,0.0,0.0));
#72=DIRECTION('',(0.0,0.0,1.0));
#73=DIRECTION('',(1.0,0.0,0.0));
#74= (NAMED_UNIT(#62)LENGTH_UNIT()SI_UNIT(.MILLI.,.METRE.));
#75=ADVANCED_FACE('',(#89,#90),#91,.T.);
#76=ADVANCED_FACE('',(#92,#93),#94,.T.);
#77=ADVANCED_FACE('',(#95,#96),#97,.T.);
#78=ADVANCED_FACE('',(#98,#99),#100,.T.);
#79=ADVANCED_FACE('',(#101,#102),#103,.T.);
#80=ADVANCED_FACE('',(#104,#105),#106,.T.);
#81=ADVANCED_FACE('',(#107,#108),#109,.T.);
#82=ADVANCED_FACE('',(#110,#111),#112,.T.);
#83=ADVANCED_FACE('',(#113,#114),#115,.T.);
#84=ADVANCED_FACE('',(#116),#117,.T.);
#85=ADVANCED_FACE('',(#118,#119),#120,.T.);
#86=ADVANCED_FACE('',(#121),#122,.T.);
#87=ADVANCED_FACE('',(#123,#124),#125,.T.);
#89=FACE_OUTER_BOUND('',#126,.T.);
#90=FACE_BOUND('',#127,.T.);
#91=PLANE('',#128);
#92=FACE_BOUND('',#129,.T.);
#93=FACE_BOUND('',#130,.T.);
#94=CYLINDRICAL_SURFACE('',#131,50.0);
#95=FACE_BOUND('',#132,.T.);
#96=FACE_BOUND('',#133,.T.);
#97=CONICAL_SURFACE('',#134,46.25,1.04719755108882);
#98=FACE_BOUND('',#135,.T.);
#99=FACE_BOUND('',#136,.T.);
#100=CYLINDRICAL_SURFACE('',#137,42.5);
#101=FACE_BOUND('',#138,.T.);
#102=FACE_BOUND('',#139,.T.);
#103=CONICAL_SURFACE('',#140,46.25,1.04719755108882);
#104=FACE_BOUND('',#141,.T.);
#105=FACE_BOUND('',#142,.T.);
#106=CYLINDRICAL_SURFACE('',#143,50.0);
#107=FACE_BOUND('',#144,.T.);
#108=FACE_OUTER_BOUND('',#145,.T.);
#109=PLANE('',#146);
#110=FACE_BOUND('',#147,.T.);
#111=FACE_BOUND('',#148,.T.);
#112=CONICAL_SURFACE('',#149,27.5,0.785398163397448);
#113=FACE_BOUND('',#150,.T.);
#114=FACE_BOUND('',#151,.T.);
#115=CYLINDRICAL_SURFACE('',#152,25.0);
#116=FACE_OUTER_BOUND('',#153,.T.);
#117=PLANE('',#154);
#118=FACE_BOUND('',#155,.T.);
#119=FACE_BOUND('',#156,.T.);
#120=CYLINDRICAL_SURFACE('',#157,34.925);
#121=FACE_OUTER_BOUND('',#158,.T.);
#122=PLANE('',#159);
#123=FACE_BOUND('',#160,.T.);
#124=FACE_BOUND('',#161,.T.);
#125=CONICAL_SURFACE('',#162,27.5020833325942,0.144812498253157);
#126=EDGE_LOOP('',(#163));
#127=EDGE_LOOP('',(#164));
#128=AXIS2_PLACEMENT_3D('',#165,#166,#167);
#129=EDGE_LOOP('',(#168));
#130=EDGE_LOOP('',(#169));
#131=AXIS2_PLACEMENT_3D('',#170,#171,#172);
#132=EDGE_LOOP('',(#173));
#133=EDGE_LOOP('',(#174));
#134=AXIS2_PLACEMENT_3D('',#175,#176,#177);
#135=EDGE_LOOP('',(#178));
#136=EDGE_LOOP('',(#179));
#137=AXIS2_PLACEMENT_3D('',#180,#181,#182);
#138=EDGE_LOOP('',(#183));
#139=EDGE_LOOP('',(#184));
#140=AXIS2_PLACEMENT_3D('',#185,#186,#187);
#141=EDGE_LOOP('',(#188));
#142=EDGE_LOOP('',(#189));
#143=AXIS2_PLACEMENT_3D('',#190,#191,#192);
#144=EDGE_LOOP('',(#193));
#145=EDGE_LOOP('',(#194));
#146=AXIS2_PLACEMENT_3D('',#195,#196,#197);
#147=EDGE_LOOP('',(#198));
#148=EDGE_LOOP('',(#199));
#149=AXIS2_PLACEMENT_3D('',#200,#201,#202);
#150=EDGE_LOOP('',(#203));
#151=EDGE_LOOP('',(#204));
#152=AXIS2_PLACEMENT_3D('',#205,#206,#207);
#153=EDGE_LOOP('',(#208));
#154=AXIS2_PLACEMENT_3D('',#209,#210,#211);
#155=EDGE_LOOP('',(#212));
#156=EDGE_LOOP('',(#213));
#157=AXIS2_PLACEMENT_3D('',#214,#215,#216);
#158=EDGE_LOOP('',(#217));
#159=AXIS2_PLACEMENT_3D('',#218,#219,#220);
#160=EDGE_LOOP('',(#221));
#161=EDGE_LOOP('',(#222));
#162=AXIS2_PLACEMENT_3D('',#223,#224,#225);
#163=ORIENTED_EDGE('',*,*,#226,.F.);
#164=ORIENTED_EDGE('',*,*,#227,.T.);
#165=CARTESIAN_POINT('',(9.1848509936051E-017,42.4625,-1.5));
#166=DIRECTION('',(-6.12323399573677E-017,-4.63006370244663E-018,1.0));
#167=DIRECTION('',(5.1106623654215E-033,-1.0,-4.63006370244663E-018));
#168=ORIENTED_EDGE('',*,*,#228,.F.);
#169=ORIENTED_EDGE('',*,*,#226,.T.);
#170=CARTESIAN_POINT('',(5.26598123633362E-016,1.05319624726672E-015,-8.6));
#171=DIRECTION('',(-6.12323399573677E-017,-1.22464679914735E-016,1.0));
#172=DIRECTION('',(-1.23259516440783E-032,1.0,1.22464679914735E-016));
#173=ORIENTED_EDGE('',*,*,#229,.F.);
#174=ORIENTED_EDGE('',*,*,#228,.T.);
#175=CARTESIAN_POINT('',(1.09391964220428E-015,2.18783928440857E-015,-17.86506351));
#176=DIRECTION('',(-6.12323399573676E-017,-1.22464679914735E-016,1.0));
#177=DIRECTION('',(-1.23259516440783E-032,1.0,1.22464679914735E-016));
#178=ORIENTED_EDGE('',*,*,#230,.F.);
#179=ORIENTED_EDGE('',*,*,#229,.T.);
#180=CARTESIAN_POINT('',(1.42059028701093E-015,2.84118057402186E-015,-23.2));
#181=DIRECTION('',(-6.12323399573677E-017,-1.22464679914735E-016,1.0));
#182=DIRECTION('',(-1.23259516440783E-032,1.0,1.22464679914735E-016));
#183=ORIENTED_EDGE('',*,*,#231,.F.);
#184=ORIENTED_EDGE('',*,*,#230,.T.);
#185=CARTESIAN_POINT('',(1.74726093181758E-015,3.49452186363515E-015,-28.53493649));
#186=DIRECTION('',(6.12323399573676E-017,1.22464679914735E-016,-1.0));
#187=DIRECTION('',(-1.23259516440783E-032,1.0,1.22464679914735E-016));
#188=ORIENTED_EDGE('',*,*,#232,.F.);
#189=ORIENTED_EDGE('',*,*,#231,.T.);
#190=CARTESIAN_POINT('',(2.10333087753558E-015,4.20666175507116E-015,-34.35));
#191=DIRECTION('',(-6.12323399573677E-017,-1.22464679914735E-016,1.0));
#192=DIRECTION('',(-1.23259516440783E-032,1.0,1.22464679914735E-016));
#193=ORIENTED_EDGE('',*,*,#233,.F.);
#194=ORIENTED_EDGE('',*,*,#232,.T.);
#195=CARTESIAN_POINT('',(2.32682891837997E-015,40.0,-38.0));
#196=DIRECTION('',(6.12323399573677E-017,1.22464679914735E-016,-1.0));
#197=DIRECTION('',(-1.23259516440783E-032,1.0,1.22464679914735E-016));
#198=ORIENTED_EDGE('',*,*,#234,.F.);
#199=ORIENTED_EDGE('',*,*,#233,.T.);
#200=CARTESIAN_POINT('',(2.47990976827339E-015,4.95981953654678E-015,-40.5));
#201=DIRECTION('',(-6.12323399573677E-017,-1.22464679914735E-016,1.0));
#202=DIRECTION('',(-1.23259516440783E-032,1.0,1.22464679914735E-016));
#203=ORIENTED_EDGE('',*,*,#235,.F.);
#204=ORIENTED_EDGE('',*,*,#234,.T.);
#205=CARTESIAN_POINT('',(9.36854801347725E-015,1.87370960269545E-014,-153.0));
#206=DIRECTION('',(-6.12323399573677E-017,-1.22464679914735E-016,1.0));
#207=DIRECTION('',(-1.23259516440783E-032,1.0,1.22464679914735E-016));
#208=ORIENTED_EDGE('',*,*,#235,.T.);
#209=CARTESIAN_POINT('',(1.61041054087877E-014,12.5,-263.0));
#210=DIRECTION('',(6.12323399573677E-017,1.22464679914735E-016,-1.0));
#211=DIRECTION('',(-1.23259516440783E-032,1.0,1.22464679914735E-016));
#212=ORIENTED_EDGE('',*,*,#227,.F.);
#213=ORIENTED_EDGE('',*,*,#236,.T.);
#214=CARTESIAN_POINT('',(4.59242549680264E-017,9.18485099360528E-017,-0.750000000000011));
#215=DIRECTION('',(-6.12323399573677E-017,-1.22464679914735E-016,1.0));
#216=DIRECTION('',(-1.23259516440783E-032,1.0,1.22464679914735E-016));
#217=ORIENTED_EDGE('',*,*,#237,.F.);
#218=CARTESIAN_POINT('',(-6.23345220766003E-015,10.0395833325942,101.8));
#219=DIRECTION('',(-6.12323399573677E-017,-1.22464679914735E-016,1.0));
#220=DIRECTION('',(1.23259516440783E-032,-1.0,-1.22464679914735E-016));
#221=ORIENTED_EDGE('',*,*,#236,.F.);
#222=ORIENTED_EDGE('',*,*,#237,.T.);
#223=CARTESIAN_POINT('',(-3.11672610383001E-015,-6.23345220766003E-015,50.9));
#224=DIRECTION('',(6.12323399573677E-017,1.22464679914735E-016,-1.0));
#225=DIRECTION('',(-1.23259516440783E-032,1.0,1.22464679914735E-016));
#226=EDGE_CURVE('',#238,#238,#239,.T.);
#227=EDGE_CURVE('',#240,#240,#241,.T.);
#228=EDGE_CURVE('',#242,#242,#243,.T.);
#229=EDGE_CURVE('',#244,#244,#245,.T.);
#230=EDGE_CURVE('',#246,#246,#247,.T.);
#231=EDGE_CURVE('',#248,#248,#249,.T.);
#232=EDGE_CURVE('',#250,#250,#251,.T.);
#233=EDGE_CURVE('',#252,#252,#253,.T.);
#234=EDGE_CURVE('',#254,#254,#255,.T.);
#235=EDGE_CURVE('',#256,#256,#257,.T.);
#236=EDGE_CURVE('',#258,#258,#259,.T.);
#237=EDGE_CURVE('',#260,#260,#261,.T.);
#238=VERTEX_POINT('',#262);
#239=CIRCLE('',#263,50.0);
#240=VERTEX_POINT('',#264);
#241=CIRCLE('',#265,34.925);
#242=VERTEX_POINT('',#266);
#243=CIRCLE('',#267,50.0);
#244=VERTEX_POINT('',#268);
#245=CIRCLE('',#269,42.5);
#246=VERTEX_POINT('',#270);
#247=CIRCLE('',#271,42.5);
#248=VERTEX_POINT('',#272);
#249=CIRCLE('',#273,50.0);
#250=VERTEX_POINT('',#274);
#251=CIRCLE('',#275,50.0);
#252=VERTEX_POINT('',#276);
#253=CIRCLE('',#277,30.0);
#254=VERTEX_POINT('',#278);
#255=CIRCLE('',#279,25.0);
#256=VERTEX_POINT('',#280);
#257=CIRCLE('',#281,25.0);
#258=VERTEX_POINT('',#282);
#259=CIRCLE('',#283,34.925);
#260=VERTEX_POINT('',#284);
#261=CIRCLE('',#285,20.0791666651884);
#262=CARTESIAN_POINT('',(9.1848509936051E-017,50.0,-1.5));
#263=AXIS2_PLACEMENT_3D('',#286,#287,#288);
#264=CARTESIAN_POINT('',(9.18485099360511E-017,34.925,-1.5));
#265=AXIS2_PLACEMENT_3D('',#289,#290,#291);
#266=CARTESIAN_POINT('',(9.61347737330672E-016,50.0,-15.7));
#267=AXIS2_PLACEMENT_3D('',#292,#293,#294);
#268=CARTESIAN_POINT('',(1.2264915470779E-015,42.5,-20.03012702));
#269=AXIS2_PLACEMENT_3D('',#295,#296,#297);
#270=CARTESIAN_POINT('',(1.61468902694396E-015,42.5,-26.36987298));
#271=AXIS2_PLACEMENT_3D('',#298,#299,#300);
#272=CARTESIAN_POINT('',(1.87983283669119E-015,50.0,-30.7));
#273=AXIS2_PLACEMENT_3D('',#301,#302,#303);
#274=CARTESIAN_POINT('',(2.32682891837997E-015,50.0,-38.0));
#275=AXIS2_PLACEMENT_3D('',#304,#305,#306);
#276=CARTESIAN_POINT('',(2.32682891837997E-015,30.0,-38.0));
#277=AXIS2_PLACEMENT_3D('',#307,#308,#309);
#278=CARTESIAN_POINT('',(2.63299061816681E-015,25.0,-43.0));
#279=AXIS2_PLACEMENT_3D('',#310,#311,#312);
#280=CARTESIAN_POINT('',(1.61041054087877E-014,25.0,-263.0));
#281=AXIS2_PLACEMENT_3D('',#313,#314,#315);
#282=CARTESIAN_POINT('',(8.73764979922496E-031,34.925,-1.70229210539779E-014));
#283=AXIS2_PLACEMENT_3D('',#316,#317,#318);
#284=CARTESIAN_POINT('',(-6.23345220766003E-015,20.0791666651884,101.8));
#285=AXIS2_PLACEMENT_3D('',#319,#320,#321);
#286=CARTESIAN_POINT('',(9.18485099360516E-017,1.83697019872103E-016,-1.5));
#287=DIRECTION('',(6.12323399573677E-017,1.22464679914735E-016,-1.0));
#288=DIRECTION('',(-1.23259516440783E-032,1.0,1.22464679914735E-016));
#289=CARTESIAN_POINT('',(9.18485099360515E-017,1.83697019872103E-016,-1.5));
#290=DIRECTION('',(6.12323399573677E-017,1.22464679914735E-016,-1.0));
#291=DIRECTION('',(-1.23259516440783E-032,1.0,1.22464679914735E-016));
#292=CARTESIAN_POINT('',(9.61347737330672E-016,1.92269547466134E-015,-15.7));
#293=DIRECTION('',(6.12323399573677E-017,1.22464679914735E-016,-1.0));
#294=DIRECTION('',(-1.23259516440783E-032,1.0,1.22464679914735E-016));
#295=CARTESIAN_POINT('',(1.2264915470779E-015,2.45298309415579E-015,-20.03012702));
#296=DIRECTION('',(6.12323399573677E-017,1.22464679914735E-016,-1.0));
#297=DIRECTION('',(-1.23259516440783E-032,1.0,1.22464679914735E-016));
#298=CARTESIAN_POINT('',(1.61468902694396E-015,3.22937805388793E-015,-26.36987298));
#299=DIRECTION('',(6.12323399573677E-017,1.22464679914735E-016,-1.0));
#300=DIRECTION('',(-1.23259516440783E-032,1.0,1.22464679914735E-016));
#301=CARTESIAN_POINT('',(1.87983283669119E-015,3.75966567338237E-015,-30.7));
#302=DIRECTION('',(6.12323399573677E-017,1.22464679914735E-016,-1.0));
#303=DIRECTION('',(-1.23259516440783E-032,1.0,1.22464679914735E-016));
#304=CARTESIAN_POINT('',(2.32682891837997E-015,4.65365783675994E-015,-38.0));
#305=DIRECTION('',(6.12323399573677E-017,1.22464679914735E-016,-1.0));
#306=DIRECTION('',(-1.23259516440783E-032,1.0,1.22464679914735E-016));
#307=CARTESIAN_POINT('',(2.32682891837997E-015,4.65365783675994E-015,-38.0));
#308=DIRECTION('',(6.12323399573677E-017,1.22464679914735E-016,-1.0));
#309=DIRECTION('',(-1.23259516440783E-032,1.0,1.22464679914735E-016));
#310=CARTESIAN_POINT('',(2.63299061816681E-015,5.26598123633362E-015,-43.0));
#311=DIRECTION('',(6.12323399573677E-017,1.22464679914735E-016,-1.0));
#312=DIRECTION('',(-1.23259516440783E-032,1.0,1.22464679914735E-016));
#313=CARTESIAN_POINT('',(1.61041054087877E-014,3.22082108175754E-014,-263.0));
#314=DIRECTION('',(6.12323399573677E-017,1.22464679914735E-016,-1.0));
#315=DIRECTION('',(-1.23259516440783E-032,1.0,1.22464679914735E-016));
#316=CARTESIAN_POINT('',(1.30354629166721E-030,2.60709258333441E-030,-2.12885264971874E-014));
#317=DIRECTION('',(6.12323399573677E-017,1.22464679914735E-016,-1.0));
#318=DIRECTION('',(-1.23259516440783E-032,1.0,1.22464679914735E-016));
#319=CARTESIAN_POINT('',(-6.23345220766003E-015,-1.24669044153201E-014,101.8));
#320=DIRECTION('',(6.12323399573677E-017,1.22464679914735E-016,-1.0));
#321=DIRECTION('',(-1.23259516440783E-032,1.0,1.22464679914735E-016));
ENDSEC;
END-ISO-10303-21;
