ISO-10303-21;
HEADER;
FILE_DESCRIPTION((''),'1');
FILE_NAME('W:/Translate/00_BIG-HP\X2\FF71FF6FFF8CFF9F\X0\2013/\X2\30C030A630F330ED30FC30C930C730FC30BF\X0\/201309/03_STP\X2\30C730FC30BF\X0\/\X2\5207524A5DE55177\X0\/\X2\FF74FF9DFF84FF9EFF90FF9952A05DE5\X0\/03_\X2\FF7AFF9DFF80FF78FF84FF78FF9EFF98FF6FFF8CFF9F\X0\CG/01_BBT\X2\FF8EFF99FF80FF9E\X0\/BBT50-CG19-108.stp','2014-05-07T06:12:29',(''),(''),'Spatial Interop R18','Kubotek KeyCreator V8.5.1 (14335)',' ');
FILE_SCHEMA(('CONFIG_CONTROL_DESIGN'));
ENDSEC;
DATA;
#1=DESIGN_CONTEXT('',#27,'design');
#2=APPLICATION_PROTOCOL_DEFINITION('INTERNATIONAL STANDARD','config_control_design',1994,#27);
#3=PRODUCT_CATEGORY_RELATIONSHIP('NONE','NONE',#28,#29);
#4=DATE_AND_TIME(#30,#31);
#5=DATE_TIME_ROLE('creation_date');
#6=DATE_TIME_ROLE('classification_date');
#7=PERSON_AND_ORGANIZATION_ROLE('creator');
#8=PERSON_AND_ORGANIZATION_ROLE('design_supplier');
#9=PERSON_AND_ORGANIZATION_ROLE('classification_officer');
#10=PERSON_AND_ORGANIZATION_ROLE('design_owner');
#11=APPROVAL_PERSON_ORGANIZATION(#32,#33,#34);
#12=APPROVAL_DATE_TIME(#4,#33);
#13=CC_DESIGN_APPROVAL(#33,(#35,#36,#37));
#14=CC_DESIGN_DATE_AND_TIME_ASSIGNMENT(#4,#5,(#37));
#15=CC_DESIGN_DATE_AND_TIME_ASSIGNMENT(#4,#6,(#35));
#16=CC_DESIGN_PERSON_AND_ORGANIZATION_ASSIGNMENT(#32,#10,(#38));
#17=CC_DESIGN_PERSON_AND_ORGANIZATION_ASSIGNMENT(#32,#7,(#37));
#18=CC_DESIGN_PERSON_AND_ORGANIZATION_ASSIGNMENT(#32,#7,(#36));
#19=CC_DESIGN_PERSON_AND_ORGANIZATION_ASSIGNMENT(#32,#8,(#36));
#20=CC_DESIGN_SECURITY_CLASSIFICATION(#35,(#36));
#21=CC_DESIGN_PERSON_AND_ORGANIZATION_ASSIGNMENT(#32,#9,(#35));
#22=SHAPE_DEFINITION_REPRESENTATION(#39,#40);
#23= (GEOMETRIC_REPRESENTATION_CONTEXT(3)GLOBAL_UNCERTAINTY_ASSIGNED_CONTEXT((#43))GLOBAL_UNIT_ASSIGNED_CONTEXT((#45,#46,#47))REPRESENTATION_CONTEXT('NONE','WORKSPACE'));
#27=APPLICATION_CONTEXT('CONFIGURATION CONTROLLED 3D DESIGNS OF MECHANICAL PARTS AND ASSEMBLIES');
#28=PRODUCT_CATEGORY('part','NONE');
#29=PRODUCT_RELATED_PRODUCT_CATEGORY('detail',' ',(#38));
#30=CALENDAR_DATE(2014,7,4);
#31=LOCAL_TIME(15,12,29.0,#49);
#32=PERSON_AND_ORGANIZATION(#50,#51);
#33=APPROVAL(#52,'SOLID MODEL');
#34=APPROVAL_ROLE('APPROVED');
#35=SECURITY_CLASSIFICATION('','',#53);
#36=PRODUCT_DEFINITION_FORMATION_WITH_SPECIFIED_SOURCE(' ','NONE',#38,.NOT_KNOWN.);
#37=PRODUCT_DEFINITION('NONE','NONE',#36,#1);
#38=PRODUCT('1','1','PART-1-DESC',(#54));
#39=PRODUCT_DEFINITION_SHAPE('NONE','NONE',#37);
#40=ADVANCED_BREP_SHAPE_REPRESENTATION('1',(#55,#56),#23);
#43=UNCERTAINTY_MEASURE_WITH_UNIT(LENGTH_MEASURE(1.0E-006),#45,'','');
#45= (CONVERSION_BASED_UNIT('MILLIMETRE',#59)LENGTH_UNIT()NAMED_UNIT(#62));
#46= (NAMED_UNIT(#64)PLANE_ANGLE_UNIT()SI_UNIT($,.RADIAN.));
#47= (NAMED_UNIT(#64)SOLID_ANGLE_UNIT()SI_UNIT($,.STERADIAN.));
#49=COORDINATED_UNIVERSAL_TIME_OFFSET(9,0,.AHEAD.);
#50=PERSON('','UNSPECIFIED',$,$,$,$);
#51=ORGANIZATION('UNSPECIFIED','UNSPECIFIED','UNSPECIFIED');
#52=APPROVAL_STATUS('approved');
#53=SECURITY_CLASSIFICATION_LEVEL('unclassified');
#54=MECHANICAL_CONTEXT('',#27,'mechanical');
#55=MANIFOLD_SOLID_BREP('1',#70);
#56=AXIS2_PLACEMENT_3D('',#71,#72,#73);
#59=LENGTH_MEASURE_WITH_UNIT(LENGTH_MEASURE(1.0),#74);
#62=DIMENSIONAL_EXPONENTS(1.0,0.0,0.0,0.0,0.0,0.0,0.0);
#64=DIMENSIONAL_EXPONENTS(0.0,0.0,0.0,0.0,0.0,0.0,0.0);
#70=CLOSED_SHELL('',(#75,#76,#77,#78,#79,#80,#81,#82,#83,#84,#85,#86,#87,#88,#89));
#71=CARTESIAN_POINT('',(0.0,0.0,0.0));
#72=DIRECTION('',(0.0,0.0,1.0));
#73=DIRECTION('',(1.0,0.0,0.0));
#74= (NAMED_UNIT(#62)LENGTH_UNIT()SI_UNIT(.MILLI.,.METRE.));
#75=ADVANCED_FACE('',(#91),#92,.T.);
#76=ADVANCED_FACE('',(#93,#94),#95,.T.);
#77=ADVANCED_FACE('',(#96,#97),#98,.T.);
#78=ADVANCED_FACE('',(#99,#100),#101,.T.);
#79=ADVANCED_FACE('',(#102,#103),#104,.T.);
#80=ADVANCED_FACE('',(#105,#106),#107,.T.);
#81=ADVANCED_FACE('',(#108,#109),#110,.T.);
#82=ADVANCED_FACE('',(#111,#112),#113,.T.);
#83=ADVANCED_FACE('',(#114,#115),#116,.T.);
#84=ADVANCED_FACE('',(#117,#118),#119,.T.);
#85=ADVANCED_FACE('',(#120,#121),#122,.T.);
#86=ADVANCED_FACE('',(#123,#124),#125,.F.);
#87=ADVANCED_FACE('',(#126,#127),#128,.T.);
#88=ADVANCED_FACE('',(#129,#130),#131,.T.);
#89=ADVANCED_FACE('',(#132),#133,.T.);
#91=FACE_OUTER_BOUND('',#134,.T.);
#92=PLANE('',#135);
#93=FACE_BOUND('',#136,.T.);
#94=FACE_BOUND('',#137,.T.);
#95=CONICAL_SURFACE('',#138,27.5020833333334,0.144812498238939);
#96=FACE_BOUND('',#139,.T.);
#97=FACE_BOUND('',#140,.T.);
#98=CYLINDRICAL_SURFACE('',#141,34.9250000000001);
#99=FACE_OUTER_BOUND('',#142,.T.);
#100=FACE_BOUND('',#143,.T.);
#101=PLANE('',#144);
#102=FACE_BOUND('',#145,.T.);
#103=FACE_BOUND('',#146,.T.);
#104=CYLINDRICAL_SURFACE('',#147,50.0);
#105=FACE_BOUND('',#148,.T.);
#106=FACE_BOUND('',#149,.T.);
#107=CONICAL_SURFACE('',#150,46.2500000000001,1.04719755119661);
#108=FACE_BOUND('',#151,.T.);
#109=FACE_BOUND('',#152,.T.);
#110=CYLINDRICAL_SURFACE('',#153,42.5000000000002);
#111=FACE_BOUND('',#154,.T.);
#112=FACE_BOUND('',#155,.T.);
#113=CONICAL_SURFACE('',#156,46.25,1.04719755119658);
#114=FACE_BOUND('',#157,.T.);
#115=FACE_BOUND('',#158,.T.);
#116=CYLINDRICAL_SURFACE('',#159,50.0);
#117=FACE_BOUND('',#160,.T.);
#118=FACE_OUTER_BOUND('',#161,.T.);
#119=PLANE('',#162);
#120=FACE_BOUND('',#163,.T.);
#121=FACE_BOUND('',#164,.T.);
#122=CONICAL_SURFACE('',#165,39.7547333040184,1.03889197851725);
#123=FACE_BOUND('',#166,.T.);
#124=FACE_BOUND('',#167,.T.);
#125=TOROIDAL_SURFACE('',#168,340.483407619581,350.0);
#126=FACE_BOUND('',#169,.T.);
#127=FACE_BOUND('',#170,.T.);
#128=CONICAL_SURFACE('',#171,9.77965577030003,0.168018533858987);
#129=FACE_BOUND('',#172,.T.);
#130=FACE_BOUND('',#173,.T.);
#131=CYLINDRICAL_SURFACE('',#174,9.49999999999983);
#132=FACE_OUTER_BOUND('',#175,.T.);
#133=PLANE('',#176);
#134=EDGE_LOOP('',(#177));
#135=AXIS2_PLACEMENT_3D('',#178,#179,#180);
#136=EDGE_LOOP('',(#181));
#137=EDGE_LOOP('',(#182));
#138=AXIS2_PLACEMENT_3D('',#183,#184,#185);
#139=EDGE_LOOP('',(#186));
#140=EDGE_LOOP('',(#187));
#141=AXIS2_PLACEMENT_3D('',#188,#189,#190);
#142=EDGE_LOOP('',(#191));
#143=EDGE_LOOP('',(#192));
#144=AXIS2_PLACEMENT_3D('',#193,#194,#195);
#145=EDGE_LOOP('',(#196));
#146=EDGE_LOOP('',(#197));
#147=AXIS2_PLACEMENT_3D('',#198,#199,#200);
#148=EDGE_LOOP('',(#201));
#149=EDGE_LOOP('',(#202));
#150=AXIS2_PLACEMENT_3D('',#203,#204,#205);
#151=EDGE_LOOP('',(#206));
#152=EDGE_LOOP('',(#207));
#153=AXIS2_PLACEMENT_3D('',#208,#209,#210);
#154=EDGE_LOOP('',(#211));
#155=EDGE_LOOP('',(#212));
#156=AXIS2_PLACEMENT_3D('',#213,#214,#215);
#157=EDGE_LOOP('',(#216));
#158=EDGE_LOOP('',(#217));
#159=AXIS2_PLACEMENT_3D('',#218,#219,#220);
#160=EDGE_LOOP('',(#221));
#161=EDGE_LOOP('',(#222));
#162=AXIS2_PLACEMENT_3D('',#223,#224,#225);
#163=EDGE_LOOP('',(#226));
#164=EDGE_LOOP('',(#227));
#165=AXIS2_PLACEMENT_3D('',#228,#229,#230);
#166=EDGE_LOOP('',(#231));
#167=EDGE_LOOP('',(#232));
#168=AXIS2_PLACEMENT_3D('',#233,#234,#235);
#169=EDGE_LOOP('',(#236));
#170=EDGE_LOOP('',(#237));
#171=AXIS2_PLACEMENT_3D('',#238,#239,#240);
#172=EDGE_LOOP('',(#241));
#173=EDGE_LOOP('',(#242));
#174=AXIS2_PLACEMENT_3D('',#243,#244,#245);
#175=EDGE_LOOP('',(#246));
#176=AXIS2_PLACEMENT_3D('',#247,#248,#249);
#177=ORIENTED_EDGE('',*,*,#250,.F.);
#178=CARTESIAN_POINT('',(-6.23345220766003E-015,10.0395833333333,101.8));
#179=DIRECTION('',(-6.12323399573677E-017,-1.22464679914735E-016,1.0));
#180=DIRECTION('',(1.23259516440783E-032,-1.0,-1.22464679914735E-016));
#181=ORIENTED_EDGE('',*,*,#251,.F.);
#182=ORIENTED_EDGE('',*,*,#250,.T.);
#183=CARTESIAN_POINT('',(-3.11672610383001E-015,-6.04745286946008E-014,50.9));
#184=DIRECTION('',(6.12323399573677E-017,4.47299429684663E-016,-1.0));
#185=DIRECTION('',(-3.2216343471957E-032,1.0,4.47299429684663E-016));
#186=ORIENTED_EDGE('',*,*,#252,.F.);
#187=ORIENTED_EDGE('',*,*,#251,.T.);
#188=CARTESIAN_POINT('',(4.59242549680284E-017,-3.73715131513879E-014,-0.750000000000043));
#189=DIRECTION('',(-6.12323399573677E-017,-4.47299429684663E-016,1.0));
#190=DIRECTION('',(-3.2216343471957E-032,1.0,4.47299429684663E-016));
#191=ORIENTED_EDGE('',*,*,#253,.F.);
#192=ORIENTED_EDGE('',*,*,#252,.T.);
#193=CARTESIAN_POINT('',(9.18485099360491E-017,42.4625,-1.49999999999996));
#194=DIRECTION('',(-6.12323399573677E-017,-4.26140557437139E-015,1.0));
#195=DIRECTION('',(2.65762987556899E-031,-1.0,-4.26140557437139E-015));
#196=ORIENTED_EDGE('',*,*,#254,.F.);
#197=ORIENTED_EDGE('',*,*,#253,.T.);
#198=CARTESIAN_POINT('',(5.26598123633362E-016,-3.38602126283633E-014,-8.59999999999999));
#199=DIRECTION('',(-6.12323399573676E-017,-4.47299429684663E-016,1.0));
#200=DIRECTION('',(-3.2216343471957E-032,1.0,4.47299429684663E-016));
#201=ORIENTED_EDGE('',*,*,#255,.F.);
#202=ORIENTED_EDGE('',*,*,#254,.T.);
#203=CARTESIAN_POINT('',(1.09391964217128E-015,-2.97159550045893E-014,-17.865063509461));
#204=DIRECTION('',(-6.12323399573677E-017,-4.47299429684663E-016,1.0));
#205=DIRECTION('',(-3.2216343471957E-032,1.0,4.47299429684663E-016));
#206=ORIENTED_EDGE('',*,*,#256,.F.);
#207=ORIENTED_EDGE('',*,*,#255,.T.);
#208=CARTESIAN_POINT('',(1.42059028701091E-015,-2.73296409549674E-014,-23.1999999999997));
#209=DIRECTION('',(-6.12323399573677E-017,-4.47299429684663E-016,1.0));
#210=DIRECTION('',(-3.2216343471957E-032,1.0,4.47299429684663E-016));
#211=ORIENTED_EDGE('',*,*,#257,.F.);
#212=ORIENTED_EDGE('',*,*,#256,.T.);
#213=CARTESIAN_POINT('',(1.74726093185056E-015,-2.49433269053454E-014,-28.5349364905386));
#214=DIRECTION('',(6.12323399573677E-017,4.47299429684663E-016,-1.0));
#215=DIRECTION('',(-3.2216343471957E-032,1.0,4.47299429684663E-016));
#216=ORIENTED_EDGE('',*,*,#258,.F.);
#217=ORIENTED_EDGE('',*,*,#257,.T.);
#218=CARTESIAN_POINT('',(2.10333087753557E-015,-2.23422523139833E-014,-34.3499999999998));
#219=DIRECTION('',(-6.12323399573677E-017,-4.47299429684663E-016,1.0));
#220=DIRECTION('',(-3.2216343471957E-032,1.0,4.47299429684663E-016));
#221=ORIENTED_EDGE('',*,*,#259,.F.);
#222=ORIENTED_EDGE('',*,*,#258,.T.);
#223=CARTESIAN_POINT('',(2.32682891837997E-015,47.5000000000001,-38.0));
#224=DIRECTION('',(6.12323399573677E-017,1.29122339235967E-014,-1.0));
#225=DIRECTION('',(-7.95473449949498E-031,1.0,1.29122339235967E-014));
#226=ORIENTED_EDGE('',*,*,#260,.F.);
#227=ORIENTED_EDGE('',*,*,#259,.T.);
#228=CARTESIAN_POINT('',(2.51583624922394E-015,-1.93289195289464E-014,-41.0867239595214));
#229=DIRECTION('',(-6.12323399573677E-017,-4.47299429684663E-016,1.0));
#230=DIRECTION('',(-3.2216343471957E-032,1.0,4.47299429684663E-016));
#231=ORIENTED_EDGE('',*,*,#261,.F.);
#232=ORIENTED_EDGE('',*,*,#260,.T.);
#233=CARTESIAN_POINT('',(1.31107293747396E-014,8.30648776102872E-014,-214.114459513842));
#234=DIRECTION('',(6.12323399573677E-017,4.47299429684663E-016,-1.0));
#235=DIRECTION('',(-1.0,-4.82715273076902E-033,-6.12323399573677E-017));
#236=ORIENTED_EDGE('',*,*,#262,.F.);
#237=ORIENTED_EDGE('',*,*,#261,.T.);
#238=CARTESIAN_POINT('',(6.14474234160839E-015,7.18007272307117E-015,-100.351257944521));
#239=DIRECTION('',(-6.12323399573677E-017,-4.47299429684663E-016,1.0));
#240=DIRECTION('',(-3.2216343471957E-032,1.0,4.47299429684663E-016));
#241=ORIENTED_EDGE('',*,*,#263,.F.);
#242=ORIENTED_EDGE('',*,*,#262,.T.);
#243=CARTESIAN_POINT('',(6.42939569528903E-015,9.25945239152462E-015,-104.999999996169));
#244=DIRECTION('',(-6.12323399573676E-017,-4.47299429684663E-016,1.0));
#245=DIRECTION('',(-3.2216343471957E-032,1.0,4.47299429684663E-016));
#246=ORIENTED_EDGE('',*,*,#263,.T.);
#247=CARTESIAN_POINT('',(6.61309271515618E-015,4.74999999999998,-107.999999996088));
#248=DIRECTION('',(6.12323399573677E-017,2.10647768917915E-014,-1.0));
#249=DIRECTION('',(-1.29467273249505E-030,1.0,2.10647768917915E-014));
#250=EDGE_CURVE('',#264,#264,#265,.T.);
#251=EDGE_CURVE('',#266,#266,#267,.T.);
#252=EDGE_CURVE('',#268,#268,#269,.T.);
#253=EDGE_CURVE('',#270,#270,#271,.T.);
#254=EDGE_CURVE('',#272,#272,#273,.T.);
#255=EDGE_CURVE('',#274,#274,#275,.T.);
#256=EDGE_CURVE('',#276,#276,#277,.T.);
#257=EDGE_CURVE('',#278,#278,#279,.T.);
#258=EDGE_CURVE('',#280,#280,#281,.T.);
#259=EDGE_CURVE('',#282,#282,#283,.T.);
#260=EDGE_CURVE('',#284,#284,#285,.T.);
#261=EDGE_CURVE('',#286,#286,#287,.T.);
#262=EDGE_CURVE('',#288,#288,#289,.T.);
#263=EDGE_CURVE('',#290,#290,#291,.T.);
#264=VERTEX_POINT('',#292);
#265=CIRCLE('',#293,20.0791666666668);
#266=VERTEX_POINT('',#294);
#267=CIRCLE('',#295,34.925);
#268=VERTEX_POINT('',#296);
#269=CIRCLE('',#297,34.9250000000001);
#270=VERTEX_POINT('',#298);
#271=CIRCLE('',#299,50.0);
#272=VERTEX_POINT('',#300);
#273=CIRCLE('',#301,50.0);
#274=VERTEX_POINT('',#302);
#275=CIRCLE('',#303,42.5000000000003);
#276=VERTEX_POINT('',#304);
#277=CIRCLE('',#305,42.5000000000001);
#278=VERTEX_POINT('',#306);
#279=CIRCLE('',#307,49.9999999999999);
#280=VERTEX_POINT('',#308);
#281=CIRCLE('',#309,50.0000000000001);
#282=VERTEX_POINT('',#310);
#283=CIRCLE('',#311,45.0000000000001);
#284=VERTEX_POINT('',#312);
#285=CIRCLE('',#313,34.5094666080367);
#286=VERTEX_POINT('',#314);
#287=CIRCLE('',#315,10.0593115406003);
#288=VERTEX_POINT('',#316);
#289=CIRCLE('',#317,9.49999999999973);
#290=VERTEX_POINT('',#318);
#291=CIRCLE('',#319,9.49999999999993);
#292=CARTESIAN_POINT('',(-6.23345220766003E-015,20.0791666666667,101.8));
#293=AXIS2_PLACEMENT_3D('',#320,#321,#322);
#294=CARTESIAN_POINT('',(3.04751304840905E-030,34.925,-5.25229210539779E-014));
#295=AXIS2_PLACEMENT_3D('',#323,#324,#325);
#296=CARTESIAN_POINT('',(9.18485099360511E-017,34.9250000000001,-1.5));
#297=AXIS2_PLACEMENT_3D('',#326,#327,#328);
#298=CARTESIAN_POINT('',(9.18485099360471E-017,50.0,-1.49999999999993));
#299=AXIS2_PLACEMENT_3D('',#329,#330,#331);
#300=CARTESIAN_POINT('',(9.61347737330673E-016,49.9999999999999,-15.7));
#301=AXIS2_PLACEMENT_3D('',#332,#333,#334);
#302=CARTESIAN_POINT('',(1.22649154701188E-015,42.5000000000003,-20.0301270189219));
#303=AXIS2_PLACEMENT_3D('',#335,#336,#337);
#304=CARTESIAN_POINT('',(1.61468902700994E-015,42.5000000000001,-26.3698729810775));
#305=AXIS2_PLACEMENT_3D('',#338,#339,#340);
#306=CARTESIAN_POINT('',(1.87983283669117E-015,49.9999999999999,-30.6999999999997));
#307=AXIS2_PLACEMENT_3D('',#341,#342,#343);
#308=CARTESIAN_POINT('',(2.32682891837997E-015,50.0,-37.9999999999999));
#309=AXIS2_PLACEMENT_3D('',#344,#345,#346);
#310=CARTESIAN_POINT('',(2.32682891837997E-015,45.0000000000001,-38.0));
#311=AXIS2_PLACEMENT_3D('',#347,#348,#349);
#312=CARTESIAN_POINT('',(2.7048435800679E-015,34.5094666080367,-44.1734479190427));
#313=AXIS2_PLACEMENT_3D('',#350,#351,#352);
#314=CARTESIAN_POINT('',(6.04378600779488E-015,10.0593115406003,-98.7025158927913));
#315=AXIS2_PLACEMENT_3D('',#353,#354,#355);
#316=CARTESIAN_POINT('',(6.24569867542189E-015,9.49999999999973,-101.99999999625));
#317=AXIS2_PLACEMENT_3D('',#356,#357,#358);
#318=CARTESIAN_POINT('',(6.61309271515617E-015,9.49999999999994,-107.999999996088));
#319=AXIS2_PLACEMENT_3D('',#359,#360,#361);
#320=CARTESIAN_POINT('',(-6.23345220766003E-015,-8.32420696655501E-014,101.8));
#321=DIRECTION('',(6.12323399573676E-017,4.47299429684663E-016,-1.0));
#322=DIRECTION('',(-3.2216343471957E-032,1.0,4.47299429684663E-016));
#323=CARTESIAN_POINT('',(4.35081943503005E-030,-3.77069877236514E-014,-7.105427357601E-014));
#324=DIRECTION('',(6.12323399573677E-017,4.47299429684663E-016,-1.0));
#325=DIRECTION('',(-3.2216343471957E-032,1.0,4.47299429684663E-016));
#326=CARTESIAN_POINT('',(9.18485099360524E-017,-3.70360385791244E-014,-1.50000000000001));
#327=DIRECTION('',(6.12323399573677E-017,4.47299429684663E-016,-1.0));
#328=DIRECTION('',(-3.2216343471957E-032,1.0,4.47299429684663E-016));
#329=CARTESIAN_POINT('',(9.18485099360489E-017,-3.70360385791245E-014,-1.49999999999996));
#330=DIRECTION('',(6.12323399573677E-017,4.47299429684663E-016,-1.0));
#331=DIRECTION('',(-3.2216343471957E-032,1.0,4.47299429684663E-016));
#332=CARTESIAN_POINT('',(9.61347737330675E-016,-3.06843866776022E-014,-15.7));
#333=DIRECTION('',(6.12323399573677E-017,4.47299429684663E-016,-1.0));
#334=DIRECTION('',(-3.2216343471957E-032,1.0,4.47299429684663E-016));
#335=CARTESIAN_POINT('',(1.22649154701188E-015,-2.87475233315763E-014,-20.0301270189219));
#336=DIRECTION('',(6.12323399573677E-017,4.47299429684663E-016,-1.0));
#337=DIRECTION('',(-3.2216343471957E-032,1.0,4.47299429684663E-016));
#338=CARTESIAN_POINT('',(1.61468902700994E-015,-2.59117585783585E-014,-26.3698729810775));
#339=DIRECTION('',(6.12323399573677E-017,4.47299429684663E-016,-1.0));
#340=DIRECTION('',(-3.2216343471957E-032,1.0,4.47299429684663E-016));
#341=CARTESIAN_POINT('',(1.87983283669117E-015,-2.39748952323324E-014,-30.6999999999997));
#342=DIRECTION('',(6.12323399573677E-017,4.47299429684663E-016,-1.0));
#343=DIRECTION('',(-3.2216343471957E-032,1.0,4.47299429684663E-016));
#344=CARTESIAN_POINT('',(2.32682891837997E-015,-2.07096093956343E-014,-37.9999999999999));
#345=DIRECTION('',(6.12323399573677E-017,4.47299429684663E-016,-1.0));
#346=DIRECTION('',(-3.2216343471957E-032,1.0,4.47299429684663E-016));
#347=CARTESIAN_POINT('',(2.32682891837997E-015,-2.07096093956343E-014,-38.0));
#348=DIRECTION('',(6.12323399573677E-017,4.47299429684663E-016,-1.0));
#349=DIRECTION('',(-3.2216343471957E-032,1.0,4.47299429684663E-016));
#350=CARTESIAN_POINT('',(2.7048435800679E-015,-1.79482296622585E-014,-44.1734479190427));
#351=DIRECTION('',(6.12323399573677E-017,4.47299429684663E-016,-1.0));
#352=DIRECTION('',(-3.2216343471957E-032,1.0,4.47299429684663E-016));
#353=CARTESIAN_POINT('',(6.04378600779488E-015,6.44259134363547E-015,-98.7025158927913));
#354=DIRECTION('',(6.12323399573676E-017,4.47299429684663E-016,-1.0));
#355=DIRECTION('',(-3.2216343471957E-032,1.0,4.47299429684663E-016));
#356=CARTESIAN_POINT('',(6.24569867542189E-015,7.91755410250688E-015,-101.99999999625));
#357=DIRECTION('',(6.12323399573677E-017,4.47299429684663E-016,-1.0));
#358=DIRECTION('',(-3.2216343471957E-032,1.0,4.47299429684663E-016));
#359=CARTESIAN_POINT('',(6.61309271515617E-015,1.06013506805424E-014,-107.999999996088));
#360=DIRECTION('',(6.12323399573677E-017,4.47299429684663E-016,-1.0));
#361=DIRECTION('',(-3.2216343471957E-032,1.0,4.47299429684663E-016));
ENDSEC;
END-ISO-10303-21;
