  0
SECTION
  2
HEADER
  9
$ACADVER
  1
AC1009
  9
$INSBASE
 10
0.0
 20
0.0
 30
0.0
  9
$EXTMIN
 10
-66.400000000000205
 20
-31.500000000000711
 30
0.0
  9
$EXTMAX
 10
120.0
 20
68.0
 30
0.0
  9
$LIMMIN
 10
0.0
 20
0.0
  9
$LIMMAX
 10
297.0
 20
210.0
  9
$ORTHOMODE
 70
     1
  9
$REGENMODE
 70
     1
  9
$FILLMODE
 70
     1
  9
$QTEXTMODE
 70
     0
  9
$MIRRTEXT
 70
     1
  9
$DRAGMODE
 70
     2
  9
$LTSCALE
 40
10.0
  9
$OSMODE
 70
    45
  9
$ATTMODE
 70
     1
  9
$TEXTSIZE
 40
3.0
  9
$TRACEWID
 40
1.0
  9
$TEXTSTYLE
  7
YOKO
  9
$CLAYER
  8
240
  9
$CELTYPE
  6
BYLAYER
  9
$CECOLOR
 62
   256
  9
$DIMSCALE
 40
1.0
  9
$DIMASZ
 40
2.2299999999999991
  9
$DIMEXO
 40
0.5
  9
$DIMDLI
 40
7.0
  9
$DIMRND
 40
0.0
  9
$DIMDLE
 40
0.0
  9
$DIMEXE
 40
1.0
  9
$DIMTP
 40
0.0
  9
$DIMTM
 40
0.01
  9
$DIMTXT
 40
2.7999999999999989
  9
$DIMCEN
 40
0.0
  9
$DIMTSZ
 40
0.0
  9
$DIMTOL
 70
     0
  9
$DIMLIM
 70
     0
  9
$DIMTIH
 70
     0
  9
$DIMTOH
 70
     0
  9
$DIMSE1
 70
     0
  9
$DIMSE2
 70
     0
  9
$DIMTAD
 70
     3
  9
$DIMZIN
 70
     9
  9
$DIMBLK
  1
OPEN
  9
$DIMASO
 70
     1
  9
$DIMSHO
 70
     1
  9
$DIMPOST
  1

  9
$DIMAPOST
  1

  9
$DIMALT
 70
     0
  9
$DIMALTD
 70
     2
  9
$DIMALTF
 40
25.399999999999999
  9
$DIMLFAC
 40
1.0
  9
$DIMTOFL
 70
     1
  9
$DIMTVP
 40
0.0
  9
$DIMTIX
 70
     1
  9
$DIMSOXD
 70
     0
  9
$DIMSAH
 70
     0
  9
$DIMBLK1
  1

  9
$DIMBLK2
  1

  9
$DIMSTYLE
  2
BIGT
  9
$DIMCLRD
 70
   256
  9
$DIMCLRE
 70
   256
  9
$DIMCLRT
 70
    40
  9
$DIMTFAC
 40
1.0
  9
$DIMGAP
 40
1.0
  9
$LUNITS
 70
     2
  9
$LUPREC
 70
     6
  9
$SKETCHINC
 40
1.0
  9
$FILLETRAD
 40
0.0
  9
$AUNITS
 70
     0
  9
$AUPREC
 70
     6
  9
$MENU
  1
.
  9
$ELEVATION
 40
0.0
  9
$PELEVATION
 40
0.0
  9
$THICKNESS
 40
0.0
  9
$LIMCHECK
 70
     0
  9
$BLIPMODE
 70
     0
  9
$CHAMFERA
 40
0.2
  9
$CHAMFERB
 40
0.2
  9
$SKPOLY
 70
     0
  9
$TDCREATE
 40
2457864.473534734
  9
$TDUPDATE
 40
2457864.616688218
  9
$TDINDWG
 40
0.0077150231
  9
$TDUSRTIMER
 40
0.007715
  9
$USRTIMER
 70
     1
  9
$ANGBASE
 50
0.0
  9
$ANGDIR
 70
     0
  9
$PDMODE
 70
     1
  9
$PDSIZE
 40
0.0
  9
$PLINEWID
 40
0.0
  9
$COORDS
 70
     1
  9
$SPLFRAME
 70
     0
  9
$SPLINETYPE
 70
     6
  9
$SPLINESEGS
 70
     4
  9
$ATTDIA
 70
     1
  9
$ATTREQ
 70
     1
  9
$HANDLING
 70
     1
  9
$HANDSEED
  5
44DA
  9
$SURFTAB1
 70
     6
  9
$SURFTAB2
 70
     6
  9
$SURFTYPE
 70
     6
  9
$SURFU
 70
     6
  9
$SURFV
 70
     6
  9
$UCSNAME
  2

  9
$UCSORG
 10
0.0
 20
0.0
 30
0.0
  9
$UCSXDIR
 10
1.0
 20
0.0
 30
0.0
  9
$UCSYDIR
 10
0.0
 20
1.0
 30
0.0
  9
$PUCSNAME
  2

  9
$PUCSORG
 10
0.0
 20
0.0
 30
0.0
  9
$PUCSXDIR
 10
1.0
 20
0.0
 30
0.0
  9
$PUCSYDIR
 10
0.0
 20
1.0
 30
0.0
  9
$USERI1
 70
     1
  9
$USERI2
 70
     0
  9
$USERI3
 70
     0
  9
$USERI4
 70
     0
  9
$USERI5
 70
     0
  9
$USERR1
 40
0.0
  9
$USERR2
 40
0.0
  9
$USERR3
 40
0.0
  9
$USERR4
 40
0.0
  9
$USERR5
 40
0.0
  9
$WORLDVIEW
 70
     1
  9
$SHADEDGE
 70
     3
  9
$SHADEDIF
 70
    70
  9
$TILEMODE
 70
     1
  9
$MAXACTVP
 70
    16
  9
$PLIMCHECK
 70
     0
  9
$PEXTMIN
 10
1.0000000000000000E+020
 20
1.0000000000000000E+020
 30
1.0000000000000000E+020
  9
$PEXTMAX
 10
-1.0000000000000000E+020
 20
-1.0000000000000000E+020
 30
-1.0000000000000000E+020
  9
$PLIMMIN
 10
0.0
 20
0.0
  9
$PLIMMAX
 10
420.0
 20
297.0
  9
$UNITMODE
 70
     0
  9
$VISRETAIN
 70
     1
  9
$PLINEGEN
 70
     0
  9
$PSLTSCALE
 70
     1
  0
ENDSEC
  0
SECTION
  2
TABLES
  0
TABLE
  2
VPORT
 70
     1
  0
VPORT
  2
*ACTIVE
 70
     0
 10
0.0
 20
0.0
 11
1.0
 21
1.0
 12
45.323463581934952
 22
18.82960992911174
 13
0.0
 23
0.0
 14
7.0
 24
7.0
 15
7.0
 25
7.0
 16
0.0
 26
0.0
 36
1.0
 17
0.0
 27
0.0
 37
0.0
 40
193.57660276612731
 41
1.5701357466063339
 42
50.0
 43
0.0
 44
0.0
 50
0.0
 51
0.0
 71
     0
 72
  2000
 73
     1
 74
     0
 75
     0
 76
     1
 77
     0
 78
     0
  0
ENDTAB
  0
TABLE
  2
LTYPE
 70
    21
  0
LTYPE
  2
CONTINUOUS
 70
     0
  3
Solid line
 72
    65
 73
     0
 40
0.0
  0
LTYPE
  2
CENTER2
 70
     0
  3
___ _ ___ _ ___ _ ___ _ ___ _ ___ _ ___ _ ___ _
 72
    65
 73
     4
 40
1.125
 49
0.75
 49
-0.125
 49
0.125
 49
-0.125
  0
LTYPE
  2
HIDDEN2
 70
     0
  3
_ _ _ _ _ _ _ _ _ _ _ _ _ _ _ _ _ _ _ _ _ _ _ _
 72
    65
 73
     2
 40
0.1875
 49
0.125
 49
-0.0625
  0
LTYPE
  2
AM_ISO02W050
 70
     0
  3
__ __ __ __ __ __ __ __ __ __ __ __ __ __ __
 72
    65
 73
     2
 40
7.5
 49
6.0
 49
-1.5
  0
LTYPE
  2
AMCONSTR
 70
     0
  3
_______________________
 72
    65
 73
     2
 40
9999.0
 49
9999.0
 49
0.0
  0
LTYPE
  2
ACISOWELD
 70
     0
  3
_ _ _ _ _
 72
    65
 73
     2
 40
2.0
 49
2.0
 49
-1.0
  0
LTYPE
  2
ACISOTGB
 70
     0
  3
__ . . __ . .
 72
    65
 73
     6
 40
9.0
 49
4.0
 49
-1.0
 49
1.0
 49
-1.0
 49
1.0
 49
-1.0
  0
LTYPE
  2
ACISOTGL
 70
     0
  3
_ _ _ _ _
 72
    65
 73
     2
 40
3.0
 49
2.0
 49
-1.0
  0
LTYPE
  2
AM_ISO08W050
 70
     0
  3
____ . ____ . ____ . ____ . ____ . ____ . ____
 72
    65
 73
     4
 40
18.0
 49
12.0
 49
-1.5
 49
3.0
 49
-1.5
  0
LTYPE
  2
AM_ISO09W050
 70
     0
  3
_____ . . _____ . . _____ . . ____ .. ____
 72
    65
 73
     6
 40
22.5
 49
12.0
 49
-1.5
 49
3.0
 49
-1.5
 49
3.0
 49
-1.5
  0
LTYPE
  2
AM_ISO08W050X2
 70
     0
  3
__ . __ . __ . __ . __ . __
 72
    65
 73
     4
 40
9.0
 49
6.0
 49
-0.75
 49
1.5
 49
-0.75
  0
LTYPE
  2
AM_ISO02W050X2
 70
     0
  3
 _ _ _ _ _ _ _ _ _ _ _ _
 72
    65
 73
     2
 40
3.75
 49
3.0
 49
-0.75
  0
LTYPE
  2
AMZIGZAG
 70
     0
  3
/\/-/\/-/\/-/\/-/\/-/\/
 72
    65
 73
     2
 40
11.0001
 49
0.0001
 49
-11.0
  0
ENDTAB
  0
TABLE
  2
LAYER
 70
     9
  0
LAYER
  2
0
 70
     0
 62
     7
  6
CONTINUOUS
  0
LAYER
  2
DEFPOINTS
 70
     0
 62
     7
  6
CONTINUOUS
  0
LAYER
  2
245
 70
     0
 62
     2
  6
CENTER2
  0
LAYER
  2
240
 70
     0
 62
     4
  6
CONTINUOUS
  0
LAYER
  2
241
 70
     0
 62
   211
  6
CONTINUOUS
  0
LAYER
  2
242
 70
     0
 62
     3
  6
CONTINUOUS
  0
LAYER
  2
243
 70
     0
 62
   211
  6
HIDDEN2
  0
LAYER
  2
247
 70
     0
 62
    60
  6
CONTINUOUS
  0
LAYER
  2
250
 70
     0
 62
     3
  6
CONTINUOUS
  0
ENDTAB
  0
TABLE
  2
STYLE
 70
     8
  0
STYLE
  2
STANDARD
 70
     0
 40
0.0
 41
1.0
 50
0.0
 71
     0
 42
3.0
  3
romans.shx
  4
extfont.shx
  0
STYLE
  2
ACISOGDT
 70
     0
 40
0.0
 41
1.0
 50
0.0
 71
     0
 42
3.0
  3
amgdt.shx
  4
extfont.shx
  0
STYLE
  2
YOKO
 70
     0
 40
0.0
 41
1.0
 50
0.0
 71
     0
 42
3.0
  3
romans.shx
  4
extfont.shx
  0
STYLE
  2

 70
     1
 40
0.0
 41
1.0
 50
0.0
 71
     0
 42
3.0
  3
genltshp.shx
  4

  0
ENDTAB
  0
TABLE
  2
VIEW
 70
     0
  0
ENDTAB
  0
TABLE
  2
UCS
 70
     0
  0
ENDTAB
  0
TABLE
  2
APPID
 70
    37
  0
APPID
  2
ACAD
 70
     0
  0
APPID
  2
GLOBAL
 70
     0
  0
APPID
  2
DETAIL
 70
     0
  0
APPID
  2
GRPNAME
 70
     0
  0
APPID
  2
GPARA
 70
     0
  0
APPID
  2
MCAD_NO_VIS
 70
     0
  0
APPID
  2
ACAD_TEMP_GRAPHIC
 70
     0
  0
APPID
  2
ACATTRIBSERVICES
 70
     0
  0
APPID
  2
GENIUS_GENSCREG_15
 70
     0
  0
APPID
  2
GENIUS_GENODEF_13
 70
     0
  0
APPID
  2
GENIUS_GENOBJ-N-SDF_13
 70
     0
  0
APPID
  2
GENIUS_GENREC_14
 70
     0
  0
APPID
  2
GENIUS_GENOBJ-N-REC_13
 70
     0
  0
APPID
  2
GENIUS_GENDIMSH_14
 70
     0
  0
APPID
  2
GENIUS_GENOBJ-N-DIM_13
 70
     0
  0
APPID
  2
GENIUS_GENDIM_13
 70
     0
  0
APPID
  2
GENIUS_GENDTOL_13
 70
     0
  0
APPID
  2
GENIUS_GENOLIS_13
 70
     0
  0
APPID
  2
GENIUS_GENOENT_13
 70
     0
  0
APPID
  2
GENIUS_GENOBJ-F-FEM_13
 70
     0
  0
APPID
  2
GENIUS_GENOREF_13
 70
     0
  0
APPID
  2
GENIUS_GEFFEM_13
 70
     0
  0
APPID
  2
GENIUS_GEFFEMP_13
 70
     0
  0
APPID
  2
AD_DRAW
 70
     0
  0
APPID
  2
DESIGNERASSEMBLIES
 70
     0
  0
APPID
  2
ACADM_DIM_EDIT
 70
     0
  0
APPID
  2
AMDT_DM_ADJ
 70
     0
  0
APPID
  2
ITEMNAME
 70
     0
  0
APPID
  2
GENIUS_GENOBJ-N-FIL_13
 70
     0
  0
APPID
  2
GENIUS_GENFIL_13
 70
     0
  0
APPID
  2
GENIUS_GENOBJ-N-CHA_13
 70
     0
  0
APPID
  2
ACAECLAYERSTANDARD
 70
     0
  0
APPID
  2
ACAD_NAV_VCDISPLAY
 70
     0
  0
APPID
  2
ACAD_EXEMPT_FROM_CAD_STANDARDS
 70
     0
  0
APPID
  2
ACAD_DSTYLE_DIMJAG
 70
     0
  0
APPID
  2
ACAD_DSTYLE_DIMBREAK
 70
     0
  0
APPID
  2
ACAD_MLEADERVER
 70
     0
  0
ENDTAB
  0
TABLE
  2
DIMSTYLE
 70
    29
  0
DIMSTYLE
  2
BIGT
 70
     0
  3

  4

  5
OPEN
  6

  7

 40
1.0
 41
2.2299999999999991
 42
0.5
 43
7.0
 44
1.0
 45
0.0
 46
0.0
 47
0.0
 48
0.01
140
2.7999999999999989
141
0.0
142
0.0
143
25.399999999999999
144
1.0
145
0.0
146
1.0
147
1.0
 71
     0
 72
     0
 73
     0
 74
     0
 75
     0
 76
     0
 77
     3
 78
     9
170
     0
171
     2
172
     1
173
     0
174
     1
175
     0
176
   256
177
   256
178
    40
  0
DIMSTYLE
  2
AM_ISO
 70
     0
  3

  4
"
  5

  6

  7

 40
1.0
 41
2.5
 42
1.0
 43
10.0
 44
1.0
 45
0.0
 46
0.0
 47
0.1
 48
0.1
140
3.5
141
0.0
142
0.0
143
0.0393701
144
1.0
145
0.0
146
0.71
147
1.5
 71
     0
 72
     0
 73
     0
 74
     0
 75
     0
 76
     0
 77
     1
 78
     8
170
     0
171
     2
172
     1
173
     0
174
     0
175
     0
176
   256
177
   256
178
     2
  0
DIMSTYLE
  2
AM_ISO$3
 70
     0
  3

  4
"
  5

  6

  7

 40
1.0
 41
2.5
 42
1.0
 43
10.0
 44
1.0
 45
0.0
 46
0.0
 47
0.1
 48
0.1
140
3.5
141
0.0
142
0.0
143
0.0393701
144
1.0
145
0.0
146
0.71
147
1.5
 71
     0
 72
     0
 73
     0
 74
     1
 75
     0
 76
     0
 77
     1
 78
     8
170
     0
171
     2
172
     0
173
     0
174
     0
175
     0
176
   256
177
   256
178
     2
  0
DIMSTYLE
  2
AM_ISO$4
 70
     0
  3

  4
"
  5

  6

  7

 40
1.0
 41
2.5
 42
1.0
 43
10.0
 44
1.0
 45
0.0
 46
0.0
 47
0.1
 48
0.1
140
3.5
141
0.0
142
0.0
143
0.0393701
144
1.0
145
0.0
146
0.71
147
1.5
 71
     0
 72
     0
 73
     0
 74
     1
 75
     0
 76
     0
 77
     1
 78
     8
170
     0
171
     2
172
     0
173
     0
174
     0
175
     0
176
   256
177
   256
178
     2
  0
DIMSTYLE
  2
AM_ISO$6
 70
     0
  3

  4
"
  5

  6

  7

 40
1.0
 41
2.5
 42
1.0
 43
10.0
 44
1.0
 45
0.0
 46
0.0
 47
0.1
 48
0.1
140
3.5
141
0.0
142
0.0
143
0.0393701
144
1.0
145
0.0
146
0.71
147
1.5
 71
     0
 72
     0
 73
     0
 74
     0
 75
     0
 76
     0
 77
     0
 78
     8
170
     0
171
     2
172
     1
173
     0
174
     0
175
     0
176
   256
177
   256
178
     2
  0
DIMSTYLE
  2
AM_ISO$7
 70
     0
  3

  4
"
  5

  6

  7

 40
1.0
 41
2.5
 42
1.0
 43
10.0
 44
1.0
 45
0.0
 46
0.0
 47
0.1
 48
0.1
140
5.0
141
0.0
142
0.0
143
0.0393701
144
1.0
145
0.0
146
0.71
147
1.5
 71
     0
 72
     0
 73
     0
 74
     0
 75
     0
 76
     0
 77
     1
 78
     8
170
     0
171
     2
172
     1
173
     0
174
     0
175
     0
176
   256
177
   256
178
     2
  0
DIMSTYLE
  2
AM_ISO$SF
 70
     0
  3

  4
"
  5

  6

  7

 40
1.0
 41
2.5
 42
1.0
 43
10.0
 44
1.0
 45
0.0
 46
0.0
 47
0.1
 48
0.1
140
3.5
141
0.0
142
0.0
143
0.0393701
144
1.0
145
0.0
146
0.71
147
1.5
 71
     0
 72
     0
 73
     0
 74
     0
 75
     1
 76
     1
 77
     1
 78
     8
170
     0
171
     2
172
     1
173
     0
174
     0
175
     0
176
   256
177
   256
178
     2
  0
DIMSTYLE
  2
AM_ISO$SH
 70
     0
  3

  4
"
  5

  6
GENAXEH
  7

 40
1.0
 41
2.5
 42
1.0
 43
10.0
 44
1.0
 45
0.0
 46
0.0
 47
0.1
 48
0.1
140
3.5
141
0.0
142
0.0
143
0.0393701
144
2.0
145
0.0
146
0.71
147
1.5
 71
     0
 72
     0
 73
     0
 74
     0
 75
     1
 76
     1
 77
     1
 78
     8
170
     0
171
     2
172
     1
173
     1
174
     0
175
     0
176
   256
177
   256
178
     2
  0
ENDTAB
  0
ENDSEC
  0
SECTION
  2
BLOCKS
  0
BLOCK
  8
0
  2
$MODEL_SPACE
 70
     0
 10
0.0
 20
0.0
 30
0.0
  3
$MODEL_SPACE
  1

  0
ENDBLK
  5
1C
  8
0
  0
BLOCK
 67
     1
  8
0
  2
$PAPER_SPACE
 70
     0
 10
0.0
 20
0.0
 30
0.0
  3
$PAPER_SPACE
  1

  0
ENDBLK
  5
19
 67
     1
  8
0
  0
BLOCK
  8
0
  2
_OPEN
 70
     0
 10
0.0
 20
0.0
 30
0.0
  3
_OPEN
  1

  0
LINE
  5
3E1A
  8
0
  6
BYBLOCK
 62
     0
 10
-1.0
 20
0.1666666666666666
 30
0.0
 11
0.0
 21
0.0
 31
0.0
  0
LINE
  5
3E1B
  8
0
  6
BYBLOCK
 62
     0
 10
-1.0
 20
-0.1666666666666666
 30
0.0
 11
0.0
 21
0.0
 31
0.0
  0
LINE
  5
3E1C
  8
0
  6
BYBLOCK
 62
     0
 10
0.0
 20
0.0
 30
0.0
 11
-1.0
 21
0.0
 31
0.0
  0
ENDBLK
  5
3E1D
  8
0
  0
BLOCK
  8
0
  2
GENAXEH
 70
     0
 10
0.0
 20
0.0
 30
0.0
  3
GENAXEH
  1

  0
LINE
  5
3E45
  8
0
 10
-1.0
 20
0.0
 30
0.0
 11
1.0
 21
0.0
 31
0.0
  0
ENDBLK
  5
3E46
  8
0
  0
ENDSEC
  0
SECTION
  2
ENTITIES
  0
LINE
  5
42AC
  8
240
  6
CONTINUOUS
 10
26.99999999999989
 20
-31.50000000000043
 30
0.0
 11
26.999999999999879
 21
-28.000000000000121
 31
0.0
  0
LINE
  5
42AD
  8
240
  6
CONTINUOUS
 10
-65.400000000000091
 20
-12.68750000000003
 30
0.0
 11
-65.400000000000091
 21
12.687500000000201
 31
0.0
  0
LINE
  5
42AE
  8
240
  6
CONTINUOUS
 10
0.9999999999997726
 20
-31.499999999999631
 30
0.0
 11
0.9999999999998864
 21
-22.225000000000051
 31
0.0
  0
LINE
  5
42AF
  8
241
  6
CONTINUOUS
 10
-0.0000000000001137
 20
-22.225000000000001
 30
0.0
 11
0.0000000000001137
 21
22.225000000000051
 31
0.0
  0
LINE
  5
42B0
  8
240
  6
CONTINUOUS
 10
-0.0000000000001137
 20
-22.225000000000001
 30
0.0
 11
-65.400000000000091
 21
-12.68750000000003
 31
0.0
  0
LINE
  5
42B1
  8
240
  6
CONTINUOUS
 10
26.99999999999989
 20
-31.50000000000043
 30
0.0
 11
21.634494347333309
 21
-31.500000000000711
 31
0.0
  0
LINE
  5
42B2
  8
240
  6
CONTINUOUS
 10
0.9999999999997726
 20
-31.499999999999631
 30
0.0
 11
11.565505652666101
 21
-31.500000000000309
 31
0.0
  0
LINE
  5
42B3
  8
245
  6
CENTER2
 10
-66.400000000000205
 20
0.0000000000000853
 30
0.0
 11
101.78175436227509
 21
-0.0000000000000284
 31
0.0
  0
LINE
  5
42B4
  8
240
  6
CONTINUOUS
 10
14.45225699861486
 20
-26.499999999999801
 30
0.0
 11
11.565505652666269
 21
-31.50000000000043
 31
0.0
  0
LINE
  5
42B5
  8
240
  6
CONTINUOUS
 10
18.747743001385398
 20
-26.500000000000028
 30
0.0
 11
21.634494347334339
 21
-31.50000000000043
 31
0.0
  0
LINE
  5
42B6
  8
240
  6
CONTINUOUS
 10
14.45225699861453
 20
-26.49999999999952
 30
0.0
 11
18.747743001385398
 21
-26.500000000000028
 31
0.0
  0
LINE
  5
42B7
  8
241
  6
CONTINUOUS
 10
11.565505652666269
 20
-31.50000000000043
 30
0.0
 11
11.565505652666159
 21
-8.0499999999999812
 31
0.0
  0
LINE
  5
42B8
  8
241
  6
CONTINUOUS
 10
14.45225699861453
 20
-26.49999999999952
 30
0.0
 11
14.45225699861453
 21
-8.0499999999999812
 31
0.0
  0
LINE
  5
42B9
  8
241
  6
CONTINUOUS
 10
18.747743001385292
 20
-26.499999999999861
 30
0.0
 11
18.747743001385292
 21
-7.0978622200932362
 31
0.0
  0
LINE
  5
42BA
  8
241
  6
CONTINUOUS
 10
21.634494347333309
 20
-31.500000000000711
 30
0.0
 11
21.634494347333359
 21
-4.4855362355536892
 31
0.0
  0
LINE
  5
42BB
  8
240
  6
CONTINUOUS
 10
-0.0000000000001137
 20
-22.225000000000001
 30
0.0
 11
0.9999999999998864
 21
-22.225000000000051
 31
0.0
  0
LINE
  5
42BC
  8
241
  6
CONTINUOUS
 10
0.9999999999998864
 20
-22.22499999999982
 30
0.0
 11
0.9999999999998864
 21
22.225000000000051
 31
0.0
  0
LINE
  5
42BD
  8
240
  6
CONTINUOUS
 10
0.9999999999998293
 20
31.499999999999691
 30
0.0
 11
0.9999999999998864
 21
22.225000000000051
 31
0.0
  0
LINE
  5
42BE
  8
240
  6
CONTINUOUS
 10
-0.0000000000000568
 20
22.225000000000001
 30
0.0
 11
-65.400000000000091
 21
12.687500000000201
 31
0.0
  0
LINE
  5
42BF
  8
240
  6
CONTINUOUS
 10
26.99999999999994
 20
31.50000000000038
 30
0.0
 11
21.634494347333369
 21
31.500000000000711
 31
0.0
  0
LINE
  5
42C0
  8
240
  6
CONTINUOUS
 10
0.9999999999998293
 20
31.499999999999691
 30
0.0
 11
11.565505652666159
 21
31.50000000000038
 31
0.0
  0
LINE
  5
42C1
  8
240
  6
CONTINUOUS
 10
14.452256998614979
 20
26.499999999999801
 30
0.0
 11
11.56550565266633
 21
31.50000000000043
 31
0.0
  0
LINE
  5
42C2
  8
240
  6
CONTINUOUS
 10
18.747743001385508
 20
26.500000000000028
 30
0.0
 11
21.634494347334449
 21
31.50000000000038
 31
0.0
  0
LINE
  5
42C3
  8
240
  6
CONTINUOUS
 10
14.45225699861459
 20
26.49999999999946
 30
0.0
 11
18.747743001385508
 21
26.500000000000028
 31
0.0
  0
LINE
  5
42C4
  8
241
  6
CONTINUOUS
 10
11.56550565266633
 20
31.50000000000043
 30
0.0
 11
11.565505652666159
 21
8.0500000000000345
 31
0.0
  0
LINE
  5
42C5
  8
241
  6
CONTINUOUS
 10
14.45225699861459
 20
26.49999999999946
 30
0.0
 11
14.45225699861459
 21
8.0500000000000345
 31
0.0
  0
LINE
  5
42C6
  8
241
  6
CONTINUOUS
 10
18.747743001385292
 20
26.499999999999861
 30
0.0
 11
18.747743001385292
 21
7.097862220093293
 31
0.0
  0
LINE
  5
42C7
  8
240
  6
CONTINUOUS
 10
0.0
 20
22.225000000000051
 30
0.0
 11
0.9999999999998864
 21
22.225000000000051
 31
0.0
  0
LINE
  5
42C8
  8
250
  6
CONTINUOUS
 10
-34.136872775073371
 20
-19.201653317105951
 30
0.0
 11
-32.700000000000102
 21
-17.456249999999979
 31
0.0
  0
LINE
  5
42C9
  8
250
  6
CONTINUOUS
 10
-33.49312722492688
 20
-19.57331998377262
 30
0.0
 11
-32.700000000000102
 21
-17.456249999999979
 31
0.0
  0
LINE
  5
42CA
  8
250
  6
CONTINUOUS
 10
-32.700000000000102
 20
-17.456249999999979
 30
0.0
 11
-33.815000000000111
 21
-19.387486650439278
 31
0.0
  0
LINE
  5
42CB
  8
250
  6
CONTINUOUS
 10
-33.815000000000111
 20
-19.387486650439278
 30
0.0
 11
-38.36313006819131
 21
-27.265079007978191
 31
0.0
1001
ACAD
1000
DSTYLE
1002
{
1070
   140
1040
4.0
1070
   178
1070
   256
1002
}
  0
TEXT
  5
42CC
  8
250
  6
CONTINUOUS
 10
-55.170463293441799
 20
-26.265079007978191
 30
0.0
 40
2.799999999999998
  1
BBT40M
  7
YOKO
1001
ITEMNAME
1000
LNSP3
  0
LINE
  5
42CD
  8
250
  6
CONTINUOUS
 10
-38.36313006819131
 20
-27.265079007978191
 30
0.0
 11
-56.096463401524652
 21
-27.265079007978191
 31
0.0
1001
ITEMNAME
1000
LNSP2
  0
LINE
  5
42CE
  8
241
  6
CONTINUOUS
 10
14.949999999999809
 20
-8.0499999999999812
 30
0.0
 11
0.9999999999998864
 21
-8.0499999999999812
 31
0.0
  0
LINE
  5
42CF
  8
241
  6
CONTINUOUS
 10
14.949999999999809
 20
8.0500000000000345
 30
0.0
 11
0.9999999999998864
 21
8.0500000000000345
 31
0.0
  0
ARC
  5
42D0
  8
241
  6
CONTINUOUS
 10
14.949999999999809
 20
0.0000000000000284
 30
0.0
 40
8.0499999999999812
 50
270.0
 51
90.0
  0
LINE
  5
42D1
  8
247
  6
CONTINUOUS
 10
7.9999999999998863
 20
-18.250000000069999
 30
0.0
 11
7.9999999999998863
 21
-11.557692308029999
 31
0.0
  0
ARC
  5
42D2
  8
247
  6
CONTINUOUS
 10
6.2500000000698011
 20
-18.250000000069999
 30
0.0
 40
1.7499999999299991
 50
180.0
 51
0.0
  0
ARC
  5
42D3
  8
247
  6
CONTINUOUS
 10
6.2500000000698011
 20
-11.557692308029999
 30
0.0
 40
1.7499999999299991
 50
0.0
 51
180.0
  0
LINE
  5
42D4
  8
247
  6
CONTINUOUS
 10
4.500000000139833
 20
-17.384615384720028
 30
0.0
 11
7.5000000000198943
 21
-18.244851541961989
 31
0.0
  0
LINE
  5
42D5
  8
247
  6
CONTINUOUS
 10
5.9230769231598961
 20
-16.484983818335849
 30
0.0
 11
5.9230769231598961
 21
-17.792676125975809
 31
0.0
  0
ARC
  5
42D6
  8
247
  6
CONTINUOUS
 10
5.049598667702865
 20
-16.14514381608976
 30
0.0
 40
0.5538165441895349
 50
72.997889675291773
 51
172.92416621851041
  0
ARC
  5
42D7
  8
247
  6
CONTINUOUS
 10
4.9360330444656011
 20
-16.56687832302881
 30
0.0
 40
0.9904354236226808
 50
4.7429368522022122
 51
73.849226273266297
1001
GENIUS_GENOBJ-N-FIL_13
1002
{
1000
OWNER
1000
GEN
1002
}
1001
GENIUS_GENODEF_13
1002
{
1000
HIER
1070
     0
1002
}
1002
{
1000
MANEDIT
1070
     0
1002
}
1002
{
1000
NOSEL
1070
     0
1002
}
1002
{
1000
BEHIND
1070
     0
1002
}
1002
{
1000
OTHER
1070
     0
1002
}
1002
{
1000
REACTOR
1002
}
  0
LINE
  5
42D8
  8
247
  6
CONTINUOUS
 10
7.5000000000198943
 20
-16.937159234322021
 30
0.0
 11
7.5000000000198943
 21
-18.244851541961989
 31
0.0
  0
LINE
  5
42D9
  8
247
  6
CONTINUOUS
 10
4.500000000139833
 20
-17.384615384720028
 30
0.0
 11
4.500000000139833
 21
-16.076923077080011
 31
0.0
  0
ARC
  5
42DA
  8
247
  6
CONTINUOUS
 10
6.4820242326653661
 20
-16.56091963654697
 30
0.0
 40
0.5640818586791229
 50
65.990941652528889
 51
172.26344345906909
  0
ARC
  5
42DB
  8
247
  6
CONTINUOUS
 10
6.4874290391863951
 20
-17.03826268534706
 30
0.0
 40
1.0176059446230981
 50
5.701985164259705
 51
77.277338436822376
1001
GENIUS_GENOBJ-N-FIL_13
1002
{
1000
OWNER
1000
GEN
1002
}
1001
GENIUS_GENODEF_13
1002
{
1000
HIER
1070
     0
1002
}
1002
{
1000
MANEDIT
1070
     0
1002
}
1002
{
1000
NOSEL
1070
     0
1002
}
1002
{
1000
BEHIND
1070
     0
1002
}
1002
{
1000
OTHER
1070
     0
1002
}
1002
{
1000
REACTOR
1002
}
  0
LINE
  5
42DC
  8
247
  6
CONTINUOUS
 10
7.5000000000198943
 20
-15.283313080541999
 30
0.0
 11
4.500000000139833
 21
-14.423076923299989
 31
0.0
  0
LINE
  5
42DD
  8
247
  6
CONTINUOUS
 10
4.500000000139833
 20
-12.00000000032
 30
0.0
 11
4.500000000139833
 21
-12.565736619456599
 31
0.0
  0
LINE
  5
42DE
  8
247
  6
CONTINUOUS
 10
7.5000000000198943
 20
-13.46153846180002
 30
0.0
 11
7.5000000000198943
 21
-12.846153846439989
 31
0.0
  0
ARC
  5
42DF
  8
247
  6
CONTINUOUS
 10
6.583285135973254
 20
-11.708791209122831
 30
0.0
 40
2.2526500823422122
 50
202.35948814152911
 51
254.99324854284609
  0
ARC
  5
42E0
  8
247
  6
CONTINUOUS
 10
5.3083126551944124
 20
-12.37406947921326
 30
0.0
 40
0.8906723995727782
 50
94.994589319075317
 51
155.1663289573039
1001
GENIUS_GENOBJ-N-FIL_13
1002
{
1000
OWNER
1000
GEN
1002
}
1001
GENIUS_GENODEF_13
1002
{
1000
HIER
1070
     0
1002
}
1002
{
1000
MANEDIT
1070
     0
1002
}
1002
{
1000
NOSEL
1070
     0
1002
}
1002
{
1000
BEHIND
1070
     0
1002
}
1002
{
1000
OTHER
1070
     0
1002
}
1002
{
1000
REACTOR
1002
}
  0
ARC
  5
42E1
  8
247
  6
CONTINUOUS
 10
6.1601458886676701
 20
-13.22645888621261
 30
0.0
 40
1.392781735586712
 50
15.846096555777221
 51
82.325137004169065
  0
ARC
  5
42E2
  8
247
  6
CONTINUOUS
 10
6.4592434315271694
 20
-12.64221272584038
 30
0.0
 40
1.324563662670287
 50
249.7136016704969
 51
321.78874565640928
1001
GENIUS_GENOBJ-N-FIL_13
1002
{
1000
OWNER
1000
GEN
1002
}
1001
GENIUS_GENODEF_13
1002
{
1000
HIER
1070
     0
1002
}
1002
{
1000
MANEDIT
1070
     0
1002
}
1002
{
1000
NOSEL
1070
     0
1002
}
1002
{
1000
BEHIND
1070
     0
1002
}
1002
{
1000
OTHER
1070
     0
1002
}
1002
{
1000
REACTOR
1002
}
  0
LINE
  5
42E3
  8
247
  6
CONTINUOUS
 10
6.3461538462198632
 20
-12.53846153876
 30
0.0
 11
6.3461538462198632
 21
-11.84615384648
 31
0.0
  0
LINE
  5
42E4
  8
247
  6
CONTINUOUS
 10
4.500000000139833
 20
-18.250000000069999
 30
0.0
 11
4.500000000139833
 21
-17.576923077020041
 31
0.0
  0
LINE
  5
42E5
  8
241
  6
CONTINUOUS
 10
21.63449434733338
 20
4.4855362355537212
 30
0.0
 11
21.63449434733343
 21
31.500000000000711
 31
0.0
  0
TEXT
  5
4363
  8
241
  6
CONTINUOUS
 10
-65.400000000000006
 20
63.0
 30
0.0
 40
5.0
  1
BBT40M-BSL16-100
  7
YOKO
  0
LINE
  5
4364
  8
250
  6
CONTINUOUS
 10
32.0
 20
8.5
 30
0.0
 11
32.0
 21
43.0
 31
0.0
  0
LINE
  5
4365
  8
250
  6
CONTINUOUS
 10
100.0
 20
10.5
 30
0.0
 11
100.0
 21
43.0
 31
0.0
  0
LINE
  5
4366
  8
250
  6
CONTINUOUS
 10
34.229999999999997
 20
42.0
 30
0.0
 11
97.77000000000001
 21
42.0
 31
0.0
  0
LINE
  5
4367
  8
250
  6
CONTINUOUS
 10
34.229999999999997
 20
41.628333325899987
 30
0.0
 11
32.0
 21
42.0
 31
0.0
  0
LINE
  5
4368
  8
250
  6
CONTINUOUS
 10
34.229999999999997
 20
42.371666674099998
 30
0.0
 11
32.0
 21
42.0
 31
0.0
  0
LINE
  5
4369
  8
250
  6
CONTINUOUS
 10
32.0
 20
42.0
 30
0.0
 11
34.229999999999997
 21
42.0
 31
0.0
  0
LINE
  5
436A
  8
250
  6
CONTINUOUS
 10
97.77000000000001
 20
42.371666674099998
 30
0.0
 11
100.0
 21
42.0
 31
0.0
  0
LINE
  5
436B
  8
250
  6
CONTINUOUS
 10
97.77000000000001
 20
41.628333325899987
 30
0.0
 11
100.0
 21
42.0
 31
0.0
  0
LINE
  5
436C
  8
250
  6
CONTINUOUS
 10
100.0
 20
42.0
 30
0.0
 11
97.77000000000001
 21
42.0
 31
0.0
  0
TEXT
  5
436D
  8
250
  6
CONTINUOUS
 10
55.373333333333328
 20
43.0
 30
0.0
 40
2.7999999999999989
  1
üimax.68üj
1001
ACAD
1000
MTEXTBEGIN
1070
    73
1070
     1
1070
    44
1040
1.0
1070
    74
1070
     0
1000
MTEXTEND
1000
MTEXTBEGIN
1070
    73
1070
     1
1070
    44
1040
1.0
1070
    74
1070
     0
1000
MTEXTEND
  0
LINE
  5
436E
  8
250
  6
CONTINUOUS
 10
0.0
 20
22.725000000000001
 30
0.0
 11
0.0
 21
50.0
 31
0.0
  0
LINE
  5
436F
  8
250
  6
CONTINUOUS
 10
100.0
 20
10.5
 30
0.0
 11
100.0
 21
50.0
 31
0.0
  0
LINE
  5
4370
  8
250
  6
CONTINUOUS
 10
2.2299999999999991
 20
49.0
 30
0.0
 11
97.77000000000001
 21
49.0
 31
0.0
  0
LINE
  5
4371
  8
250
  6
CONTINUOUS
 10
2.2299999999999991
 20
48.628333325900002
 30
0.0
 11
0.0
 21
49.0
 31
0.0
  0
LINE
  5
4372
  8
250
  6
CONTINUOUS
 10
2.2299999999999991
 20
49.371666674099998
 30
0.0
 11
0.0
 21
49.0
 31
0.0
  0
LINE
  5
4373
  8
250
  6
CONTINUOUS
 10
0.0
 20
49.0
 30
0.0
 11
2.2299999999999991
 21
49.0
 31
0.0
  0
LINE
  5
4374
  8
250
  6
CONTINUOUS
 10
97.77000000000001
 20
49.371666674099998
 30
0.0
 11
100.0
 21
49.0
 31
0.0
  0
LINE
  5
4375
  8
250
  6
CONTINUOUS
 10
97.77000000000001
 20
48.628333325900002
 30
0.0
 11
100.0
 21
49.0
 31
0.0
  0
LINE
  5
4376
  8
250
  6
CONTINUOUS
 10
100.0
 20
49.0
 30
0.0
 11
97.77000000000001
 21
49.0
 31
0.0
  0
TEXT
  5
4377
  8
250
  6
CONTINUOUS
 10
45.799999999999997
 20
50.0
 30
0.0
 40
2.7999999999999989
  1
100
1001
ACAD
1000
MTEXTBEGIN
1070
    73
1070
     1
1070
    44
1040
1.0
1070
    74
1070
     0
1000
MTEXTEND
1000
MTEXTBEGIN
1070
    73
1070
     1
1070
    44
1040
1.0
1070
    74
1070
     0
1000
MTEXTEND
1000
MTEXTBEGIN
1070
    73
1070
     1
1070
    44
1040
1.0
1070
    74
1070
     0
1000
MTEXTEND
1000
MTEXTBEGIN
1070
    73
1070
     1
1070
    44
1040
1.0
1070
    74
1070
     0
1000
MTEXTEND
  0
LINE
  5
4378
  8
250
  6
CONTINUOUS
 10
100.5
 20
8.0
 30
0.0
 11
113.0
 21
8.0
 31
0.0
  0
LINE
  5
4379
  8
250
  6
CONTINUOUS
 10
112.0
 20
-5.7699999999999987
 30
0.0
 11
112.0
 21
5.7699999999999987
 31
0.0
  0
LINE
  5
437A
  8
250
  6
CONTINUOUS
 10
111.6283333259
 20
5.7699999999999987
 30
0.0
 11
112.0
 21
8.0
 31
0.0
  0
LINE
  5
437B
  8
250
  6
CONTINUOUS
 10
112.3716666741
 20
5.7699999999999987
 30
0.0
 11
112.0
 21
8.0
 31
0.0
  0
LINE
  5
437C
  8
250
  6
CONTINUOUS
 10
112.0
 20
8.0
 30
0.0
 11
112.0
 21
5.7699999999999987
 31
0.0
  0
TEXT
  5
437D
  8
250
  6
CONTINUOUS
 10
111.0
 20
-3.9333333333333331
 30
0.0
 40
2.7999999999999989
  1
\U+220516
 50
90.0
1001
ACAD
1000
MTEXTBEGIN
1070
    73
1070
     1
1070
    44
1040
1.0
1070
    74
1070
     0
1000
MTEXTEND
1000
MTEXTBEGIN
1070
    73
1070
     1
1070
    44
1040
1.0
1070
    74
1070
     0
1000
MTEXTEND
1000
MTEXTBEGIN
1070
    73
1070
     1
1070
    44
1040
1.0
1070
    74
1070
     0
1000
MTEXTEND
  0
LINE
  5
437E
  8
250
  6
CONTINUOUS
 10
97.838146163154391
 20
-20.0
 30
0.0
 11
120.0
 21
-20.0
 31
0.0
  0
LINE
  5
437F
  8
250
  6
CONTINUOUS
 10
97.838146163154391
 20
20.0
 30
0.0
 11
120.0
 21
20.0
 31
0.0
  0
LINE
  5
4380
  8
250
  6
CONTINUOUS
 10
119.0
 20
-17.77
 30
0.0
 11
119.0
 21
17.77
 31
0.0
  0
LINE
  5
4381
  8
250
  6
CONTINUOUS
 10
119.3716666741
 20
-17.77
 30
0.0
 11
119.0
 21
-20.0
 31
0.0
  0
LINE
  5
4382
  8
250
  6
CONTINUOUS
 10
118.6283333259
 20
-17.77
 30
0.0
 11
119.0
 21
-20.0
 31
0.0
  0
LINE
  5
4383
  8
250
  6
CONTINUOUS
 10
119.0
 20
-20.0
 30
0.0
 11
119.0
 21
-17.77
 31
0.0
  0
LINE
  5
4384
  8
250
  6
CONTINUOUS
 10
118.6283333259
 20
17.77
 30
0.0
 11
119.0
 21
20.0
 31
0.0
  0
LINE
  5
4385
  8
250
  6
CONTINUOUS
 10
119.3716666741
 20
17.77
 30
0.0
 11
119.0
 21
20.0
 31
0.0
  0
LINE
  5
4386
  8
250
  6
CONTINUOUS
 10
119.0
 20
20.0
 30
0.0
 11
119.0
 21
17.77
 31
0.0
  0
TEXT
  5
4387
  8
250
  6
CONTINUOUS
 10
118.0
 20
-3.9333333333333318
 30
0.0
 40
2.7999999999999989
  1
\U+220540
 50
90.0
1001
ACAD
1000
MTEXTBEGIN
1070
    73
1070
     1
1070
    44
1040
1.0
1070
    74
1070
     0
1000
MTEXTEND
1000
MTEXTBEGIN
1070
    73
1070
     1
1070
    44
1040
1.0
1070
    74
1070
     0
1000
MTEXTEND
1000
MTEXTBEGIN
1070
    73
1070
     1
1070
    44
1040
1.0
1070
    74
1070
     0
1000
MTEXTEND
1000
MTEXTBEGIN
1070
    73
1070
     1
1070
    44
1040
1.0
1070
    74
1070
     0
1000
MTEXTEND
  0
LINE
  5
4388
  8
240
  6
CONTINUOUS
 10
35.0
 20
-20.0
 30
0.0
 11
27.0
 21
-28.0
 31
0.0
  0
LINE
  5
438B
  8
243
  6
HIDDEN2
 10
100.0
 20
8.0
 30
0.0
 11
37.0
 21
8.0
 31
0.0
  0
CIRCLE
  5
438C
  8
241
  6
CONTINUOUS
 10
48.0
 20
0.0
 30
0.0
 40
5.0
  0
CIRCLE
  5
438D
  8
242
  6
CONTINUOUS
 10
48.0
 20
0.0
 30
0.0
 40
4.375
  0
LINE
  5
438E
  8
245
  6
CENTER2
 10
48.0
 20
6.0
 30
0.0
 11
48.0
 21
-6.0
 31
0.0
  0
LINE
  5
4393
  8
241
  6
CONTINUOUS
 10
35.0
 20
-20.0
 30
0.0
 11
35.0
 21
20.0
 31
0.0
  0
LINE
  5
4394
  8
241
  6
CONTINUOUS
 10
60.866025399999998
 20
-20.0
 30
0.0
 11
60.866025399999998
 21
20.0
 31
0.0
  0
LINE
  5
4395
  8
241
  6
CONTINUOUS
 10
59.133974600000002
 20
-20.0
 30
0.0
 11
59.133974600000002
 21
20.0
 31
0.0
  0
LINE
  5
4399
  8
241
  6
CONTINUOUS
 10
45.499999999999993
 20
-1.4433756699999989
 30
0.0
 11
48.0
 21
-2.8867513499999991
 31
0.0
  0
LINE
  5
439A
  8
241
  6
CONTINUOUS
 10
48.0
 20
-2.8867513499999991
 30
0.0
 11
50.5
 21
-1.4433756699999989
 31
0.0
  0
LINE
  5
439B
  8
241
  6
CONTINUOUS
 10
50.5
 20
1.4433756699999989
 30
0.0
 11
48.0
 21
2.8867513499999991
 31
0.0
  0
LINE
  5
439C
  8
241
  6
CONTINUOUS
 10
48.0
 20
2.8867513499999991
 30
0.0
 11
45.499999999999993
 21
1.4433756699999989
 31
0.0
  0
LINE
  5
439D
  8
241
  6
CONTINUOUS
 10
45.499999999999993
 20
1.4433756699999989
 30
0.0
 11
45.499999999999993
 21
-1.4433756699999989
 31
0.0
  0
LINE
  5
439E
  8
241
  6
CONTINUOUS
 10
50.5
 20
-1.4433756699999989
 30
0.0
 11
50.5
 21
1.4433756699999989
 31
0.0
  0
LINE
  5
439F
  8
240
  6
CONTINUOUS
 10
35.0
 20
20.0
 30
0.0
 11
97.320508072913441
 21
20.0
 31
0.0
  0
LINE
  5
43A0
  8
240
  6
CONTINUOUS
 10
35.0
 20
20.0
 30
0.0
 11
27.0
 21
28.0
 31
0.0
  0
CIRCLE
  5
43A4
  8
241
  6
CONTINUOUS
 10
69.0
 20
0.0
 30
0.0
 40
5.0
  0
CIRCLE
  5
43A5
  8
242
  6
CONTINUOUS
 10
69.0
 20
0.0
 30
0.0
 40
4.375
  0
LINE
  5
43A6
  8
245
  6
CENTER2
 10
69.0
 20
6.0
 30
0.0
 11
69.0
 21
-6.0
 31
0.0
  0
CIRCLE
  5
43A7
  8
241
  6
CONTINUOUS
 10
90.0
 20
0.0
 30
0.0
 40
5.0
  0
CIRCLE
  5
43A8
  8
242
  6
CONTINUOUS
 10
90.0
 20
0.0
 30
0.0
 40
4.375
  0
LINE
  5
43A9
  8
245
  6
CENTER2
 10
90.0
 20
6.0
 30
0.0
 11
90.0
 21
-6.0
 31
0.0
  0
LINE
  5
43AD
  8
240
  6
CONTINUOUS
 10
100.0
 20
10.0
 30
0.0
 11
100.0
 21
-10.0
 31
0.0
  0
LINE
  5
43AE
  8
240
  6
CONTINUOUS
 10
35.0
 20
-20.0
 30
0.0
 11
97.320508072913441
 21
-20.0
 31
0.0
  0
LINE
  5
43AF
  8
241
  6
CONTINUOUS
 10
80.866025400000012
 20
-20.0
 30
0.0
 11
80.866025400000012
 21
20.0
 31
0.0
  0
LINE
  5
43B0
  8
241
  6
CONTINUOUS
 10
79.133974599999974
 20
-20.0
 30
0.0
 11
79.133974599999974
 21
20.0
 31
0.0
  0
LINE
  5
43B4
  8
241
  6
CONTINUOUS
 10
66.5
 20
-1.4433756699999989
 30
0.0
 11
69.0
 21
-2.8867513499999991
 31
0.0
  0
LINE
  5
43B5
  8
241
  6
CONTINUOUS
 10
69.0
 20
-2.8867513499999991
 30
0.0
 11
71.5
 21
-1.4433756699999989
 31
0.0
  0
LINE
  5
43B6
  8
241
  6
CONTINUOUS
 10
69.0
 20
2.8867513499999991
 30
0.0
 11
66.5
 21
1.4433756699999989
 31
0.0
  0
LINE
  5
43B7
  8
241
  6
CONTINUOUS
 10
66.5
 20
1.4433756699999989
 30
0.0
 11
66.5
 21
-1.4433756699999989
 31
0.0
  0
LINE
  5
43B8
  8
241
  6
CONTINUOUS
 10
71.5
 20
1.4433756699999989
 30
0.0
 11
69.0
 21
2.8867513499999991
 31
0.0
  0
LINE
  5
43B9
  8
241
  6
CONTINUOUS
 10
71.5
 20
-1.4433756699999989
 30
0.0
 11
71.5
 21
1.4433756699999989
 31
0.0
  0
LINE
  5
43BB
  8
241
  6
CONTINUOUS
 10
97.320508079999996
 20
-19.999999973552551
 30
0.0
 11
97.320508079999996
 21
19.999999973552491
 31
0.0
  0
LINE
  5
43BC
  8
240
  6
CONTINUOUS
 10
100.0
 20
-10.0
 30
0.0
 11
97.320508072913441
 21
-20.0
 31
0.0
  0
LINE
  5
43BE
  8
241
  6
CONTINUOUS
 10
92.5
 20
1.4433756699999989
 30
0.0
 11
90.0
 21
2.8867513499999991
 31
0.0
  0
LINE
  5
43BF
  8
241
  6
CONTINUOUS
 10
90.0
 20
-2.8867513499999991
 30
0.0
 11
92.5
 21
-1.4433756699999989
 31
0.0
  0
LINE
  5
43C0
  8
241
  6
CONTINUOUS
 10
87.5
 20
-1.4433756699999989
 30
0.0
 11
90.0
 21
-2.8867513499999991
 31
0.0
  0
LINE
  5
43C1
  8
241
  6
CONTINUOUS
 10
90.0
 20
2.8867513499999991
 30
0.0
 11
87.5
 21
1.4433756699999989
 31
0.0
  0
LINE
  5
43C2
  8
241
  6
CONTINUOUS
 10
87.5
 20
1.4433756699999989
 30
0.0
 11
87.5
 21
-1.4433756699999989
 31
0.0
  0
LINE
  5
43C3
  8
241
  6
CONTINUOUS
 10
92.5
 20
-1.4433756699999989
 30
0.0
 11
92.5
 21
1.4433756699999989
 31
0.0
  0
LINE
  5
43C8
  8
240
  6
CONTINUOUS
 10
100.0
 20
10.0
 30
0.0
 11
97.320508072913441
 21
20.0
 31
0.0
  0
LINE
  5
43CA
  8
240
  6
CONTINUOUS
 10
26.99999999999973
 20
28.00000000000027
 30
0.0
 11
26.999999999999719
 21
31.50000000000038
 31
0.0
  0
LINE
  5
43CC
  8
241
  6
CONTINUOUS
 10
26.99999999999973
 20
28.00000000000027
 30
0.0
 11
26.999999999999879
 21
-28.000000000000121
 31
0.0
  0
LINE
  5
43CD
  8
250
  6
CONTINUOUS
 10
100.5
 20
-8.0000000000000533
 30
0.0
 11
113.0
 21
-8.0000000000000782
 31
0.0
  0
LINE
  5
43CE
  8
250
  6
CONTINUOUS
 10
111.6283333259
 20
-5.7700000000000751
 30
0.0
 11
112.0
 21
-8.0000000000000764
 31
0.0
  0
LINE
  5
43CF
  8
250
  6
CONTINUOUS
 10
112.3716666741
 20
-5.770000000000076
 30
0.0
 11
112.0
 21
-8.0000000000000764
 31
0.0
  0
LINE
  5
43D0
  8
250
  6
CONTINUOUS
 10
112.0
 20
-8.0000000000000764
 30
0.0
 11
112.0
 21
-5.7700000000000751
 31
0.0
  0
LINE
  5
43D1
  8
243
  6
HIDDEN2
 10
100.0
 20
-8.0000000000000551
 30
0.0
 11
36.999999999999993
 21
-7.9999999999999281
 31
0.0
  0
VIEWPORT
  5
22
 67
     1
  8
0
 10
261.51769911504419
 20
148.5
 30
0.0
 40
523.0353982300885
 41
297.0
 68
     1
 69
     1
1001
ACAD
1000
MVIEW
1002
{
1070
    16
1010
0.0
1020
0.0
1030
0.0
1010
0.0
1020
0.0
1030
1.0
1040
0.0
1040
297.0
1040
261.51769911504419
1040
148.5
1040
50.0
1040
0.0
1040
0.0
1070
     0
1070
   100
1070
     1
1070
     1
1070
     0
1070
     0
1070
     0
1070
     0
1040
0.0
1040
0.0
1040
0.0
1040
1.0
1040
1.0
1040
10.0
1040
10.0
1070
     0
1002
{
1002
}
1002
}
1001
GENIUS_GENODEF_13
1002
{
1000
HIER
1070
     0
1002
}
1002
{
1000
MANEDIT
1070
     0
1002
}
1002
{
1000
NOSEL
1070
     0
1002
}
1002
{
1000
BEHIND
1070
     0
1002
}
1002
{
1000
OTHER
1070
     0
1002
}
1002
{
1000
REACTOR
1002
}
1001
GENIUS_GENOBJ-N-SDF_13
1002
{
1000
OWNER
1000
GEN
1002
}
1001
GENIUS_GENSCREG_15
1000
PF
1040
1.0
1000
DF
1040
1.0
1000
MIN
1011
0.0
1021
0.0
1031
0.0
1021
0.0
1031
0.0
1000
MAX
1011
523.0353982300885
1021
0.0
1031
0.0
1021
297.0
1031
0.0
1000
FLAGS
1070
     4
  0
ENDSEC
  0
EOF
