  0
SECTION
  2
HEADER
  9
$ACADVER
  1
AC1015
  9
$ACADMAINTVER
 70
    20
  9
$DWGCODEPAGE
  3
ANSI_932
  9
$INSBASE
 10
0.0
 20
0.0
 30
0.0
  9
$EXTMIN
 10
-66.41108924179718
 20
-57.0081475717111
 30
-0.0015258207003583
  9
$EXTMAX
 10
224.0105873089873
 20
68.00550887920599
 30
0.0000000349246037
  9
$LIMMIN
 10
0.0
 20
0.0
  9
$LIMMAX
 10
297.0
 20
210.0
  9
$ORTHOMODE
 70
     0
  9
$REGENMODE
 70
     1
  9
$FILLMODE
 70
     1
  9
$QTEXTMODE
 70
     0
  9
$MIRRTEXT
 70
     1
  9
$LTSCALE
 40
10.0
  9
$ATTMODE
 70
     1
  9
$TEXTSIZE
 40
3.0
  9
$TRACEWID
 40
1.0
  9
$TEXTSTYLE
  7
YOKO
  9
$CLAYER
  8
245
  9
$CELTYPE
  6
BYLAYER
  9
$CECOLOR
 62
   256
  9
$CELTSCALE
 40
1.0
  9
$DISPSILH
 70
     0
  9
$DIMSCALE
 40
1.0
  9
$DIMASZ
 40
2.0
  9
$DIMEXO
 40
0.5
  9
$DIMDLI
 40
2.5
  9
$DIMRND
 40
0.0
  9
$DIMDLE
 40
0.0
  9
$DIMEXE
 40
1.0
  9
$DIMTP
 40
0.0
  9
$DIMTM
 40
0.0
  9
$DIMTXT
 40
2.799999999999999
  9
$DIMCEN
 40
0.0
  9
$DIMTSZ
 40
0.0
  9
$DIMTOL
 70
     0
  9
$DIMLIM
 70
     0
  9
$DIMTIH
 70
     0
  9
$DIMTOH
 70
     0
  9
$DIMSE1
 70
     0
  9
$DIMSE2
 70
     0
  9
$DIMTAD
 70
     3
  9
$DIMZIN
 70
     8
  9
$DIMBLK
  1

  9
$DIMASO
 70
     1
  9
$DIMSHO
 70
     1
  9
$DIMPOST
  1

  9
$DIMAPOST
  1

  9
$DIMALT
 70
     0
  9
$DIMALTD
 70
     2
  9
$DIMALTF
 40
25.4
  9
$DIMLFAC
 40
1.0
  9
$DIMTOFL
 70
     1
  9
$DIMTVP
 40
0.0
  9
$DIMTIX
 70
     1
  9
$DIMSOXD
 70
     0
  9
$DIMSAH
 70
     1
  9
$DIMBLK1
  1
Open
  9
$DIMBLK2
  1
Open
  9
$DIMSTYLE
  2
BIGT
  9
$DIMCLRD
 70
     3
  9
$DIMCLRE
 70
     3
  9
$DIMCLRT
 70
    40
  9
$DIMTFAC
 40
1.0
  9
$DIMGAP
 40
1.0
  9
$DIMJUST
 70
     0
  9
$DIMSD1
 70
     0
  9
$DIMSD2
 70
     0
  9
$DIMTOLJ
 70
     1
  9
$DIMTZIN
 70
     8
  9
$DIMALTZ
 70
     0
  9
$DIMALTTZ
 70
     0
  9
$DIMUPT
 70
     0
  9
$DIMDEC
 70
     3
  9
$DIMTDEC
 70
     3
  9
$DIMALTU
 70
     2
  9
$DIMALTTD
 70
     2
  9
$DIMTXSTY
  7
STANDARD
  9
$DIMAUNIT
 70
     0
  9
$DIMADEC
 70
     3
  9
$DIMALTRND
 40
0.0
  9
$DIMAZIN
 70
     2
  9
$DIMDSEP
 70
    46
  9
$DIMATFIT
 70
     2
  9
$DIMFRAC
 70
     0
  9
$DIMLDRBLK
  1
Open
  9
$DIMLUNIT
 70
     2
  9
$DIMLWD
 70
    -1
  9
$DIMLWE
 70
    -1
  9
$DIMTMOVE
 70
     0
  9
$LUNITS
 70
     2
  9
$LUPREC
 70
     3
  9
$SKETCHINC
 40
1.0
  9
$FILLETRAD
 40
0.0
  9
$AUNITS
 70
     0
  9
$AUPREC
 70
     3
  9
$MENU
  1
.
  9
$ELEVATION
 40
0.0
  9
$PELEVATION
 40
0.0
  9
$THICKNESS
 40
0.0
  9
$LIMCHECK
 70
     0
  9
$CHAMFERA
 40
10.0
  9
$CHAMFERB
 40
10.0
  9
$CHAMFERC
 40
0.0
  9
$CHAMFERD
 40
0.0
  9
$SKPOLY
 70
     0
  9
$TDCREATE
 40
2457862.459414479
  9
$TDUCREATE
 40
2457862.084414479
  9
$TDUPDATE
 40
2457869.570232662
  9
$TDUUPDATE
 40
2457869.195232662
  9
$TDINDWG
 40
0.2954395602
  9
$TDUSRTIMER
 40
0.2954395023
  9
$USRTIMER
 70
     1
  9
$ANGBASE
 50
0.0
  9
$ANGDIR
 70
     0
  9
$PDMODE
 70
     0
  9
$PDSIZE
 40
-5.0
  9
$PLINEWID
 40
0.0
  9
$SPLFRAME
 70
     0
  9
$SPLINETYPE
 70
     6
  9
$SPLINESEGS
 70
     8
  9
$HANDSEED
  5
1D15
  9
$SURFTAB1
 70
     6
  9
$SURFTAB2
 70
     6
  9
$SURFTYPE
 70
     6
  9
$SURFU
 70
     6
  9
$SURFV
 70
     6
  9
$UCSBASE
  2

  9
$UCSNAME
  2

  9
$UCSORG
 10
0.0
 20
0.0
 30
0.0
  9
$UCSXDIR
 10
1.0
 20
0.0
 30
0.0
  9
$UCSYDIR
 10
0.0
 20
1.0
 30
0.0
  9
$UCSORTHOREF
  2

  9
$UCSORTHOVIEW
 70
     0
  9
$UCSORGTOP
 10
0.0
 20
0.0
 30
0.0
  9
$UCSORGBOTTOM
 10
0.0
 20
0.0
 30
0.0
  9
$UCSORGLEFT
 10
0.0
 20
0.0
 30
0.0
  9
$UCSORGRIGHT
 10
0.0
 20
0.0
 30
0.0
  9
$UCSORGFRONT
 10
0.0
 20
0.0
 30
0.0
  9
$UCSORGBACK
 10
0.0
 20
0.0
 30
0.0
  9
$PUCSBASE
  2

  9
$PUCSNAME
  2

  9
$PUCSORG
 10
0.0
 20
0.0
 30
0.0
  9
$PUCSXDIR
 10
1.0
 20
0.0
 30
0.0
  9
$PUCSYDIR
 10
0.0
 20
1.0
 30
0.0
  9
$PUCSORTHOREF
  2

  9
$PUCSORTHOVIEW
 70
     0
  9
$PUCSORGTOP
 10
0.0
 20
0.0
 30
0.0
  9
$PUCSORGBOTTOM
 10
0.0
 20
0.0
 30
0.0
  9
$PUCSORGLEFT
 10
0.0
 20
0.0
 30
0.0
  9
$PUCSORGRIGHT
 10
0.0
 20
0.0
 30
0.0
  9
$PUCSORGFRONT
 10
0.0
 20
0.0
 30
0.0
  9
$PUCSORGBACK
 10
0.0
 20
0.0
 30
0.0
  9
$USERI1
 70
     1
  9
$USERI2
 70
     0
  9
$USERI3
 70
     0
  9
$USERI4
 70
     0
  9
$USERI5
 70
     0
  9
$USERR1
 40
0.0
  9
$USERR2
 40
0.0
  9
$USERR3
 40
0.0
  9
$USERR4
 40
0.0
  9
$USERR5
 40
0.0
  9
$WORLDVIEW
 70
     1
  9
$SHADEDGE
 70
     3
  9
$SHADEDIF
 70
    70
  9
$TILEMODE
 70
     1
  9
$MAXACTVP
 70
    16
  9
$PINSBASE
 10
0.0
 20
0.0
 30
0.0
  9
$PLIMCHECK
 70
     0
  9
$PEXTMIN
 10
1.000000000000000E+20
 20
1.000000000000000E+20
 30
1.000000000000000E+20
  9
$PEXTMAX
 10
-1.000000000000000E+20
 20
-1.000000000000000E+20
 30
-1.000000000000000E+20
  9
$PLIMMIN
 10
0.0
 20
0.0
  9
$PLIMMAX
 10
420.0
 20
297.0
  9
$UNITMODE
 70
     0
  9
$VISRETAIN
 70
     0
  9
$PLINEGEN
 70
     0
  9
$PSLTSCALE
 70
     1
  9
$TREEDEPTH
 70
  3020
  9
$CMLSTYLE
  2
STANDARD
  9
$CMLJUST
 70
     0
  9
$CMLSCALE
 40
1.0
  9
$PROXYGRAPHICS
 70
     1
  9
$MEASUREMENT
 70
     1
  9
$CELWEIGHT
370
    -1
  9
$ENDCAPS
280
     0
  9
$JOINSTYLE
280
     0
  9
$LWDISPLAY
290
     0
  9
$INSUNITS
 70
     0
  9
$HYPERLINKBASE
  1

  9
$STYLESHEET
  1
big.ctb
  9
$XEDIT
290
     1
  9
$CEPSNTYPE
380
     0
  9
$PSTYLEMODE
290
     1
  9
$FINGERPRINTGUID
  2
{350708B4-7AD1-49D2-9D78-B79C08E4ECC1}
  9
$VERSIONGUID
  2
{C9F45397-2A45-47B1-A98C-57C394BE8DC3}
  9
$EXTNAMES
290
     1
  9
$PSVPSCALE
 40
0.0
  9
$OLESTARTUP
290
     0
  0
ENDSEC
  0
SECTION
  2
CLASSES
  0
CLASS
  1
ACDBDICTIONARYWDFLT
  2
AcDbDictionaryWithDefault
  3
ObjectDBX Classes
 90
        0
280
     0
281
     0
  0
CLASS
  1
ACDBPLACEHOLDER
  2
AcDbPlaceHolder
  3
ObjectDBX Classes
 90
        0
280
     0
281
     0
  0
CLASS
  1
LAYOUT
  2
AcDbLayout
  3
ObjectDBX Classes
 90
        0
280
     0
281
     0
  0
CLASS
  1
PLOTSETTINGS
  2
AcDbPlotSettings
  3
ObjectDBX Classes
 90
        0
280
     0
281
     0
  0
CLASS
  1
MATERIAL
  2
AcDbMaterial
  3
ObjectDBX Classes
 90
     1153
280
     0
281
     0
  0
CLASS
  1
VISUALSTYLE
  2
AcDbVisualStyle
  3
ObjectDBX Classes
 90
     4095
280
     0
281
     0
  0
CLASS
  1
TABLESTYLE
  2
AcDbTableStyle
  3
ObjectDBX Classes
 90
     4095
280
     0
281
     0
  0
CLASS
  1
SCALE
  2
AcDbScale
  3
ObjectDBX Classes
 90
     1153
280
     0
281
     0
  0
CLASS
  1
MLEADERSTYLE
  2
AcDbMLeaderStyle
  3
ACDB_MLEADERSTYLE_CLASS
 90
     4095
280
     0
281
     0
  0
CLASS
  1
ACDBSECTIONVIEWSTYLE
  2
AcDbSectionViewStyle
  3
ObjectDBX Classes
 90
     1025
280
     0
281
     0
  0
CLASS
  1
ACDBDETAILVIEWSTYLE
  2
AcDbDetailViewStyle
  3
ObjectDBX Classes
 90
     1025
280
     0
281
     0
  0
CLASS
  1
CELLSTYLEMAP
  2
AcDbCellStyleMap
  3
ObjectDBX Classes
 90
     1152
280
     0
281
     0
  0
CLASS
  1
DICTIONARYVAR
  2
AcDbDictionaryVar
  3
ObjectDBX Classes
 90
        0
280
     0
281
     0
  0
CLASS
  1
SORTENTSTABLE
  2
AcDbSortentsTable
  3
ObjectDBX Classes
 90
        0
280
     0
281
     0
  0
ENDSEC
  0
SECTION
  2
TABLES
  0
TABLE
  2
VPORT
  5
8
102
{ACAD_XDICTIONARY
360
814
102
}
330
0
100
AcDbSymbolTable
 70
     1
  0
VPORT
  5
77A
330
8
100
AcDbSymbolTableRecord
100
AcDbViewportTableRecord
  2
*Active
 70
     0
 10
0.0
 20
0.0
 11
1.0
 21
1.0
 12
78.79974903359505
 22
5.498680653747435
 13
0.0
 23
0.0
 14
7.0
 24
7.0
 15
7.0
 25
7.0
 16
0.0
 26
0.0
 36
1.0
 17
0.0
 27
0.0
 37
0.0
 40
152.2197552522138
 41
1.914539400665926
 42
50.0
 43
0.0
 44
0.0
 50
0.0
 51
0.0
 71
     0
 72
 20000
 73
     1
 74
     0
 75
     0
 76
     0
 77
     0
 78
     0
281
     0
 65
     1
110
0.0
120
0.0
130
0.0
111
1.0
121
0.0
131
0.0
112
0.0
122
1.0
132
0.0
 79
     0
146
0.0
1001
ACAD_NAV_VCDISPLAY
1070
     3
  0
ENDTAB
  0
TABLE
  2
LTYPE
  5
5
330
0
100
AcDbSymbolTable
 70
     4
  0
LTYPE
  5
14
330
5
100
AcDbSymbolTableRecord
100
AcDbLinetypeTableRecord
  2
BYBLOCK
 70
     0
  3

 72
    65
 73
     0
 40
0.0
  0
LTYPE
  5
15
330
5
100
AcDbSymbolTableRecord
100
AcDbLinetypeTableRecord
  2
BYLAYER
 70
     0
  3

 72
    65
 73
     0
 40
0.0
  0
LTYPE
  5
16
330
5
100
AcDbSymbolTableRecord
100
AcDbLinetypeTableRecord
  2
CONTINUOUS
 70
     0
  3
Solid line
 72
    65
 73
     0
 40
0.0
  0
LTYPE
  5
258
330
5
100
AcDbSymbolTableRecord
100
AcDbLinetypeTableRecord
  2
CENTER2
 70
     0
  3
___ _ ___ _ ___ _ ___ _ ___ _ ___ _ ___ _ ___ _
 72
    65
 73
     4
 40
1.125
 49
0.75
 74
     0
 49
-0.125
 74
     0
 49
0.125
 74
     0
 49
-0.125
 74
     0
  0
LTYPE
  5
25C
330
5
100
AcDbSymbolTableRecord
100
AcDbLinetypeTableRecord
  2
HIDDEN2
 70
     0
  3
_ _ _ _ _ _ _ _ _ _ _ _ _ _ _ _ _ _ _ _ _ _ _ _
 72
    65
 73
     2
 40
0.1875
 49
0.125
 74
     0
 49
-0.0625
 74
     0
  0
LTYPE
  5
25D
330
5
100
AcDbSymbolTableRecord
100
AcDbLinetypeTableRecord
  2
PHANTOM2
 70
     0
  3
___ _ _ ___ _ _ ___ _ _ ___ _ _ ___ _ _ ___ _ _
 72
    65
 73
     6
 40
1.25
 49
0.625
 74
     0
 49
-0.125
 74
     0
 49
0.125
 74
     0
 49
-0.125
 74
     0
 49
0.125
 74
     0
 49
-0.125
 74
     0
  0
ENDTAB
  0
TABLE
  2
LAYER
  5
2
102
{ACAD_XDICTIONARY
360
970
102
}
330
0
100
AcDbSymbolTable
 70
     9
  0
LAYER
  5
F
102
{ACAD_XDICTIONARY
360
7D2
102
}
330
2
100
AcDbSymbolTableRecord
100
AcDbLayerTableRecord
  2
0
 70
     0
 62
     7
  6
CONTINUOUS
370
    -3
390
564
  0
LAYER
  5
1AA
102
{ACAD_XDICTIONARY
360
7E2
102
}
330
2
100
AcDbSymbolTableRecord
100
AcDbLayerTableRecord
  2
240
 70
     0
 62
     4
  6
CONTINUOUS
370
    -3
390
564
  0
LAYER
  5
1AB
102
{ACAD_XDICTIONARY
360
7E4
102
}
330
2
100
AcDbSymbolTableRecord
100
AcDbLayerTableRecord
  2
241
 70
     0
 62
   211
  6
CONTINUOUS
370
    -3
390
564
  0
LAYER
  5
1AC
102
{ACAD_XDICTIONARY
360
7E6
102
}
330
2
100
AcDbSymbolTableRecord
100
AcDbLayerTableRecord
  2
242
 70
     0
 62
     3
  6
CONTINUOUS
370
    -3
390
564
  0
LAYER
  5
1AD
102
{ACAD_XDICTIONARY
360
7E8
102
}
330
2
100
AcDbSymbolTableRecord
100
AcDbLayerTableRecord
  2
243
 70
     0
 62
   211
  6
HIDDEN2
370
    -3
390
564
  0
LAYER
  5
1AF
102
{ACAD_XDICTIONARY
360
7EC
102
}
330
2
100
AcDbSymbolTableRecord
100
AcDbLayerTableRecord
  2
245
 70
     0
 62
     2
  6
CENTER2
370
    -3
390
564
  0
LAYER
  5
21B
102
{ACAD_XDICTIONARY
360
7F0
102
}
330
2
100
AcDbSymbolTableRecord
100
AcDbLayerTableRecord
  2
247
 70
     0
 62
    60
  6
CONTINUOUS
370
    -3
390
564
  0
LAYER
  5
21E
102
{ACAD_XDICTIONARY
360
7F4
102
}
330
2
100
AcDbSymbolTableRecord
100
AcDbLayerTableRecord
  2
250
 70
     0
 62
     3
  6
CONTINUOUS
370
    -3
390
564
  0
ENDTAB
  0
TABLE
  2
STYLE
  5
3
330
0
100
AcDbSymbolTable
 70
     3
  0
STYLE
  5
10
330
3
100
AcDbSymbolTableRecord
100
AcDbTextStyleTableRecord
  2
STANDARD
 70
     0
 40
0.0
 41
1.0
 50
0.0
 71
     0
 42
2.799999999999998
  3
romans.shx
  4
BIGFONT.SHX
  0
STYLE
  5
339
330
3
100
AcDbSymbolTableRecord
100
AcDbTextStyleTableRecord
  2
YOKO
 70
     0
 40
0.0
 41
1.0
 50
0.0
 71
     0
 42
3.0
  3
romans.shx
  4
extfont.shx
  0
ENDTAB
  0
TABLE
  2
VIEW
  5
6
330
0
100
AcDbSymbolTable
 70
     0
  0
ENDTAB
  0
TABLE
  2
UCS
  5
7
330
0
100
AcDbSymbolTable
 70
     0
  0
ENDTAB
  0
TABLE
  2
APPID
  5
9
330
0
100
AcDbSymbolTable
 70
    18
  0
APPID
  5
11
330
9
100
AcDbSymbolTableRecord
100
AcDbRegAppTableRecord
  2
ACAD
 70
     0
  0
APPID
  5
1B1
330
9
100
AcDbSymbolTableRecord
100
AcDbRegAppTableRecord
  2
GLOBAL
 70
     0
  0
APPID
  5
2A4
330
9
100
AcDbSymbolTableRecord
100
AcDbRegAppTableRecord
  2
DETAIL
 70
     0
  0
APPID
  5
5FD
330
9
100
AcDbSymbolTableRecord
100
AcDbRegAppTableRecord
  2
GRPNAME
 70
     0
  0
APPID
  5
5FE
330
9
100
AcDbSymbolTableRecord
100
AcDbRegAppTableRecord
  2
GPARA
 70
     0
  0
APPID
  5
6C4
330
9
100
AcDbSymbolTableRecord
100
AcDbRegAppTableRecord
  2
DCO15
 70
     0
  0
APPID
  5
6C5
330
9
100
AcDbSymbolTableRecord
100
AcDbRegAppTableRecord
  2
ITEMNAME
 70
     0
  0
APPID
  5
6C6
330
9
100
AcDbSymbolTableRecord
100
AcDbRegAppTableRecord
  2
GRADE_0
 70
     0
  0
APPID
  5
7D0
330
9
100
AcDbSymbolTableRecord
100
AcDbRegAppTableRecord
  2
ACAD_DSTYLE_DIMJAG
 70
     0
  0
APPID
  5
7D1
330
9
100
AcDbSymbolTableRecord
100
AcDbRegAppTableRecord
  2
ACAD_DSTYLE_DIMTALN
 70
     0
  0
APPID
  5
810
330
9
100
AcDbSymbolTableRecord
100
AcDbRegAppTableRecord
  2
ACAD_NAV_VCDISPLAY
 70
     0
  0
APPID
  5
84C
330
9
100
AcDbSymbolTableRecord
100
AcDbRegAppTableRecord
  2
ACAD_MLEADERVER
 70
     0
  0
APPID
  5
8BE
330
9
100
AcDbSymbolTableRecord
100
AcDbRegAppTableRecord
  2
ACAD_DSTYLE_DIMBREAK
 70
     0
  0
APPID
  5
B33
330
9
100
AcDbSymbolTableRecord
100
AcDbRegAppTableRecord
  2
GENIUS_GENODEF_13
 70
     0
  0
APPID
  5
B34
330
9
100
AcDbSymbolTableRecord
100
AcDbRegAppTableRecord
  2
GENIUS_GENOBJ-N-FIL_13
 70
     0
  0
APPID
  5
13E3
330
9
100
AcDbSymbolTableRecord
100
AcDbRegAppTableRecord
  2
ACAD_PSEXT
 70
     0
  0
APPID
  5
198E
330
9
100
AcDbSymbolTableRecord
100
AcDbRegAppTableRecord
  2
ACAD_DSTYLE_DIMRADIAL_EXTENSION
 70
     0
  0
APPID
  5
19F0
330
9
100
AcDbSymbolTableRecord
100
AcDbRegAppTableRecord
  2
ACAD_EXEMPT_FROM_CAD_STANDARDS
 70
     0
  0
ENDTAB
  0
TABLE
  2
DIMSTYLE
  5
A
330
0
100
AcDbSymbolTable
 70
     2
100
AcDbDimStyleTable
 71
     1
340
8BF
  0
DIMSTYLE
105
8BF
330
A
100
AcDbSymbolTableRecord
100
AcDbDimStyleTableRecord
  2
BIGT
 70
     0
 41
2.0
 42
0.5
 43
2.5
 44
1.0
 73
     0
 74
     0
 77
     3
 78
     8
 79
     2
140
2.799999999999998
141
0.0
147
1.0
172
     1
173
     1
174
     1
176
     3
177
     3
178
    40
179
     3
271
     3
272
     3
284
     8
289
     2
340
10
341
594
343
594
344
594
371
    -1
372
    -1
1001
ACAD_DSTYLE_DIMBREAK
1070
   391
1040
3.75
1001
ACAD_DSTYLE_DIMJAG
1070
   388
1040
1.5
1001
ACAD_DSTYLE_DIMTALN
1070
   392
1070
     0
  0
ENDTAB
  0
TABLE
  2
BLOCK_RECORD
  5
1
330
0
100
AcDbSymbolTable
 70
     4
  0
BLOCK_RECORD
  5
1A
102
{ACAD_XDICTIONARY
360
146C
102
}
330
1
100
AcDbSymbolTableRecord
100
AcDbBlockTableRecord
  2
*MODEL_SPACE
340
567
  0
BLOCK_RECORD
  5
17
330
1
100
AcDbSymbolTableRecord
100
AcDbBlockTableRecord
  2
*PAPER_SPACE
340
568
  0
BLOCK_RECORD
  5
594
330
1
100
AcDbSymbolTableRecord
100
AcDbBlockTableRecord
  2
_Open
340
0
102
{BLKREFS
331
19FB
331
19FC
331
19F5
331
19F6
331
1B04
331
1B05
331
1C60
331
1C61
102
}
  0
BLOCK_RECORD
  5
6E3
330
1
100
AcDbSymbolTableRecord
100
AcDbBlockTableRecord
  2
矢印なし
340
0
102
{BLKREFS
331
6E6
102
}
  0
ENDTAB
  0
ENDSEC
  0
SECTION
  2
BLOCKS
  0
BLOCK
  5
1B
330
1A
100
AcDbEntity
  8
0
100
AcDbBlockBegin
  2
*MODEL_SPACE
 70
     0
 10
0.0
 20
0.0
 30
0.0
  3
*MODEL_SPACE
  1

  0
ENDBLK
  5
1C
330
1A
100
AcDbEntity
  8
0
100
AcDbBlockEnd
  0
BLOCK
  5
18
330
17
100
AcDbEntity
 67
     1
  8
0
100
AcDbBlockBegin
  2
*PAPER_SPACE
 70
     0
 10
0.0
 20
0.0
 30
0.0
  3
*PAPER_SPACE
  1

  0
ENDBLK
  5
19
330
17
100
AcDbEntity
 67
     1
  8
0
100
AcDbBlockEnd
  0
BLOCK
  5
598
330
594
100
AcDbEntity
  8
0
100
AcDbBlockBegin
  2
_Open
 70
     0
 10
0.0
 20
0.0
 30
0.0
  3
_Open
  1

  0
LINE
  5
595
330
594
100
AcDbEntity
  8
0
  6
ByBlock
 62
     0
370
    -2
100
AcDbLine
 10
-1.0
 20
0.1666666666666666
 30
0.0
 11
0.0
 21
0.0
 31
0.0
  0
LINE
  5
596
330
594
100
AcDbEntity
  8
0
  6
ByBlock
 62
     0
370
    -2
100
AcDbLine
 10
-1.0
 20
-0.1666666666666666
 30
0.0
 11
0.0
 21
0.0
 31
0.0
  0
LINE
  5
597
330
594
100
AcDbEntity
  8
0
  6
ByBlock
 62
     0
370
    -2
100
AcDbLine
 10
0.0
 20
0.0
 30
0.0
 11
-1.0
 21
0.0
 31
0.0
  0
ENDBLK
  5
599
330
594
100
AcDbEntity
  8
0
100
AcDbBlockEnd
  0
BLOCK
  5
6E4
330
6E3
100
AcDbEntity
  8
0
100
AcDbBlockBegin
  2
矢印なし
 70
     0
 10
0.0
 20
0.0
 30
0.0
  3
矢印なし
  1

  0
ENDBLK
  5
6E5
330
6E3
100
AcDbEntity
  8
0
100
AcDbBlockEnd
  0
ENDSEC
  0
SECTION
  2
ENTITIES
  0
INSERT
  5
6E6
330
1A
100
AcDbEntity
  8
245
100
AcDbBlockReference
  2
矢印なし
 10
175.6238269664377
 20
90.55123571690598
 30
0.0
  0
TEXT
  5
F3C
330
1A
100
AcDbEntity
  8
241
  6
Continuous
100
AcDbText
 10
-65.40000000000009
 20
63.0
 30
0.0
 40
5.0
  1
BBT40M-180-BH20R-110
  7
YOKO
100
AcDbText
  0
LINE
  5
1569
330
1A
100
AcDbEntity
  8
240
  6
Continuous
100
AcDbLine
 10
-65.40000000000009
 20
12.68750000000003
 30
0.0
 11
-65.40000000000009
 21
-12.6875000000002
 31
0.0
  0
LINE
  5
156A
330
1A
100
AcDbEntity
  8
240
  6
Continuous
100
AcDbLine
 10
0.9999999999997726
 20
31.49999999999963
 30
0.0
 11
0.9999999999998864
 21
22.22500000000005
 31
0.0
  0
LINE
  5
156B
330
1A
100
AcDbEntity
  8
241
  6
Continuous
100
AcDbLine
 10
-0.0000000000001137
 20
22.225
 30
0.0
 11
0.0000000000001137
 21
-22.22500000000005
 31
0.0
  0
LINE
  5
156C
330
1A
100
AcDbEntity
  8
240
  6
Continuous
100
AcDbLine
 10
-0.0000000000001137
 20
22.225
 30
0.0
 11
-65.40000000000009
 21
12.68750000000003
 31
0.0
  0
LINE
  5
156D
330
1A
100
AcDbEntity
  8
240
  6
Continuous
100
AcDbLine
 10
26.99999999999989
 20
31.50000000000043
 30
0.0
 11
21.63449434733331
 21
31.50000000000071
 31
0.0
  0
LINE
  5
156E
330
1A
100
AcDbEntity
  8
240
  6
Continuous
100
AcDbLine
 10
0.9999999999997726
 20
31.49999999999963
 30
0.0
 11
11.5655056526661
 21
31.50000000000031
 31
0.0
  0
LINE
  5
156F
330
1A
100
AcDbEntity
  8
245
  6
CENTER2
100
AcDbLine
 10
-66.4000000000002
 20
-0.0000000000000853
 30
0.0
 11
110.9999999999999
 21
0.0000000000001137
 31
0.0
  0
LINE
  5
1570
330
1A
100
AcDbEntity
  8
240
  6
Continuous
100
AcDbLine
 10
14.45225699861486
 20
26.4999999999998
 30
0.0
 11
11.56550565266627
 21
31.50000000000043
 31
0.0
  0
LINE
  5
1571
330
1A
100
AcDbEntity
  8
240
  6
Continuous
100
AcDbLine
 10
18.7477430013854
 20
26.50000000000003
 30
0.0
 11
21.63449434733434
 21
31.50000000000043
 31
0.0
  0
LINE
  5
1572
330
1A
100
AcDbEntity
  8
240
  6
Continuous
100
AcDbLine
 10
14.45225699861453
 20
26.49999999999952
 30
0.0
 11
18.7477430013854
 21
26.50000000000003
 31
0.0
  0
LINE
  5
1573
330
1A
100
AcDbEntity
  8
241
  6
Continuous
100
AcDbLine
 10
11.56550565266627
 20
31.50000000000043
 30
0.0
 11
11.56550565266616
 21
8.049999999999926
 31
0.0
  0
LINE
  5
1574
330
1A
100
AcDbEntity
  8
241
  6
Continuous
100
AcDbLine
 10
14.45225699861453
 20
26.49999999999952
 30
0.0
 11
14.45225699861452
 21
8.049999999999926
 31
0.0
  0
LINE
  5
1575
330
1A
100
AcDbEntity
  8
241
  6
Continuous
100
AcDbLine
 10
18.74774300138529
 20
26.49999999999986
 30
0.0
 11
18.74774300138529
 21
7.097862220093245
 31
0.0
  0
LINE
  5
1576
330
1A
100
AcDbEntity
  8
240
  6
Continuous
100
AcDbLine
 10
-0.0000000000001137
 20
22.225
 30
0.0
 11
0.9999999999998864
 21
22.22500000000005
 31
0.0
  0
LINE
  5
1577
330
1A
100
AcDbEntity
  8
241
  6
Continuous
100
AcDbLine
 10
0.9999999999998864
 20
22.22499999999982
 30
0.0
 11
0.9999999999998864
 21
-22.22500000000005
 31
0.0
  0
LINE
  5
1578
330
1A
100
AcDbEntity
  8
240
  6
Continuous
100
AcDbLine
 10
0.9999999999998292
 20
-31.49999999999969
 30
0.0
 11
0.9999999999998864
 21
-22.22500000000005
 31
0.0
  0
LINE
  5
1579
330
1A
100
AcDbEntity
  8
240
  6
Continuous
100
AcDbLine
 10
-0.0000000000000568
 20
-22.225
 30
0.0
 11
-65.40000000000009
 21
-12.6875000000002
 31
0.0
  0
LINE
  5
157A
330
1A
100
AcDbEntity
  8
240
  6
Continuous
100
AcDbLine
 10
34.99999999065629
 20
-31.49999999999989
 30
0.0
 11
21.63449434733337
 21
-31.50000000000071
 31
0.0
  0
LINE
  5
157B
330
1A
100
AcDbEntity
  8
240
  6
Continuous
100
AcDbLine
 10
0.9999999999998292
 20
-31.49999999999969
 30
0.0
 11
11.56550565266616
 21
-31.50000000000038
 31
0.0
  0
LINE
  5
157C
330
1A
100
AcDbEntity
  8
240
  6
Continuous
100
AcDbLine
 10
14.45225699861498
 20
-26.4999999999998
 30
0.0
 11
11.56550565266633
 21
-31.50000000000043
 31
0.0
  0
LINE
  5
157D
330
1A
100
AcDbEntity
  8
240
  6
Continuous
100
AcDbLine
 10
18.74774300138551
 20
-26.50000000000003
 30
0.0
 11
21.63449434733445
 21
-31.50000000000038
 31
0.0
  0
LINE
  5
157E
330
1A
100
AcDbEntity
  8
240
  6
Continuous
100
AcDbLine
 10
14.45225699861459
 20
-26.49999999999946
 30
0.0
 11
18.74774300138551
 21
-26.50000000000003
 31
0.0
  0
LINE
  5
157F
330
1A
100
AcDbEntity
  8
241
  6
Continuous
100
AcDbLine
 10
11.56550565266633
 20
-31.50000000000043
 30
0.0
 11
11.56550565266616
 21
-8.050000000000096
 31
0.0
  0
LINE
  5
1580
330
1A
100
AcDbEntity
  8
241
  6
Continuous
100
AcDbLine
 10
14.45225699861459
 20
-26.49999999999946
 30
0.0
 11
14.45225699861459
 21
-8.050000000000096
 31
0.0
  0
LINE
  5
1581
330
1A
100
AcDbEntity
  8
241
  6
Continuous
100
AcDbLine
 10
18.74774300138529
 20
-26.49999999999986
 30
0.0
 11
18.74774300138529
 21
-7.097862220093418
 31
0.0
  0
LINE
  5
1582
330
1A
100
AcDbEntity
  8
240
  6
Continuous
100
AcDbLine
 10
0.0
 20
-22.22500000000005
 30
0.0
 11
0.9999999999998864
 21
-22.22500000000005
 31
0.0
  0
ARC
  5
15AD
330
1A
100
AcDbEntity
  8
240
  6
Continuous
100
AcDbCircle
 10
181.9999999999999
 20
-0.0000000000000853
 30
0.0
 40
31.5
100
AcDbArc
 50
127.7492418699994
 51
269.9999824000004
  0
LINE
  5
15AE
330
1A
100
AcDbEntity
  8
240
  6
Continuous
100
AcDbLine
 10
206.7184141899998
 20
26.99999999999993
 30
0.0
 11
168.8375534199999
 21
26.99999999999993
 31
0.0
  0
LINE
  5
15AF
330
1A
100
AcDbEntity
  8
245
  6
CENTER2
100
AcDbLine
 10
139.9999999999999
 20
-0.0000000000000853
 30
0.0
 11
223.9999999999999
 21
-0.0000000000000853
 31
0.0
  0
LINE
  5
15B0
330
1A
100
AcDbEntity
  8
241
  6
Continuous
100
AcDbLine
 10
214.9724765999998
 20
-19.83300000000008
 30
0.0
 11
157.5275233999999
 21
-19.83300000000008
 31
0.0
  0
LINE
  5
15B1
330
1A
100
AcDbEntity
  8
241
  6
Continuous
100
AcDbLine
 10
220.0169442899999
 20
-11.00000000000008
 30
0.0
 11
152.4830557099999
 21
-11.00000000000008
 31
0.0
  0
CIRCLE
  5
15B2
330
1A
100
AcDbEntity
  8
242
  6
PHANTOM2
100
AcDbCircle
 10
181.9999999999999
 20
-0.0000000000000853
 30
0.0
 40
40.0
  0
LINE
  5
15B3
330
1A
100
AcDbEntity
  8
241
  6
Continuous
100
AcDbLine
 10
14.94999999999992
 20
8.049999999999926
 30
0.0
 11
0.9999999999998864
 21
8.049999999999926
 31
0.0
  0
LINE
  5
15B4
330
1A
100
AcDbEntity
  8
241
  6
Continuous
100
AcDbLine
 10
14.94999999999992
 20
-8.050000000000096
 30
0.0
 11
0.9999999999998864
 21
-8.050000000000096
 31
0.0
  0
ARC
  5
15B5
330
1A
100
AcDbEntity
  8
241
  6
Continuous
100
AcDbCircle
 10
14.94999999999992
 20
-0.0000000000000853
 30
0.0
 40
8.049999999999997
100
AcDbArc
 50
270.0
 51
90.00000000000005
  0
LINE
  5
15B6
330
1A
100
AcDbEntity
  8
241
  6
Continuous
100
AcDbLine
 10
26.99999999999993
 20
-31.50000000000009
 30
0.0
 11
26.99999999999993
 21
26.99979999999991
 31
0.0
  0
LINE
  5
15B7
330
1A
100
AcDbEntity
  8
240
  6
Continuous
100
AcDbLine
 10
103.8424323199999
 20
-17.15756784000007
 30
0.0
 11
107.6568542499999
 21
-13.34314591000009
 31
0.0
  0
LINE
  5
15B8
330
1A
100
AcDbEntity
  8
240
  6
Continuous
100
AcDbLine
 10
109.9999999999998
 20
26.99979999999991
 30
0.0
 11
26.99999999999985
 21
26.99979999999991
 31
0.0
  0
LINE
  5
15B9
330
1A
100
AcDbEntity
  8
241
  6
Continuous
100
AcDbLine
 10
101.9999999999999
 20
15.55662006999992
 30
0.0
 11
99.49999999999993
 21
14.11324439999993
 31
0.0
  0
LINE
  5
15BA
330
1A
100
AcDbEntity
  8
241
  6
Continuous
100
AcDbLine
 10
99.49999999999993
 20
19.8867470899999
 30
0.0
 11
101.9999999999999
 21
18.44337141999989
 31
0.0
  0
CIRCLE
  5
15BB
330
1A
100
AcDbEntity
  8
241
  6
Continuous
100
AcDbCircle
 10
99.49999999999993
 20
16.99999574999992
 30
0.0
 40
5.0
  0
CIRCLE
  5
15BC
330
1A
100
AcDbEntity
  8
242
  6
Continuous
100
AcDbCircle
 10
99.49999999999993
 20
16.99999081999991
 30
0.0
 40
4.25
  0
LINE
  5
15BD
330
1A
100
AcDbEntity
  8
245
  6
CENTER2
 62
     2
100
AcDbLine
 10
53.49999999999989
 20
16.99999989999992
 30
0.0
 11
105.4999999999998
 21
16.99999519999991
 31
0.0
  0
LINE
  5
15BE
330
1A
100
AcDbEntity
  8
243
  6
HIDDEN2
100
AcDbLine
 10
39.99999999999992
 20
6.999799999999907
 30
0.0
 11
109.9999999999999
 21
6.999799999999907
 31
0.0
  0
CIRCLE
  5
15BF
330
1A
100
AcDbEntity
  8
241
  6
Continuous
100
AcDbCircle
 10
59.49999999999992
 20
16.99999935999992
 30
0.0
 40
5.0
  0
CIRCLE
  5
15C0
330
1A
100
AcDbEntity
  8
242
  6
Continuous
100
AcDbCircle
 10
59.49999999999992
 20
16.99999443999991
 30
0.0
 40
4.25
  0
LINE
  5
15C1
330
1A
100
AcDbEntity
  8
241
  6
Continuous
100
AcDbLine
 10
34.99999999999992
 20
26.99979999999991
 30
0.0
 11
34.99999999999992
 21
-31.49999999999986
 31
0.0
  0
LINE
  5
15C2
330
1A
100
AcDbEntity
  8
245
  6
CENTER2
 62
     2
100
AcDbLine
 10
59.49999999999992
 20
22.99999935999992
 30
0.0
 11
59.49999999999992
 21
10.99999935999992
 31
0.0
  0
LINE
  5
15C3
330
1A
100
AcDbEntity
  8
243
  6
HIDDEN2
100
AcDbLine
 10
39.99999999999992
 20
6.999799999999907
 30
0.0
 11
39.99999999999992
 21
26.99999999999993
 31
0.0
  0
LINE
  5
15C4
330
1A
100
AcDbEntity
  8
241
  6
Continuous
100
AcDbLine
 10
56.99999999999992
 20
18.44337502999991
 30
0.0
 11
59.49999999999992
 21
19.88675070999991
 31
0.0
  0
LINE
  5
15C5
330
1A
100
AcDbEntity
  8
241
  6
Continuous
100
AcDbLine
 10
59.49999999999992
 20
19.88675070999991
 30
0.0
 11
61.99999999999992
 21
18.44337502999991
 31
0.0
  0
LINE
  5
15C6
330
1A
100
AcDbEntity
  8
241
  6
Continuous
100
AcDbLine
 10
59.49999999999992
 20
14.11324800999992
 30
0.0
 11
56.99999999999992
 21
15.55662368999992
 31
0.0
  0
LINE
  5
15C7
330
1A
100
AcDbEntity
  8
241
  6
Continuous
100
AcDbLine
 10
56.99999999999992
 20
15.55662368999992
 30
0.0
 11
56.99999999999992
 21
18.44337502999991
 31
0.0
  0
LINE
  5
15C8
330
1A
100
AcDbEntity
  8
241
  6
Continuous
100
AcDbLine
 10
61.99999999999992
 20
15.55662368999992
 30
0.0
 11
59.49999999999992
 21
14.11324800999992
 31
0.0
  0
LINE
  5
15C9
330
1A
100
AcDbEntity
  8
241
  6
Continuous
100
AcDbLine
 10
61.99999999999992
 20
18.44337502999991
 30
0.0
 11
61.99999999999992
 21
15.55662368999992
 31
0.0
  0
LINE
  5
15CA
330
1A
100
AcDbEntity
  8
245
  6
CENTER2
 62
     2
100
AcDbLine
 10
99.49999999999993
 20
22.99999574999993
 30
0.0
 11
99.49999999999993
 21
10.99999574999992
 31
0.0
  0
LINE
  5
15CB
330
1A
100
AcDbEntity
  8
245
  6
CENTER2
 62
     2
100
AcDbLine
 10
79.49999999999993
 20
22.99999754999991
 30
0.0
 11
79.49999999999993
 21
10.9999975499999
 31
0.0
  0
CIRCLE
  5
15CC
330
1A
100
AcDbEntity
  8
241
  6
Continuous
100
AcDbCircle
 10
79.49999999999993
 20
16.9999975499999
 30
0.0
 40
5.0
  0
LINE
  5
15CD
330
1A
100
AcDbEntity
  8
241
  6
Continuous
100
AcDbLine
 10
81.99999999999993
 20
15.55662187999991
 30
0.0
 11
79.49999999999993
 21
14.11324620999991
 31
0.0
  0
LINE
  5
15CE
330
1A
100
AcDbEntity
  8
241
  6
Continuous
100
AcDbLine
 10
79.49999999999993
 20
19.88674889999989
 30
0.0
 11
81.99999999999993
 21
18.44337322999989
 31
0.0
  0
CIRCLE
  5
15CF
330
1A
100
AcDbEntity
  8
242
  6
Continuous
100
AcDbCircle
 10
79.49999999999993
 20
16.99999262999992
 30
0.0
 40
4.25
  0
LINE
  5
15D0
330
1A
100
AcDbEntity
  8
241
  6
Continuous
100
AcDbLine
 10
76.99999999999993
 20
18.44337322999989
 30
0.0
 11
79.49999999999993
 21
19.88674889999989
 31
0.0
  0
LINE
  5
15D1
330
1A
100
AcDbEntity
  8
241
  6
Continuous
100
AcDbLine
 10
79.49999999999993
 20
14.11324620999991
 30
0.0
 11
76.99999999999993
 21
15.55662187999991
 31
0.0
  0
LINE
  5
15D2
330
1A
100
AcDbEntity
  8
241
  6
Continuous
100
AcDbLine
 10
76.99999999999993
 20
15.55662187999991
 30
0.0
 11
76.99999999999993
 21
18.44337322999989
 31
0.0
  0
LINE
  5
15D3
330
1A
100
AcDbEntity
  8
241
  6
Continuous
100
AcDbLine
 10
81.99999999999993
 20
18.44337322999989
 30
0.0
 11
81.99999999999993
 21
15.55662187999991
 31
0.0
  0
LINE
  5
15D4
330
1A
100
AcDbEntity
  8
241
  6
Continuous
100
AcDbLine
 10
96.99999999999993
 20
18.44337141999989
 30
0.0
 11
99.49999999999993
 21
19.8867470899999
 31
0.0
  0
LINE
  5
15D5
330
1A
100
AcDbEntity
  8
241
  6
Continuous
100
AcDbLine
 10
99.49999999999993
 20
14.11324439999993
 30
0.0
 11
96.99999999999993
 21
15.55662006999992
 31
0.0
  0
LINE
  5
15D6
330
1A
100
AcDbEntity
  8
241
  6
Continuous
100
AcDbLine
 10
96.99999999999993
 20
15.55662006999992
 30
0.0
 11
96.99999999999993
 21
18.44337141999989
 31
0.0
  0
LINE
  5
15D7
330
1A
100
AcDbEntity
  8
240
  6
Continuous
100
AcDbLine
 10
109.9999999999998
 20
26.99979999999991
 30
0.0
 11
109.9999999999999
 21
-7.686291660000049
 31
0.0
  0
LINE
  5
15D8
330
1A
100
AcDbEntity
  8
241
  6
Continuous
100
AcDbLine
 10
101.9999999999999
 20
18.44337141999989
 30
0.0
 11
101.9999999999999
 21
15.55662006999992
 31
0.0
  0
ARC
  5
15D9
330
1A
100
AcDbEntity
  8
240
  6
Continuous
100
AcDbCircle
 10
101.9999999999999
 20
-7.68629166000008
 30
0.0
 40
8.0
100
AcDbArc
 50
314.9999999999999
 51
0.0
  0
POLYLINE
  5
15DA
330
1A
100
AcDbEntity
  8
241
  6
Continuous
100
AcDb3dPolyline
 66
     1
 10
0.0
 20
0.0
 30
0.0
 70
     8
  0
VERTEX
  5
15DB
330
15DA
100
AcDbEntity
  8
241
  6
Continuous
100
AcDbVertex
100
AcDb3dPolylineVertex
 10
175.3249999999998
 20
3.399999999999919
 30
0.0
 70
    32
  0
VERTEX
  5
15DC
330
15DA
100
AcDbEntity
  8
241
  6
Continuous
100
AcDbVertex
100
AcDb3dPolylineVertex
 10
175.3519999999998
 20
3.544949999999913
 30
0.0
 70
    32
  0
VERTEX
  5
15DD
330
15DA
100
AcDbEntity
  8
241
  6
Continuous
100
AcDbVertex
100
AcDb3dPolylineVertex
 10
175.3769999999999
 20
3.690469999999919
 30
0.0
 70
    32
  0
VERTEX
  5
15DE
330
15DA
100
AcDbEntity
  8
241
  6
Continuous
100
AcDbVertex
100
AcDb3dPolylineVertex
 10
175.3999999999999
 20
3.836479999999908
 30
0.0
 70
    32
  0
VERTEX
  5
15DF
330
15DA
100
AcDbEntity
  8
241
  6
Continuous
100
AcDbVertex
100
AcDb3dPolylineVertex
 10
175.4209999999999
 20
3.982959999999906
 30
0.0
 70
    32
  0
VERTEX
  5
15E0
330
15DA
100
AcDbEntity
  8
241
  6
Continuous
100
AcDbVertex
100
AcDb3dPolylineVertex
 10
175.4389999999999
 20
4.129849999999916
 30
0.0
 70
    32
  0
VERTEX
  5
15E1
330
15DA
100
AcDbEntity
  8
241
  6
Continuous
100
AcDbVertex
100
AcDb3dPolylineVertex
 10
175.4549999999999
 20
4.27708999999993
 30
0.0
 70
    32
  0
VERTEX
  5
15E2
330
15DA
100
AcDbEntity
  8
241
  6
Continuous
100
AcDbVertex
100
AcDb3dPolylineVertex
 10
175.4679999999999
 20
4.424639999999922
 30
0.0
 70
    32
  0
VERTEX
  5
15E3
330
15DA
100
AcDbEntity
  8
241
  6
Continuous
100
AcDbVertex
100
AcDb3dPolylineVertex
 10
175.4789999999999
 20
4.57245999999992
 30
0.0
 70
    32
  0
VERTEX
  5
15E4
330
15DA
100
AcDbEntity
  8
241
  6
Continuous
100
AcDbVertex
100
AcDb3dPolylineVertex
 10
175.4879999999998
 20
4.720479999999922
 30
0.0
 70
    32
  0
VERTEX
  5
15E5
330
15DA
100
AcDbEntity
  8
241
  6
Continuous
100
AcDbVertex
100
AcDb3dPolylineVertex
 10
175.4939999999999
 20
4.868669999999923
 30
0.0
 70
    32
  0
VERTEX
  5
15E6
330
15DA
100
AcDbEntity
  8
241
  6
Continuous
100
AcDbVertex
100
AcDb3dPolylineVertex
 10
175.4979999999998
 20
5.016959999999923
 30
0.0
 70
    32
  0
VERTEX
  5
15E7
330
15DA
100
AcDbEntity
  8
241
  6
Continuous
100
AcDbVertex
100
AcDb3dPolylineVertex
 10
175.4999999999999
 20
5.165319999999923
 30
0.0
 70
    32
  0
VERTEX
  5
15E8
330
15DA
100
AcDbEntity
  8
241
  6
Continuous
100
AcDbVertex
100
AcDb3dPolylineVertex
 10
175.4989999999999
 20
5.313679999999918
 30
0.0
 70
    32
  0
VERTEX
  5
15E9
330
15DA
100
AcDbEntity
  8
241
  6
Continuous
100
AcDbVertex
100
AcDb3dPolylineVertex
 10
175.4959999999998
 20
5.462009999999906
 30
0.0
 70
    32
  0
VERTEX
  5
15EA
330
15DA
100
AcDbEntity
  8
241
  6
Continuous
100
AcDbVertex
100
AcDb3dPolylineVertex
 10
175.4909999999998
 20
5.610249999999921
 30
0.0
 70
    32
  0
VERTEX
  5
15EB
330
15DA
100
AcDbEntity
  8
241
  6
Continuous
100
AcDbVertex
100
AcDb3dPolylineVertex
 10
175.4829999999999
 20
5.758339999999917
 30
0.0
 70
    32
  0
VERTEX
  5
15EC
330
15DA
100
AcDbEntity
  8
241
  6
Continuous
100
AcDbVertex
100
AcDb3dPolylineVertex
 10
175.4729999999998
 20
5.906249999999912
 30
0.0
 70
    32
  0
VERTEX
  5
15ED
330
15DA
100
AcDbEntity
  8
241
  6
Continuous
100
AcDbVertex
100
AcDb3dPolylineVertex
 10
175.4599999999999
 20
6.053919999999918
 30
0.0
 70
    32
  0
VERTEX
  5
15EE
330
15DA
100
AcDbEntity
  8
241
  6
Continuous
100
AcDbVertex
100
AcDb3dPolylineVertex
 10
175.4459999999998
 20
6.201299999999918
 30
0.0
 70
    32
  0
VERTEX
  5
15EF
330
15DA
100
AcDbEntity
  8
241
  6
Continuous
100
AcDbVertex
100
AcDb3dPolylineVertex
 10
175.4289999999999
 20
6.348339999999922
 30
0.0
 70
    32
  0
VERTEX
  5
15F0
330
15DA
100
AcDbEntity
  8
241
  6
Continuous
100
AcDbVertex
100
AcDb3dPolylineVertex
 10
175.4089999999999
 20
6.494989999999916
 30
0.0
 70
    32
  0
VERTEX
  5
15F1
330
15DA
100
AcDbEntity
  8
241
  6
Continuous
100
AcDbVertex
100
AcDb3dPolylineVertex
 10
175.3869999999999
 20
6.641209999999915
 30
0.0
 70
    32
  0
VERTEX
  5
15F2
330
15DA
100
AcDbEntity
  8
241
  6
Continuous
100
AcDbVertex
100
AcDb3dPolylineVertex
 10
175.3629999999999
 20
6.786929999999927
 30
0.0
 70
    32
  0
VERTEX
  5
15F3
330
15DA
100
AcDbEntity
  8
241
  6
Continuous
100
AcDbVertex
100
AcDb3dPolylineVertex
 10
175.3369999999999
 20
6.93211999999991
 30
0.0
 70
    32
  0
VERTEX
  5
15F4
330
15DA
100
AcDbEntity
  8
241
  6
Continuous
100
AcDbVertex
100
AcDb3dPolylineVertex
 10
175.3079999999998
 20
7.07672999999991
 30
0.0
 70
    32
  0
VERTEX
  5
15F5
330
15DA
100
AcDbEntity
  8
241
  6
Continuous
100
AcDbVertex
100
AcDb3dPolylineVertex
 10
175.2769999999999
 20
7.22070999999991
 30
0.0
 70
    32
  0
VERTEX
  5
15F6
330
15DA
100
AcDbEntity
  8
241
  6
Continuous
100
AcDbVertex
100
AcDb3dPolylineVertex
 10
175.2439999999999
 20
7.363999999999919
 30
0.0
 70
    32
  0
VERTEX
  5
15F7
330
15DA
100
AcDbEntity
  8
241
  6
Continuous
100
AcDbVertex
100
AcDb3dPolylineVertex
 10
175.2079999999999
 20
7.506559999999922
 30
0.0
 70
    32
  0
VERTEX
  5
15F8
330
15DA
100
AcDbEntity
  8
241
  6
Continuous
100
AcDbVertex
100
AcDb3dPolylineVertex
 10
175.1699999999998
 20
7.648339999999905
 30
0.0
 70
    32
  0
VERTEX
  5
15F9
330
15DA
100
AcDbEntity
  8
241
  6
Continuous
100
AcDbVertex
100
AcDb3dPolylineVertex
 10
175.1299999999999
 20
7.78929999999991
 30
0.0
 70
    32
  0
VERTEX
  5
15FA
330
15DA
100
AcDbEntity
  8
241
  6
Continuous
100
AcDbVertex
100
AcDb3dPolylineVertex
 10
175.0879999999998
 20
7.929379999999922
 30
0.0
 70
    32
  0
VERTEX
  5
15FB
330
15DA
100
AcDbEntity
  8
241
  6
Continuous
100
AcDbVertex
100
AcDb3dPolylineVertex
 10
175.0429999999999
 20
8.068539999999927
 30
0.0
 70
    32
  0
VERTEX
  5
15FC
330
15DA
100
AcDbEntity
  8
241
  6
Continuous
100
AcDbVertex
100
AcDb3dPolylineVertex
 10
174.9959999999998
 20
8.206729999999906
 30
0.0
 70
    32
  0
VERTEX
  5
15FD
330
15DA
100
AcDbEntity
  8
241
  6
Continuous
100
AcDbVertex
100
AcDb3dPolylineVertex
 10
174.9469999999999
 20
8.343909999999905
 30
0.0
 70
    32
  0
VERTEX
  5
15FE
330
15DA
100
AcDbEntity
  8
241
  6
Continuous
100
AcDbVertex
100
AcDb3dPolylineVertex
 10
174.8959999999998
 20
8.480029999999914
 30
0.0
 70
    32
  0
VERTEX
  5
15FF
330
15DA
100
AcDbEntity
  8
241
  6
Continuous
100
AcDbVertex
100
AcDb3dPolylineVertex
 10
174.8429999999998
 20
8.615039999999906
 30
0.0
 70
    32
  0
VERTEX
  5
1600
330
15DA
100
AcDbEntity
  8
241
  6
Continuous
100
AcDbVertex
100
AcDb3dPolylineVertex
 10
174.7879999999998
 20
8.748899999999906
 30
0.0
 70
    32
  0
VERTEX
  5
1601
330
15DA
100
AcDbEntity
  8
241
  6
Continuous
100
AcDbVertex
100
AcDb3dPolylineVertex
 10
174.7299999999998
 20
8.881569999999925
 30
0.0
 70
    32
  0
VERTEX
  5
1602
330
15DA
100
AcDbEntity
  8
241
  6
Continuous
100
AcDbVertex
100
AcDb3dPolylineVertex
 10
174.6699999999998
 20
9.012989999999916
 30
0.0
 70
    32
  0
VERTEX
  5
1603
330
15DA
100
AcDbEntity
  8
241
  6
Continuous
100
AcDbVertex
100
AcDb3dPolylineVertex
 10
174.6089999999999
 20
9.143119999999923
 30
0.0
 70
    32
  0
VERTEX
  5
1604
330
15DA
100
AcDbEntity
  8
241
  6
Continuous
100
AcDbVertex
100
AcDb3dPolylineVertex
 10
174.5449999999998
 20
9.271929999999912
 30
0.0
 70
    32
  0
VERTEX
  5
1605
330
15DA
100
AcDbEntity
  8
241
  6
Continuous
100
AcDbVertex
100
AcDb3dPolylineVertex
 10
174.4789999999999
 20
9.399359999999916
 30
0.0
 70
    32
  0
VERTEX
  5
1606
330
15DA
100
AcDbEntity
  8
241
  6
Continuous
100
AcDbVertex
100
AcDb3dPolylineVertex
 10
174.4109999999998
 20
9.525379999999927
 30
0.0
 70
    32
  0
VERTEX
  5
1607
330
15DA
100
AcDbEntity
  8
241
  6
Continuous
100
AcDbVertex
100
AcDb3dPolylineVertex
 10
174.3409999999998
 20
9.649939999999928
 30
0.0
 70
    32
  0
VERTEX
  5
1608
330
15DA
100
AcDbEntity
  8
241
  6
Continuous
100
AcDbVertex
100
AcDb3dPolylineVertex
 10
174.2699999999999
 20
9.772989999999907
 30
0.0
 70
    32
  0
VERTEX
  5
1609
330
15DA
100
AcDbEntity
  8
241
  6
Continuous
100
AcDbVertex
100
AcDb3dPolylineVertex
 10
174.1959999999998
 20
9.894509999999911
 30
0.0
 70
    32
  0
VERTEX
  5
160A
330
15DA
100
AcDbEntity
  8
241
  6
Continuous
100
AcDbVertex
100
AcDb3dPolylineVertex
 10
174.1199999999999
 20
10.01439999999991
 30
0.0
 70
    32
  0
VERTEX
  5
160B
330
15DA
100
AcDbEntity
  8
241
  6
Continuous
100
AcDbVertex
100
AcDb3dPolylineVertex
 10
174.0429999999999
 20
10.13269999999991
 30
0.0
 70
    32
  0
VERTEX
  5
160C
330
15DA
100
AcDbEntity
  8
241
  6
Continuous
100
AcDbVertex
100
AcDb3dPolylineVertex
 10
173.9629999999999
 20
10.24939999999989
 30
0.0
 70
    32
  0
VERTEX
  5
160D
330
15DA
100
AcDbEntity
  8
241
  6
Continuous
100
AcDbVertex
100
AcDb3dPolylineVertex
 10
173.8819999999999
 20
10.3642999999999
 30
0.0
 70
    32
  0
VERTEX
  5
160E
330
15DA
100
AcDbEntity
  8
241
  6
Continuous
100
AcDbVertex
100
AcDb3dPolylineVertex
 10
173.7989999999999
 20
10.4774999999999
 30
0.0
 70
    32
  0
VERTEX
  5
160F
330
15DA
100
AcDbEntity
  8
241
  6
Continuous
100
AcDbVertex
100
AcDb3dPolylineVertex
 10
173.7139999999999
 20
10.58899999999991
 30
0.0
 70
    32
  0
VERTEX
  5
1610
330
15DA
100
AcDbEntity
  8
241
  6
Continuous
100
AcDbVertex
100
AcDb3dPolylineVertex
 10
173.6279999999998
 20
10.69859999999991
 30
0.0
 70
    32
  0
VERTEX
  5
1611
330
15DA
100
AcDbEntity
  8
241
  6
Continuous
100
AcDbVertex
100
AcDb3dPolylineVertex
 10
173.5389999999999
 20
10.80629999999991
 30
0.0
 70
    32
  0
VERTEX
  5
1612
330
15DA
100
AcDbEntity
  8
241
  6
Continuous
100
AcDbVertex
100
AcDb3dPolylineVertex
 10
173.4489999999999
 20
10.91219999999992
 30
0.0
 70
    32
  0
VERTEX
  5
1613
330
15DA
100
AcDbEntity
  8
241
  6
Continuous
100
AcDbVertex
100
AcDb3dPolylineVertex
 10
173.3579999999999
 20
11.01609999999991
 30
0.0
 70
    32
  0
VERTEX
  5
1614
330
15DA
100
AcDbEntity
  8
241
  6
Continuous
100
AcDbVertex
100
AcDb3dPolylineVertex
 10
173.2639999999999
 20
11.11809999999991
 30
0.0
 70
    32
  0
VERTEX
  5
1615
330
15DA
100
AcDbEntity
  8
241
  6
Continuous
100
AcDbVertex
100
AcDb3dPolylineVertex
 10
173.1689999999999
 20
11.21809999999991
 30
0.0
 70
    32
  0
VERTEX
  5
1616
330
15DA
100
AcDbEntity
  8
241
  6
Continuous
100
AcDbVertex
100
AcDb3dPolylineVertex
 10
173.0729999999998
 20
11.31599999999991
 30
0.0
 70
    32
  0
VERTEX
  5
1617
330
15DA
100
AcDbEntity
  8
241
  6
Continuous
100
AcDbVertex
100
AcDb3dPolylineVertex
 10
172.9749999999998
 20
11.41189999999991
 30
0.0
 70
    32
  0
VERTEX
  5
1618
330
15DA
100
AcDbEntity
  8
241
  6
Continuous
100
AcDbVertex
100
AcDb3dPolylineVertex
 10
172.8749999999998
 20
11.5056999999999
 30
0.0
 70
    32
  0
VERTEX
  5
1619
330
15DA
100
AcDbEntity
  8
241
  6
Continuous
100
AcDbVertex
100
AcDb3dPolylineVertex
 10
172.7739999999999
 20
11.59739999999991
 30
0.0
 70
    32
  0
VERTEX
  5
161A
330
15DA
100
AcDbEntity
  8
241
  6
Continuous
100
AcDbVertex
100
AcDb3dPolylineVertex
 10
172.6719999999999
 20
11.68689999999992
 30
0.0
 70
    32
  0
VERTEX
  5
161B
330
15DA
100
AcDbEntity
  8
241
  6
Continuous
100
AcDbVertex
100
AcDb3dPolylineVertex
 10
172.5679999999998
 20
11.77419999999992
 30
0.0
 70
    32
  0
VERTEX
  5
161C
330
15DA
100
AcDbEntity
  8
241
  6
Continuous
100
AcDbVertex
100
AcDb3dPolylineVertex
 10
172.4629999999998
 20
11.8592999999999
 30
0.0
 70
    32
  0
VERTEX
  5
161D
330
15DA
100
AcDbEntity
  8
241
  6
Continuous
100
AcDbVertex
100
AcDb3dPolylineVertex
 10
172.3559999999998
 20
11.94219999999993
 30
0.0
 70
    32
  0
VERTEX
  5
161E
330
15DA
100
AcDbEntity
  8
241
  6
Continuous
100
AcDbVertex
100
AcDb3dPolylineVertex
 10
172.2479999999999
 20
12.02269999999993
 30
0.0
 70
    32
  0
VERTEX
  5
161F
330
15DA
100
AcDbEntity
  8
241
  6
Continuous
100
AcDbVertex
100
AcDb3dPolylineVertex
 10
172.1389999999999
 20
12.10099999999991
 30
0.0
 70
    32
  0
VERTEX
  5
1620
330
15DA
100
AcDbEntity
  8
241
  6
Continuous
100
AcDbVertex
100
AcDb3dPolylineVertex
 10
172.0289999999999
 20
12.17699999999991
 30
0.0
 70
    32
  0
VERTEX
  5
1621
330
15DA
100
AcDbEntity
  8
241
  6
Continuous
100
AcDbVertex
100
AcDb3dPolylineVertex
 10
171.9169999999999
 20
12.2505999999999
 30
0.0
 70
    32
  0
VERTEX
  5
1622
330
15DA
100
AcDbEntity
  8
241
  6
Continuous
100
AcDbVertex
100
AcDb3dPolylineVertex
 10
171.8039999999999
 20
12.32179999999991
 30
0.0
 70
    32
  0
VERTEX
  5
1623
330
15DA
100
AcDbEntity
  8
241
  6
Continuous
100
AcDbVertex
100
AcDb3dPolylineVertex
 10
171.6899999999999
 20
12.39069999999992
 30
0.0
 70
    32
  0
VERTEX
  5
1624
330
15DA
100
AcDbEntity
  8
241
  6
Continuous
100
AcDbVertex
100
AcDb3dPolylineVertex
 10
171.5759999999998
 20
12.45709999999991
 30
0.0
 70
    32
  0
VERTEX
  5
1625
330
15DA
100
AcDbEntity
  8
241
  6
Continuous
100
AcDbVertex
100
AcDb3dPolylineVertex
 10
171.4599999999999
 20
12.5209999999999
 30
0.0
 70
    32
  0
VERTEX
  5
1626
330
15DA
100
AcDbEntity
  8
241
  6
Continuous
100
AcDbVertex
100
AcDb3dPolylineVertex
 10
171.3429999999998
 20
12.58249999999992
 30
0.0
 70
    32
  0
VERTEX
  5
1627
330
15DA
100
AcDbEntity
  8
241
  6
Continuous
100
AcDbVertex
100
AcDb3dPolylineVertex
 10
171.2249999999999
 20
12.64149999999992
 30
0.0
 70
    32
  0
VERTEX
  5
1628
330
15DA
100
AcDbEntity
  8
241
  6
Continuous
100
AcDbVertex
100
AcDb3dPolylineVertex
 10
171.1059999999998
 20
12.69799999999992
 30
0.0
 70
    32
  0
VERTEX
  5
1629
330
15DA
100
AcDbEntity
  8
241
  6
Continuous
100
AcDbVertex
100
AcDb3dPolylineVertex
 10
170.9859999999998
 20
12.75199999999992
 30
0.0
 70
    32
  0
VERTEX
  5
162A
330
15DA
100
AcDbEntity
  8
241
  6
Continuous
100
AcDbVertex
100
AcDb3dPolylineVertex
 10
170.8659999999998
 20
12.80339999999992
 30
0.0
 70
    32
  0
VERTEX
  5
162B
330
15DA
100
AcDbEntity
  8
241
  6
Continuous
100
AcDbVertex
100
AcDb3dPolylineVertex
 10
170.7439999999999
 20
12.85229999999993
 30
0.0
 70
    32
  0
VERTEX
  5
162C
330
15DA
100
AcDbEntity
  8
241
  6
Continuous
100
AcDbVertex
100
AcDb3dPolylineVertex
 10
170.6219999999999
 20
12.89859999999993
 30
0.0
 70
    32
  0
VERTEX
  5
162D
330
15DA
100
AcDbEntity
  8
241
  6
Continuous
100
AcDbVertex
100
AcDb3dPolylineVertex
 10
170.4999999999999
 20
12.9422999999999
 30
0.0
 70
    32
  0
VERTEX
  5
162E
330
15DA
100
AcDbEntity
  8
241
  6
Continuous
100
AcDbVertex
100
AcDb3dPolylineVertex
 10
170.3759999999998
 20
12.9832999999999
 30
0.0
 70
    32
  0
VERTEX
  5
162F
330
15DA
100
AcDbEntity
  8
241
  6
Continuous
100
AcDbVertex
100
AcDb3dPolylineVertex
 10
170.2519999999998
 20
13.02179999999993
 30
0.0
 70
    32
  0
VERTEX
  5
1630
330
15DA
100
AcDbEntity
  8
241
  6
Continuous
100
AcDbVertex
100
AcDb3dPolylineVertex
 10
170.1269999999999
 20
13.05759999999992
 30
0.0
 70
    32
  0
VERTEX
  5
1631
330
15DA
100
AcDbEntity
  8
241
  6
Continuous
100
AcDbVertex
100
AcDb3dPolylineVertex
 10
170.0019999999999
 20
13.09079999999992
 30
0.0
 70
    32
  0
VERTEX
  5
1632
330
15DA
100
AcDbEntity
  8
241
  6
Continuous
100
AcDbVertex
100
AcDb3dPolylineVertex
 10
169.8759999999998
 20
13.1212999999999
 30
0.0
 70
    32
  0
VERTEX
  5
1633
330
15DA
100
AcDbEntity
  8
241
  6
Continuous
100
AcDbVertex
100
AcDb3dPolylineVertex
 10
169.7499999999998
 20
13.14909999999992
 30
0.0
 70
    32
  0
VERTEX
  5
1634
330
15DA
100
AcDbEntity
  8
241
  6
Continuous
100
AcDbVertex
100
AcDb3dPolylineVertex
 10
169.6239999999999
 20
13.1742999999999
 30
0.0
 70
    32
  0
VERTEX
  5
1635
330
15DA
100
AcDbEntity
  8
241
  6
Continuous
100
AcDbVertex
100
AcDb3dPolylineVertex
 10
169.4969999999999
 20
13.19669999999991
 30
0.0
 70
    32
  0
VERTEX
  5
1636
330
15DA
100
AcDbEntity
  8
241
  6
Continuous
100
AcDbVertex
100
AcDb3dPolylineVertex
 10
169.3689999999999
 20
13.21649999999991
 30
0.0
 70
    32
  0
VERTEX
  5
1637
330
15DA
100
AcDbEntity
  8
241
  6
Continuous
100
AcDbVertex
100
AcDb3dPolylineVertex
 10
169.2419999999999
 20
13.23359999999991
 30
0.0
 70
    32
  0
VERTEX
  5
1638
330
15DA
100
AcDbEntity
  8
241
  6
Continuous
100
AcDbVertex
100
AcDb3dPolylineVertex
 10
169.1139999999999
 20
13.2478999999999
 30
0.0
 70
    32
  0
VERTEX
  5
1639
330
15DA
100
AcDbEntity
  8
241
  6
Continuous
100
AcDbVertex
100
AcDb3dPolylineVertex
 10
168.9859999999998
 20
13.25959999999992
 30
0.0
 70
    32
  0
VERTEX
  5
163A
330
15DA
100
AcDbEntity
  8
241
  6
Continuous
100
AcDbVertex
100
AcDb3dPolylineVertex
 10
168.8569999999999
 20
13.2684999999999
 30
0.0
 70
    32
  0
VERTEX
  5
163B
330
15DA
100
AcDbEntity
  8
241
  6
Continuous
100
AcDbVertex
100
AcDb3dPolylineVertex
 10
168.7289999999999
 20
13.27469999999991
 30
0.0
 70
    32
  0
VERTEX
  5
163C
330
15DA
100
AcDbEntity
  8
241
  6
Continuous
100
AcDbVertex
100
AcDb3dPolylineVertex
 10
168.5999999999998
 20
13.27819999999991
 30
0.0
 70
    32
  0
VERTEX
  5
163D
330
15DA
100
AcDbEntity
  8
241
  6
Continuous
100
AcDbVertex
100
AcDb3dPolylineVertex
 10
168.4719999999999
 20
13.27899999999991
 30
0.0
 70
    32
  0
VERTEX
  5
163E
330
15DA
100
AcDbEntity
  8
241
  6
Continuous
100
AcDbVertex
100
AcDb3dPolylineVertex
 10
168.3429999999998
 20
13.27699999999993
 30
0.0
 70
    32
  0
VERTEX
  5
163F
330
15DA
100
AcDbEntity
  8
241
  6
Continuous
100
AcDbVertex
100
AcDb3dPolylineVertex
 10
168.2149999999999
 20
13.27239999999992
 30
0.0
 70
    32
  0
VERTEX
  5
1640
330
15DA
100
AcDbEntity
  8
241
  6
Continuous
100
AcDbVertex
100
AcDb3dPolylineVertex
 10
168.0869999999999
 20
13.26499999999993
 30
0.0
 70
    32
  0
VERTEX
  5
1641
330
15DA
100
AcDbEntity
  8
241
  6
Continuous
100
AcDbVertex
100
AcDb3dPolylineVertex
 10
167.9589999999999
 20
13.2547999999999
 30
0.0
 70
    32
  0
VERTEX
  5
1642
330
15DA
100
AcDbEntity
  8
241
  6
Continuous
100
AcDbVertex
100
AcDb3dPolylineVertex
 10
167.8309999999998
 20
13.2419999999999
 30
0.0
 70
    32
  0
VERTEX
  5
1643
330
15DA
100
AcDbEntity
  8
241
  6
Continuous
100
AcDbVertex
100
AcDb3dPolylineVertex
 10
167.7029999999999
 20
13.22649999999993
 30
0.0
 70
    32
  0
VERTEX
  5
1644
330
15DA
100
AcDbEntity
  8
241
  6
Continuous
100
AcDbVertex
100
AcDb3dPolylineVertex
 10
167.5749999999998
 20
13.20819999999992
 30
0.0
 70
    32
  0
VERTEX
  5
1645
330
15DA
100
AcDbEntity
  8
241
  6
Continuous
100
AcDbVertex
100
AcDb3dPolylineVertex
 10
167.4479999999998
 20
13.18729999999991
 30
0.0
 70
    32
  0
VERTEX
  5
1646
330
15DA
100
AcDbEntity
  8
241
  6
Continuous
100
AcDbVertex
100
AcDb3dPolylineVertex
 10
167.3209999999999
 20
13.16359999999991
 30
0.0
 70
    32
  0
VERTEX
  5
1647
330
15DA
100
AcDbEntity
  8
241
  6
Continuous
100
AcDbVertex
100
AcDb3dPolylineVertex
 10
167.1949999999999
 20
13.13729999999992
 30
0.0
 70
    32
  0
VERTEX
  5
1648
330
15DA
100
AcDbEntity
  8
241
  6
Continuous
100
AcDbVertex
100
AcDb3dPolylineVertex
 10
167.0689999999999
 20
13.10829999999993
 30
0.0
 70
    32
  0
VERTEX
  5
1649
330
15DA
100
AcDbEntity
  8
241
  6
Continuous
100
AcDbVertex
100
AcDb3dPolylineVertex
 10
166.9429999999999
 20
13.07659999999993
 30
0.0
 70
    32
  0
VERTEX
  5
164A
330
15DA
100
AcDbEntity
  8
241
  6
Continuous
100
AcDbVertex
100
AcDb3dPolylineVertex
 10
166.8179999999998
 20
13.04229999999992
 30
0.0
 70
    32
  0
VERTEX
  5
164B
330
15DA
100
AcDbEntity
  8
241
  6
Continuous
100
AcDbVertex
100
AcDb3dPolylineVertex
 10
166.6939999999999
 20
13.00529999999992
 30
0.0
 70
    32
  0
VERTEX
  5
164C
330
15DA
100
AcDbEntity
  8
241
  6
Continuous
100
AcDbVertex
100
AcDb3dPolylineVertex
 10
166.5699999999999
 20
12.96569999999991
 30
0.0
 70
    32
  0
VERTEX
  5
164D
330
15DA
100
AcDbEntity
  8
241
  6
Continuous
100
AcDbVertex
100
AcDb3dPolylineVertex
 10
166.4469999999999
 20
12.9234999999999
 30
0.0
 70
    32
  0
VERTEX
  5
164E
330
15DA
100
AcDbEntity
  8
241
  6
Continuous
100
AcDbVertex
100
AcDb3dPolylineVertex
 10
166.3239999999999
 20
12.87869999999992
 30
0.0
 70
    32
  0
VERTEX
  5
164F
330
15DA
100
AcDbEntity
  8
241
  6
Continuous
100
AcDbVertex
100
AcDb3dPolylineVertex
 10
166.2019999999999
 20
12.83129999999991
 30
0.0
 70
    32
  0
VERTEX
  5
1650
330
15DA
100
AcDbEntity
  8
241
  6
Continuous
100
AcDbVertex
100
AcDb3dPolylineVertex
 10
166.0819999999999
 20
12.7812999999999
 30
0.0
 70
    32
  0
VERTEX
  5
1651
330
15DA
100
AcDbEntity
  8
241
  6
Continuous
100
AcDbVertex
100
AcDb3dPolylineVertex
 10
165.9609999999998
 20
12.72879999999992
 30
0.0
 70
    32
  0
VERTEX
  5
1652
330
15DA
100
AcDbEntity
  8
241
  6
Continuous
100
AcDbVertex
100
AcDb3dPolylineVertex
 10
165.8419999999999
 20
12.67369999999991
 30
0.0
 70
    32
  0
VERTEX
  5
1653
330
15DA
100
AcDbEntity
  8
241
  6
Continuous
100
AcDbVertex
100
AcDb3dPolylineVertex
 10
165.7239999999999
 20
12.6160999999999
 30
0.0
 70
    32
  0
VERTEX
  5
1654
330
15DA
100
AcDbEntity
  8
241
  6
Continuous
100
AcDbVertex
100
AcDb3dPolylineVertex
 10
165.6059999999999
 20
12.55599999999992
 30
0.0
 70
    32
  0
VERTEX
  5
1655
330
15DA
100
AcDbEntity
  8
241
  6
Continuous
100
AcDbVertex
100
AcDb3dPolylineVertex
 10
165.4899999999999
 20
12.49339999999992
 30
0.0
 70
    32
  0
VERTEX
  5
1656
330
15DA
100
AcDbEntity
  8
241
  6
Continuous
100
AcDbVertex
100
AcDb3dPolylineVertex
 10
165.3739999999999
 20
12.42839999999992
 30
0.0
 70
    32
  0
VERTEX
  5
1657
330
15DA
100
AcDbEntity
  8
241
  6
Continuous
100
AcDbVertex
100
AcDb3dPolylineVertex
 10
165.2599999999998
 20
12.36089999999993
 30
0.0
 70
    32
  0
VERTEX
  5
1658
330
15DA
100
AcDbEntity
  8
241
  6
Continuous
100
AcDbVertex
100
AcDb3dPolylineVertex
 10
165.1459999999998
 20
12.29099999999991
 30
0.0
 70
    32
  0
VERTEX
  5
1659
330
15DA
100
AcDbEntity
  8
241
  6
Continuous
100
AcDbVertex
100
AcDb3dPolylineVertex
 10
165.0339999999999
 20
12.21879999999993
 30
0.0
 70
    32
  0
VERTEX
  5
165A
330
15DA
100
AcDbEntity
  8
241
  6
Continuous
100
AcDbVertex
100
AcDb3dPolylineVertex
 10
164.9229999999999
 20
12.14409999999989
 30
0.0
 70
    32
  0
VERTEX
  5
165B
330
15DA
100
AcDbEntity
  8
241
  6
Continuous
100
AcDbVertex
100
AcDb3dPolylineVertex
 10
164.8129999999998
 20
12.06719999999993
 30
0.0
 70
    32
  0
SEQEND
  5
165C
330
15DA
100
AcDbEntity
  8
241
  6
Continuous
  0
POLYLINE
  5
165D
330
1A
100
AcDbEntity
  8
241
  6
Continuous
100
AcDb3dPolyline
 66
     1
 10
0.0
 20
0.0
 30
0.0
 70
     8
  0
VERTEX
  5
165E
330
165D
100
AcDbEntity
  8
241
  6
Continuous
100
AcDbVertex
100
AcDb3dPolylineVertex
 10
164.8129999999998
 20
12.06719999999993
 30
0.0
 70
    32
  0
VERTEX
  5
165F
330
165D
100
AcDbEntity
  8
241
  6
Continuous
100
AcDbVertex
100
AcDb3dPolylineVertex
 10
164.7949999999998
 20
12.05409999999992
 30
0.0
 70
    32
  0
VERTEX
  5
1660
330
165D
100
AcDbEntity
  8
241
  6
Continuous
100
AcDbVertex
100
AcDb3dPolylineVertex
 10
164.7769999999999
 20
12.04099999999991
 30
0.0
 70
    32
  0
VERTEX
  5
1661
330
165D
100
AcDbEntity
  8
241
  6
Continuous
100
AcDbVertex
100
AcDb3dPolylineVertex
 10
164.7589999999999
 20
12.02769999999992
 30
0.0
 70
    32
  0
VERTEX
  5
1662
330
165D
100
AcDbEntity
  8
241
  6
Continuous
100
AcDbVertex
100
AcDb3dPolylineVertex
 10
164.7409999999998
 20
12.01439999999991
 30
0.0
 70
    32
  0
VERTEX
  5
1663
330
165D
100
AcDbEntity
  8
241
  6
Continuous
100
AcDbVertex
100
AcDb3dPolylineVertex
 10
164.7219999999999
 20
12.00099999999992
 30
0.0
 70
    32
  0
VERTEX
  5
1664
330
165D
100
AcDbEntity
  8
241
  6
Continuous
100
AcDbVertex
100
AcDb3dPolylineVertex
 10
164.7039999999999
 20
11.98749999999992
 30
0.0
 70
    32
  0
VERTEX
  5
1665
330
165D
100
AcDbEntity
  8
241
  6
Continuous
100
AcDbVertex
100
AcDb3dPolylineVertex
 10
164.6859999999998
 20
11.97389999999993
 30
0.0
 70
    32
  0
VERTEX
  5
1666
330
165D
100
AcDbEntity
  8
241
  6
Continuous
100
AcDbVertex
100
AcDb3dPolylineVertex
 10
164.6679999999999
 20
11.9602999999999
 30
0.0
 70
    32
  0
VERTEX
  5
1667
330
165D
100
AcDbEntity
  8
241
  6
Continuous
100
AcDbVertex
100
AcDb3dPolylineVertex
 10
164.6499999999999
 20
11.9464999999999
 30
0.0
 70
    32
  0
VERTEX
  5
1668
330
165D
100
AcDbEntity
  8
241
  6
Continuous
100
AcDbVertex
100
AcDb3dPolylineVertex
 10
164.6319999999999
 20
11.93269999999992
 30
0.0
 70
    32
  0
VERTEX
  5
1669
330
165D
100
AcDbEntity
  8
241
  6
Continuous
100
AcDbVertex
100
AcDb3dPolylineVertex
 10
164.6139999999999
 20
11.91869999999991
 30
0.0
 70
    32
  0
VERTEX
  5
166A
330
165D
100
AcDbEntity
  8
241
  6
Continuous
100
AcDbVertex
100
AcDb3dPolylineVertex
 10
164.5959999999998
 20
11.9046999999999
 30
0.0
 70
    32
  0
VERTEX
  5
166B
330
165D
100
AcDbEntity
  8
241
  6
Continuous
100
AcDbVertex
100
AcDb3dPolylineVertex
 10
164.5779999999999
 20
11.89059999999992
 30
0.0
 70
    32
  0
VERTEX
  5
166C
330
165D
100
AcDbEntity
  8
241
  6
Continuous
100
AcDbVertex
100
AcDb3dPolylineVertex
 10
164.5599999999998
 20
11.8763999999999
 30
0.0
 70
    32
  0
VERTEX
  5
166D
330
165D
100
AcDbEntity
  8
241
  6
Continuous
100
AcDbVertex
100
AcDb3dPolylineVertex
 10
164.5419999999999
 20
11.86209999999991
 30
0.0
 70
    32
  0
VERTEX
  5
166E
330
165D
100
AcDbEntity
  8
241
  6
Continuous
100
AcDbVertex
100
AcDb3dPolylineVertex
 10
164.5239999999999
 20
11.84769999999992
 30
0.0
 70
    32
  0
VERTEX
  5
166F
330
165D
100
AcDbEntity
  8
241
  6
Continuous
100
AcDbVertex
100
AcDb3dPolylineVertex
 10
164.5059999999998
 20
11.83329999999989
 30
0.0
 70
    32
  0
VERTEX
  5
1670
330
165D
100
AcDbEntity
  8
241
  6
Continuous
100
AcDbVertex
100
AcDb3dPolylineVertex
 10
164.4879999999999
 20
11.81869999999992
 30
0.0
 70
    32
  0
VERTEX
  5
1671
330
165D
100
AcDbEntity
  8
241
  6
Continuous
100
AcDbVertex
100
AcDb3dPolylineVertex
 10
164.4699999999999
 20
11.80409999999992
 30
0.0
 70
    32
  0
VERTEX
  5
1672
330
165D
100
AcDbEntity
  8
241
  6
Continuous
100
AcDbVertex
100
AcDb3dPolylineVertex
 10
164.4519999999998
 20
11.78939999999991
 30
0.0
 70
    32
  0
VERTEX
  5
1673
330
165D
100
AcDbEntity
  8
241
  6
Continuous
100
AcDbVertex
100
AcDb3dPolylineVertex
 10
164.4349999999999
 20
11.77459999999991
 30
0.0
 70
    32
  0
VERTEX
  5
1674
330
165D
100
AcDbEntity
  8
241
  6
Continuous
100
AcDbVertex
100
AcDb3dPolylineVertex
 10
164.4169999999999
 20
11.75969999999992
 30
0.0
 70
    32
  0
VERTEX
  5
1675
330
165D
100
AcDbEntity
  8
241
  6
Continuous
100
AcDbVertex
100
AcDb3dPolylineVertex
 10
164.3989999999999
 20
11.74469999999991
 30
0.0
 70
    32
  0
VERTEX
  5
1676
330
165D
100
AcDbEntity
  8
241
  6
Continuous
100
AcDbVertex
100
AcDb3dPolylineVertex
 10
164.3809999999998
 20
11.72959999999992
 30
0.0
 70
    32
  0
VERTEX
  5
1677
330
165D
100
AcDbEntity
  8
241
  6
Continuous
100
AcDbVertex
100
AcDb3dPolylineVertex
 10
164.3629999999998
 20
11.7144999999999
 30
0.0
 70
    32
  0
VERTEX
  5
1678
330
165D
100
AcDbEntity
  8
241
  6
Continuous
100
AcDbVertex
100
AcDb3dPolylineVertex
 10
164.3459999999998
 20
11.6991999999999
 30
0.0
 70
    32
  0
VERTEX
  5
1679
330
165D
100
AcDbEntity
  8
241
  6
Continuous
100
AcDbVertex
100
AcDb3dPolylineVertex
 10
164.3279999999999
 20
11.68389999999991
 30
0.0
 70
    32
  0
VERTEX
  5
167A
330
165D
100
AcDbEntity
  8
241
  6
Continuous
100
AcDbVertex
100
AcDb3dPolylineVertex
 10
164.3099999999999
 20
11.66849999999991
 30
0.0
 70
    32
  0
VERTEX
  5
167B
330
165D
100
AcDbEntity
  8
241
  6
Continuous
100
AcDbVertex
100
AcDb3dPolylineVertex
 10
164.2919999999999
 20
11.6529999999999
 30
0.0
 70
    32
  0
VERTEX
  5
167C
330
165D
100
AcDbEntity
  8
241
  6
Continuous
100
AcDbVertex
100
AcDb3dPolylineVertex
 10
164.2749999999999
 20
11.6373999999999
 30
0.0
 70
    32
  0
VERTEX
  5
167D
330
165D
100
AcDbEntity
  8
241
  6
Continuous
100
AcDbVertex
100
AcDb3dPolylineVertex
 10
164.2569999999999
 20
11.62169999999992
 30
0.0
 70
    32
  0
VERTEX
  5
167E
330
165D
100
AcDbEntity
  8
241
  6
Continuous
100
AcDbVertex
100
AcDb3dPolylineVertex
 10
164.2389999999998
 20
11.60599999999991
 30
0.0
 70
    32
  0
VERTEX
  5
167F
330
165D
100
AcDbEntity
  8
241
  6
Continuous
100
AcDbVertex
100
AcDb3dPolylineVertex
 10
164.2219999999999
 20
11.59009999999992
 30
0.0
 70
    32
  0
VERTEX
  5
1680
330
165D
100
AcDbEntity
  8
241
  6
Continuous
100
AcDbVertex
100
AcDb3dPolylineVertex
 10
164.2039999999999
 20
11.5741999999999
 30
0.0
 70
    32
  0
VERTEX
  5
1681
330
165D
100
AcDbEntity
  8
241
  6
Continuous
100
AcDbVertex
100
AcDb3dPolylineVertex
 10
164.1869999999999
 20
11.55809999999991
 30
0.0
 70
    32
  0
VERTEX
  5
1682
330
165D
100
AcDbEntity
  8
241
  6
Continuous
100
AcDbVertex
100
AcDb3dPolylineVertex
 10
164.1689999999999
 20
11.54199999999991
 30
0.0
 70
    32
  0
VERTEX
  5
1683
330
165D
100
AcDbEntity
  8
241
  6
Continuous
100
AcDbVertex
100
AcDb3dPolylineVertex
 10
164.1509999999998
 20
11.52579999999992
 30
0.0
 70
    32
  0
VERTEX
  5
1684
330
165D
100
AcDbEntity
  8
241
  6
Continuous
100
AcDbVertex
100
AcDb3dPolylineVertex
 10
164.1339999999999
 20
11.50949999999991
 30
0.0
 70
    32
  0
VERTEX
  5
1685
330
165D
100
AcDbEntity
  8
241
  6
Continuous
100
AcDbVertex
100
AcDb3dPolylineVertex
 10
164.1159999999998
 20
11.49319999999991
 30
0.0
 70
    32
  0
VERTEX
  5
1686
330
165D
100
AcDbEntity
  8
241
  6
Continuous
100
AcDbVertex
100
AcDb3dPolylineVertex
 10
164.0989999999999
 20
11.47669999999991
 30
0.0
 70
    32
  0
VERTEX
  5
1687
330
165D
100
AcDbEntity
  8
241
  6
Continuous
100
AcDbVertex
100
AcDb3dPolylineVertex
 10
164.0819999999998
 20
11.46009999999992
 30
0.0
 70
    32
  0
VERTEX
  5
1688
330
165D
100
AcDbEntity
  8
241
  6
Continuous
100
AcDbVertex
100
AcDb3dPolylineVertex
 10
164.0639999999999
 20
11.44349999999991
 30
0.0
 70
    32
  0
VERTEX
  5
1689
330
165D
100
AcDbEntity
  8
241
  6
Continuous
100
AcDbVertex
100
AcDb3dPolylineVertex
 10
164.0469999999999
 20
11.42679999999993
 30
0.0
 70
    32
  0
VERTEX
  5
168A
330
165D
100
AcDbEntity
  8
241
  6
Continuous
100
AcDbVertex
100
AcDb3dPolylineVertex
 10
164.0289999999999
 20
11.40999999999991
 30
0.0
 70
    32
  0
VERTEX
  5
168B
330
165D
100
AcDbEntity
  8
241
  6
Continuous
100
AcDbVertex
100
AcDb3dPolylineVertex
 10
164.0119999999999
 20
11.39309999999992
 30
0.0
 70
    32
  0
VERTEX
  5
168C
330
165D
100
AcDbEntity
  8
241
  6
Continuous
100
AcDbVertex
100
AcDb3dPolylineVertex
 10
163.9949999999998
 20
11.37609999999992
 30
0.0
 70
    32
  0
VERTEX
  5
168D
330
165D
100
AcDbEntity
  8
241
  6
Continuous
100
AcDbVertex
100
AcDb3dPolylineVertex
 10
163.9779999999998
 20
11.35899999999992
 30
0.0
 70
    32
  0
VERTEX
  5
168E
330
165D
100
AcDbEntity
  8
241
  6
Continuous
100
AcDbVertex
100
AcDb3dPolylineVertex
 10
163.9599999999999
 20
11.34189999999992
 30
0.0
 70
    32
  0
VERTEX
  5
168F
330
165D
100
AcDbEntity
  8
241
  6
Continuous
100
AcDbVertex
100
AcDb3dPolylineVertex
 10
163.9429999999998
 20
11.32459999999992
 30
0.0
 70
    32
  0
VERTEX
  5
1690
330
165D
100
AcDbEntity
  8
241
  6
Continuous
100
AcDbVertex
100
AcDb3dPolylineVertex
 10
163.9259999999998
 20
11.30729999999991
 30
0.0
 70
    32
  0
VERTEX
  5
1691
330
165D
100
AcDbEntity
  8
241
  6
Continuous
100
AcDbVertex
100
AcDb3dPolylineVertex
 10
163.9089999999999
 20
11.2898999999999
 30
0.0
 70
    32
  0
VERTEX
  5
1692
330
165D
100
AcDbEntity
  8
241
  6
Continuous
100
AcDbVertex
100
AcDb3dPolylineVertex
 10
163.8919999999998
 20
11.27239999999992
 30
0.0
 70
    32
  0
VERTEX
  5
1693
330
165D
100
AcDbEntity
  8
241
  6
Continuous
100
AcDbVertex
100
AcDb3dPolylineVertex
 10
163.8739999999999
 20
11.2547999999999
 30
0.0
 70
    32
  0
VERTEX
  5
1694
330
165D
100
AcDbEntity
  8
241
  6
Continuous
100
AcDbVertex
100
AcDb3dPolylineVertex
 10
163.8569999999999
 20
11.23709999999991
 30
0.0
 70
    32
  0
VERTEX
  5
1695
330
165D
100
AcDbEntity
  8
241
  6
Continuous
100
AcDbVertex
100
AcDb3dPolylineVertex
 10
163.8399999999999
 20
11.21939999999992
 30
0.0
 70
    32
  0
VERTEX
  5
1696
330
165D
100
AcDbEntity
  8
241
  6
Continuous
100
AcDbVertex
100
AcDb3dPolylineVertex
 10
163.8229999999998
 20
11.20159999999993
 30
0.0
 70
    32
  0
VERTEX
  5
1697
330
165D
100
AcDbEntity
  8
241
  6
Continuous
100
AcDbVertex
100
AcDb3dPolylineVertex
 10
163.8059999999999
 20
11.18369999999993
 30
0.0
 70
    32
  0
VERTEX
  5
1698
330
165D
100
AcDbEntity
  8
241
  6
Continuous
100
AcDbVertex
100
AcDb3dPolylineVertex
 10
163.7899999999998
 20
11.1656999999999
 30
0.0
 70
    32
  0
VERTEX
  5
1699
330
165D
100
AcDbEntity
  8
241
  6
Continuous
100
AcDbVertex
100
AcDb3dPolylineVertex
 10
163.7729999999998
 20
11.14769999999993
 30
0.0
 70
    32
  0
VERTEX
  5
169A
330
165D
100
AcDbEntity
  8
241
  6
Continuous
100
AcDbVertex
100
AcDb3dPolylineVertex
 10
163.7559999999999
 20
11.12959999999989
 30
0.0
 70
    32
  0
VERTEX
  5
169B
330
165D
100
AcDbEntity
  8
241
  6
Continuous
100
AcDbVertex
100
AcDb3dPolylineVertex
 10
163.7389999999999
 20
11.11139999999992
 30
0.0
 70
    32
  0
VERTEX
  5
169C
330
165D
100
AcDbEntity
  8
241
  6
Continuous
100
AcDbVertex
100
AcDb3dPolylineVertex
 10
163.7219999999999
 20
11.0930999999999
 30
0.0
 70
    32
  0
VERTEX
  5
169D
330
165D
100
AcDbEntity
  8
241
  6
Continuous
100
AcDbVertex
100
AcDb3dPolylineVertex
 10
163.7059999999999
 20
11.07469999999989
 30
0.0
 70
    32
  0
VERTEX
  5
169E
330
165D
100
AcDbEntity
  8
241
  6
Continuous
100
AcDbVertex
100
AcDb3dPolylineVertex
 10
163.6889999999999
 20
11.05629999999991
 30
0.0
 70
    32
  0
VERTEX
  5
169F
330
165D
100
AcDbEntity
  8
241
  6
Continuous
100
AcDbVertex
100
AcDb3dPolylineVertex
 10
163.6719999999998
 20
11.03779999999992
 30
0.0
 70
    32
  0
VERTEX
  5
16A0
330
165D
100
AcDbEntity
  8
241
  6
Continuous
100
AcDbVertex
100
AcDb3dPolylineVertex
 10
163.6559999999999
 20
11.01919999999992
 30
0.0
 70
    32
  0
VERTEX
  5
16A1
330
165D
100
AcDbEntity
  8
241
  6
Continuous
100
AcDbVertex
100
AcDb3dPolylineVertex
 10
163.6389999999999
 20
11.0005999999999
 30
0.0
 70
    32
  0
VERTEX
  5
16A2
330
165D
100
AcDbEntity
  8
241
  6
Continuous
100
AcDbVertex
100
AcDb3dPolylineVertex
 10
163.6219999999999
 20
10.98179999999991
 30
0.0
 70
    32
  0
VERTEX
  5
16A3
330
165D
100
AcDbEntity
  8
241
  6
Continuous
100
AcDbVertex
100
AcDb3dPolylineVertex
 10
163.6059999999999
 20
10.96299999999991
 30
0.0
 70
    32
  0
VERTEX
  5
16A4
330
165D
100
AcDbEntity
  8
241
  6
Continuous
100
AcDbVertex
100
AcDb3dPolylineVertex
 10
163.5899999999999
 20
10.94409999999991
 30
0.0
 70
    32
  0
VERTEX
  5
16A5
330
165D
100
AcDbEntity
  8
241
  6
Continuous
100
AcDbVertex
100
AcDb3dPolylineVertex
 10
163.5729999999998
 20
10.92509999999993
 30
0.0
 70
    32
  0
VERTEX
  5
16A6
330
165D
100
AcDbEntity
  8
241
  6
Continuous
100
AcDbVertex
100
AcDb3dPolylineVertex
 10
163.5569999999999
 20
10.90609999999992
 30
0.0
 70
    32
  0
VERTEX
  5
16A7
330
165D
100
AcDbEntity
  8
241
  6
Continuous
100
AcDbVertex
100
AcDb3dPolylineVertex
 10
163.5399999999998
 20
10.88699999999991
 30
0.0
 70
    32
  0
VERTEX
  5
16A8
330
165D
100
AcDbEntity
  8
241
  6
Continuous
100
AcDbVertex
100
AcDb3dPolylineVertex
 10
163.5239999999999
 20
10.86779999999993
 30
0.0
 70
    32
  0
VERTEX
  5
16A9
330
165D
100
AcDbEntity
  8
241
  6
Continuous
100
AcDbVertex
100
AcDb3dPolylineVertex
 10
163.5079999999998
 20
10.84849999999991
 30
0.0
 70
    32
  0
VERTEX
  5
16AA
330
165D
100
AcDbEntity
  8
241
  6
Continuous
100
AcDbVertex
100
AcDb3dPolylineVertex
 10
163.4919999999999
 20
10.82919999999993
 30
0.0
 70
    32
  0
VERTEX
  5
16AB
330
165D
100
AcDbEntity
  8
241
  6
Continuous
100
AcDbVertex
100
AcDb3dPolylineVertex
 10
163.4759999999998
 20
10.8096999999999
 30
0.0
 70
    32
  0
VERTEX
  5
16AC
330
165D
100
AcDbEntity
  8
241
  6
Continuous
100
AcDbVertex
100
AcDb3dPolylineVertex
 10
163.4599999999999
 20
10.79029999999991
 30
0.0
 70
    32
  0
VERTEX
  5
16AD
330
165D
100
AcDbEntity
  8
241
  6
Continuous
100
AcDbVertex
100
AcDb3dPolylineVertex
 10
163.4429999999998
 20
10.77069999999992
 30
0.0
 70
    32
  0
VERTEX
  5
16AE
330
165D
100
AcDbEntity
  8
241
  6
Continuous
100
AcDbVertex
100
AcDb3dPolylineVertex
 10
163.4269999999999
 20
10.75099999999992
 30
0.0
 70
    32
  0
VERTEX
  5
16AF
330
165D
100
AcDbEntity
  8
241
  6
Continuous
100
AcDbVertex
100
AcDb3dPolylineVertex
 10
163.4109999999998
 20
10.73129999999992
 30
0.0
 70
    32
  0
VERTEX
  5
16B0
330
165D
100
AcDbEntity
  8
241
  6
Continuous
100
AcDbVertex
100
AcDb3dPolylineVertex
 10
163.3959999999999
 20
10.71149999999991
 30
0.0
 70
    32
  0
VERTEX
  5
16B1
330
165D
100
AcDbEntity
  8
241
  6
Continuous
100
AcDbVertex
100
AcDb3dPolylineVertex
 10
163.3799999999998
 20
10.69169999999991
 30
0.0
 70
    32
  0
VERTEX
  5
16B2
330
165D
100
AcDbEntity
  8
241
  6
Continuous
100
AcDbVertex
100
AcDb3dPolylineVertex
 10
163.3639999999998
 20
10.6716999999999
 30
0.0
 70
    32
  0
VERTEX
  5
16B3
330
165D
100
AcDbEntity
  8
241
  6
Continuous
100
AcDbVertex
100
AcDb3dPolylineVertex
 10
163.3479999999998
 20
10.65169999999992
 30
0.0
 70
    32
  0
VERTEX
  5
16B4
330
165D
100
AcDbEntity
  8
241
  6
Continuous
100
AcDbVertex
100
AcDb3dPolylineVertex
 10
163.3319999999998
 20
10.63159999999991
 30
0.0
 70
    32
  0
VERTEX
  5
16B5
330
165D
100
AcDbEntity
  8
241
  6
Continuous
100
AcDbVertex
100
AcDb3dPolylineVertex
 10
163.3169999999998
 20
10.61139999999991
 30
0.0
 70
    32
  0
VERTEX
  5
16B6
330
165D
100
AcDbEntity
  8
241
  6
Continuous
100
AcDbVertex
100
AcDb3dPolylineVertex
 10
163.3009999999999
 20
10.59119999999993
 30
0.0
 70
    32
  0
VERTEX
  5
16B7
330
165D
100
AcDbEntity
  8
241
  6
Continuous
100
AcDbVertex
100
AcDb3dPolylineVertex
 10
163.2849999999998
 20
10.57089999999991
 30
0.0
 70
    32
  0
VERTEX
  5
16B8
330
165D
100
AcDbEntity
  8
241
  6
Continuous
100
AcDbVertex
100
AcDb3dPolylineVertex
 10
163.2699999999998
 20
10.55049999999991
 30
0.0
 70
    32
  0
VERTEX
  5
16B9
330
165D
100
AcDbEntity
  8
241
  6
Continuous
100
AcDbVertex
100
AcDb3dPolylineVertex
 10
163.2539999999998
 20
10.52999999999991
 30
0.0
 70
    32
  0
VERTEX
  5
16BA
330
165D
100
AcDbEntity
  8
241
  6
Continuous
100
AcDbVertex
100
AcDb3dPolylineVertex
 10
163.2389999999999
 20
10.50949999999992
 30
0.0
 70
    32
  0
VERTEX
  5
16BB
330
165D
100
AcDbEntity
  8
241
  6
Continuous
100
AcDbVertex
100
AcDb3dPolylineVertex
 10
163.2229999999998
 20
10.48889999999991
 30
0.0
 70
    32
  0
VERTEX
  5
16BC
330
165D
100
AcDbEntity
  8
241
  6
Continuous
100
AcDbVertex
100
AcDb3dPolylineVertex
 10
163.2079999999999
 20
10.46819999999991
 30
0.0
 70
    32
  0
VERTEX
  5
16BD
330
165D
100
AcDbEntity
  8
241
  6
Continuous
100
AcDbVertex
100
AcDb3dPolylineVertex
 10
163.1929999999998
 20
10.4474999999999
 30
0.0
 70
    32
  0
VERTEX
  5
16BE
330
165D
100
AcDbEntity
  8
241
  6
Continuous
100
AcDbVertex
100
AcDb3dPolylineVertex
 10
163.1769999999999
 20
10.42659999999992
 30
0.0
 70
    32
  0
VERTEX
  5
16BF
330
165D
100
AcDbEntity
  8
241
  6
Continuous
100
AcDbVertex
100
AcDb3dPolylineVertex
 10
163.1619999999999
 20
10.40569999999991
 30
0.0
 70
    32
  0
VERTEX
  5
16C0
330
165D
100
AcDbEntity
  8
241
  6
Continuous
100
AcDbVertex
100
AcDb3dPolylineVertex
 10
163.1469999999999
 20
10.38479999999992
 30
0.0
 70
    32
  0
VERTEX
  5
16C1
330
165D
100
AcDbEntity
  8
241
  6
Continuous
100
AcDbVertex
100
AcDb3dPolylineVertex
 10
163.1319999999999
 20
10.36369999999991
 30
0.0
 70
    32
  0
VERTEX
  5
16C2
330
165D
100
AcDbEntity
  8
241
  6
Continuous
100
AcDbVertex
100
AcDb3dPolylineVertex
 10
163.1169999999999
 20
10.34259999999992
 30
0.0
 70
    32
  0
VERTEX
  5
16C3
330
165D
100
AcDbEntity
  8
241
  6
Continuous
100
AcDbVertex
100
AcDb3dPolylineVertex
 10
163.1019999999999
 20
10.32139999999992
 30
0.0
 70
    32
  0
VERTEX
  5
16C4
330
165D
100
AcDbEntity
  8
241
  6
Continuous
100
AcDbVertex
100
AcDb3dPolylineVertex
 10
163.0869999999999
 20
10.30009999999993
 30
0.0
 70
    32
  0
VERTEX
  5
16C5
330
165D
100
AcDbEntity
  8
241
  6
Continuous
100
AcDbVertex
100
AcDb3dPolylineVertex
 10
163.0719999999999
 20
10.2787999999999
 30
0.0
 70
    32
  0
VERTEX
  5
16C6
330
165D
100
AcDbEntity
  8
241
  6
Continuous
100
AcDbVertex
100
AcDb3dPolylineVertex
 10
163.0569999999999
 20
10.2573999999999
 30
0.0
 70
    32
  0
VERTEX
  5
16C7
330
165D
100
AcDbEntity
  8
241
  6
Continuous
100
AcDbVertex
100
AcDb3dPolylineVertex
 10
163.0419999999998
 20
10.23589999999993
 30
0.0
 70
    32
  0
VERTEX
  5
16C8
330
165D
100
AcDbEntity
  8
241
  6
Continuous
100
AcDbVertex
100
AcDb3dPolylineVertex
 10
163.0269999999999
 20
10.2143999999999
 30
0.0
 70
    32
  0
VERTEX
  5
16C9
330
165D
100
AcDbEntity
  8
241
  6
Continuous
100
AcDbVertex
100
AcDb3dPolylineVertex
 10
163.0129999999999
 20
10.19279999999992
 30
0.0
 70
    32
  0
VERTEX
  5
16CA
330
165D
100
AcDbEntity
  8
241
  6
Continuous
100
AcDbVertex
100
AcDb3dPolylineVertex
 10
162.9979999999998
 20
10.17109999999991
 30
0.0
 70
    32
  0
VERTEX
  5
16CB
330
165D
100
AcDbEntity
  8
241
  6
Continuous
100
AcDbVertex
100
AcDb3dPolylineVertex
 10
162.9829999999999
 20
10.14929999999992
 30
0.0
 70
    32
  0
VERTEX
  5
16CC
330
165D
100
AcDbEntity
  8
241
  6
Continuous
100
AcDbVertex
100
AcDb3dPolylineVertex
 10
162.9689999999999
 20
10.12749999999991
 30
0.0
 70
    32
  0
VERTEX
  5
16CD
330
165D
100
AcDbEntity
  8
241
  6
Continuous
100
AcDbVertex
100
AcDb3dPolylineVertex
 10
162.9539999999999
 20
10.10559999999992
 30
0.0
 70
    32
  0
VERTEX
  5
16CE
330
165D
100
AcDbEntity
  8
241
  6
Continuous
100
AcDbVertex
100
AcDb3dPolylineVertex
 10
162.9399999999998
 20
10.0835999999999
 30
0.0
 70
    32
  0
VERTEX
  5
16CF
330
165D
100
AcDbEntity
  8
241
  6
Continuous
100
AcDbVertex
100
AcDb3dPolylineVertex
 10
162.9249999999999
 20
10.06159999999991
 30
0.0
 70
    32
  0
VERTEX
  5
16D0
330
165D
100
AcDbEntity
  8
241
  6
Continuous
100
AcDbVertex
100
AcDb3dPolylineVertex
 10
162.9109999999999
 20
10.03949999999992
 30
0.0
 70
    32
  0
VERTEX
  5
16D1
330
165D
100
AcDbEntity
  8
241
  6
Continuous
100
AcDbVertex
100
AcDb3dPolylineVertex
 10
162.8969999999999
 20
10.01729999999992
 30
0.0
 70
    32
  0
VERTEX
  5
16D2
330
165D
100
AcDbEntity
  8
241
  6
Continuous
100
AcDbVertex
100
AcDb3dPolylineVertex
 10
162.8819999999999
 20
9.995019999999923
 30
0.0
 70
    32
  0
VERTEX
  5
16D3
330
165D
100
AcDbEntity
  8
241
  6
Continuous
100
AcDbVertex
100
AcDb3dPolylineVertex
 10
162.8679999999998
 20
9.972689999999914
 30
0.0
 70
    32
  0
VERTEX
  5
16D4
330
165D
100
AcDbEntity
  8
241
  6
Continuous
100
AcDbVertex
100
AcDb3dPolylineVertex
 10
162.8539999999998
 20
9.950299999999911
 30
0.0
 70
    32
  0
VERTEX
  5
16D5
330
165D
100
AcDbEntity
  8
241
  6
Continuous
100
AcDbVertex
100
AcDb3dPolylineVertex
 10
162.8399999999999
 20
9.927829999999914
 30
0.0
 70
    32
  0
VERTEX
  5
16D6
330
165D
100
AcDbEntity
  8
241
  6
Continuous
100
AcDbVertex
100
AcDb3dPolylineVertex
 10
162.8259999999999
 20
9.905299999999924
 30
0.0
 70
    32
  0
VERTEX
  5
16D7
330
165D
100
AcDbEntity
  8
241
  6
Continuous
100
AcDbVertex
100
AcDb3dPolylineVertex
 10
162.8119999999999
 20
9.882689999999911
 30
0.0
 70
    32
  0
VERTEX
  5
16D8
330
165D
100
AcDbEntity
  8
241
  6
Continuous
100
AcDbVertex
100
AcDb3dPolylineVertex
 10
162.7979999999998
 20
9.860019999999906
 30
0.0
 70
    32
  0
VERTEX
  5
16D9
330
165D
100
AcDbEntity
  8
241
  6
Continuous
100
AcDbVertex
100
AcDb3dPolylineVertex
 10
162.7839999999998
 20
9.837279999999907
 30
0.0
 70
    32
  0
VERTEX
  5
16DA
330
165D
100
AcDbEntity
  8
241
  6
Continuous
100
AcDbVertex
100
AcDb3dPolylineVertex
 10
162.7699999999999
 20
9.814469999999914
 30
0.0
 70
    32
  0
VERTEX
  5
16DB
330
165D
100
AcDbEntity
  8
241
  6
Continuous
100
AcDbVertex
100
AcDb3dPolylineVertex
 10
162.7559999999999
 20
9.791589999999926
 30
0.0
 70
    32
  0
VERTEX
  5
16DC
330
165D
100
AcDbEntity
  8
241
  6
Continuous
100
AcDbVertex
100
AcDb3dPolylineVertex
 10
162.7429999999998
 20
9.768639999999919
 30
0.0
 70
    32
  0
VERTEX
  5
16DD
330
165D
100
AcDbEntity
  8
241
  6
Continuous
100
AcDbVertex
100
AcDb3dPolylineVertex
 10
162.7289999999998
 20
9.745619999999917
 30
0.0
 70
    32
  0
VERTEX
  5
16DE
330
165D
100
AcDbEntity
  8
241
  6
Continuous
100
AcDbVertex
100
AcDb3dPolylineVertex
 10
162.7159999999999
 20
9.72252999999992
 30
0.0
 70
    32
  0
VERTEX
  5
16DF
330
165D
100
AcDbEntity
  8
241
  6
Continuous
100
AcDbVertex
100
AcDb3dPolylineVertex
 10
162.7019999999998
 20
9.699379999999903
 30
0.0
 70
    32
  0
VERTEX
  5
16E0
330
165D
100
AcDbEntity
  8
241
  6
Continuous
100
AcDbVertex
100
AcDb3dPolylineVertex
 10
162.6889999999998
 20
9.676149999999919
 30
0.0
 70
    32
  0
VERTEX
  5
16E1
330
165D
100
AcDbEntity
  8
241
  6
Continuous
100
AcDbVertex
100
AcDb3dPolylineVertex
 10
162.6749999999999
 20
9.652859999999916
 30
0.0
 70
    32
  0
VERTEX
  5
16E2
330
165D
100
AcDbEntity
  8
241
  6
Continuous
100
AcDbVertex
100
AcDb3dPolylineVertex
 10
162.6619999999999
 20
9.629499999999922
 30
0.0
 70
    32
  0
VERTEX
  5
16E3
330
165D
100
AcDbEntity
  8
241
  6
Continuous
100
AcDbVertex
100
AcDb3dPolylineVertex
 10
162.6489999999998
 20
9.606069999999904
 30
0.0
 70
    32
  0
VERTEX
  5
16E4
330
165D
100
AcDbEntity
  8
241
  6
Continuous
100
AcDbVertex
100
AcDb3dPolylineVertex
 10
162.6349999999998
 20
9.58257999999992
 30
0.0
 70
    32
  0
VERTEX
  5
16E5
330
165D
100
AcDbEntity
  8
241
  6
Continuous
100
AcDbVertex
100
AcDb3dPolylineVertex
 10
162.6219999999999
 20
9.559009999999917
 30
0.0
 70
    32
  0
VERTEX
  5
16E6
330
165D
100
AcDbEntity
  8
241
  6
Continuous
100
AcDbVertex
100
AcDb3dPolylineVertex
 10
162.6089999999999
 20
9.535379999999918
 30
0.0
 70
    32
  0
VERTEX
  5
16E7
330
165D
100
AcDbEntity
  8
241
  6
Continuous
100
AcDbVertex
100
AcDb3dPolylineVertex
 10
162.5959999999999
 20
9.51168999999993
 30
0.0
 70
    32
  0
VERTEX
  5
16E8
330
165D
100
AcDbEntity
  8
241
  6
Continuous
100
AcDbVertex
100
AcDb3dPolylineVertex
 10
162.5829999999999
 20
9.487919999999917
 30
0.0
 70
    32
  0
VERTEX
  5
16E9
330
165D
100
AcDbEntity
  8
241
  6
Continuous
100
AcDbVertex
100
AcDb3dPolylineVertex
 10
162.5699999999998
 20
9.464089999999911
 30
0.0
 70
    32
  0
VERTEX
  5
16EA
330
165D
100
AcDbEntity
  8
241
  6
Continuous
100
AcDbVertex
100
AcDb3dPolylineVertex
 10
162.5569999999999
 20
9.440189999999915
 30
0.0
 70
    32
  0
VERTEX
  5
16EB
330
165D
100
AcDbEntity
  8
241
  6
Continuous
100
AcDbVertex
100
AcDb3dPolylineVertex
 10
162.5439999999998
 20
9.416219999999924
 30
0.0
 70
    32
  0
VERTEX
  5
16EC
330
165D
100
AcDbEntity
  8
241
  6
Continuous
100
AcDbVertex
100
AcDb3dPolylineVertex
 10
162.5319999999999
 20
9.392189999999914
 30
0.0
 70
    32
  0
VERTEX
  5
16ED
330
165D
100
AcDbEntity
  8
241
  6
Continuous
100
AcDbVertex
100
AcDb3dPolylineVertex
 10
162.5189999999999
 20
9.368089999999908
 30
0.0
 70
    32
  0
VERTEX
  5
16EE
330
165D
100
AcDbEntity
  8
241
  6
Continuous
100
AcDbVertex
100
AcDb3dPolylineVertex
 10
162.5059999999998
 20
9.343919999999911
 30
0.0
 70
    32
  0
VERTEX
  5
16EF
330
165D
100
AcDbEntity
  8
241
  6
Continuous
100
AcDbVertex
100
AcDb3dPolylineVertex
 10
162.4939999999999
 20
9.319689999999923
 30
0.0
 70
    32
  0
VERTEX
  5
16F0
330
165D
100
AcDbEntity
  8
241
  6
Continuous
100
AcDbVertex
100
AcDb3dPolylineVertex
 10
162.4809999999999
 20
9.295389999999912
 30
0.0
 70
    32
  0
VERTEX
  5
16F1
330
165D
100
AcDbEntity
  8
241
  6
Continuous
100
AcDbVertex
100
AcDb3dPolylineVertex
 10
162.4689999999999
 20
9.271019999999907
 30
0.0
 70
    32
  0
VERTEX
  5
16F2
330
165D
100
AcDbEntity
  8
241
  6
Continuous
100
AcDbVertex
100
AcDb3dPolylineVertex
 10
162.4559999999999
 20
9.246589999999912
 30
0.0
 70
    32
  0
VERTEX
  5
16F3
330
165D
100
AcDbEntity
  8
241
  6
Continuous
100
AcDbVertex
100
AcDb3dPolylineVertex
 10
162.4439999999998
 20
9.222089999999923
 30
0.0
 70
    32
  0
VERTEX
  5
16F4
330
165D
100
AcDbEntity
  8
241
  6
Continuous
100
AcDbVertex
100
AcDb3dPolylineVertex
 10
162.4319999999999
 20
9.197529999999916
 30
0.0
 70
    32
  0
VERTEX
  5
16F5
330
165D
100
AcDbEntity
  8
241
  6
Continuous
100
AcDbVertex
100
AcDb3dPolylineVertex
 10
162.4199999999998
 20
9.172899999999911
 30
0.0
 70
    32
  0
VERTEX
  5
16F6
330
165D
100
AcDbEntity
  8
241
  6
Continuous
100
AcDbVertex
100
AcDb3dPolylineVertex
 10
162.4069999999999
 20
9.14820999999992
 30
0.0
 70
    32
  0
VERTEX
  5
16F7
330
165D
100
AcDbEntity
  8
241
  6
Continuous
100
AcDbVertex
100
AcDb3dPolylineVertex
 10
162.3949999999999
 20
9.123449999999904
 30
0.0
 70
    32
  0
VERTEX
  5
16F8
330
165D
100
AcDbEntity
  8
241
  6
Continuous
100
AcDbVertex
100
AcDb3dPolylineVertex
 10
162.3829999999998
 20
9.098619999999923
 30
0.0
 70
    32
  0
VERTEX
  5
16F9
330
165D
100
AcDbEntity
  8
241
  6
Continuous
100
AcDbVertex
100
AcDb3dPolylineVertex
 10
162.3719999999999
 20
9.073729999999926
 30
0.0
 70
    32
  0
VERTEX
  5
16FA
330
165D
100
AcDbEntity
  8
241
  6
Continuous
100
AcDbVertex
100
AcDb3dPolylineVertex
 10
162.3599999999999
 20
9.048779999999908
 30
0.0
 70
    32
  0
VERTEX
  5
16FB
330
165D
100
AcDbEntity
  8
241
  6
Continuous
100
AcDbVertex
100
AcDb3dPolylineVertex
 10
162.3479999999998
 20
9.023759999999919
 30
0.0
 70
    32
  0
VERTEX
  5
16FC
330
165D
100
AcDbEntity
  8
241
  6
Continuous
100
AcDbVertex
100
AcDb3dPolylineVertex
 10
162.3359999999999
 20
8.998669999999917
 30
0.0
 70
    32
  0
VERTEX
  5
16FD
330
165D
100
AcDbEntity
  8
241
  6
Continuous
100
AcDbVertex
100
AcDb3dPolylineVertex
 10
162.3239999999998
 20
8.97351999999992
 30
0.0
 70
    32
  0
VERTEX
  5
16FE
330
165D
100
AcDbEntity
  8
241
  6
Continuous
100
AcDbVertex
100
AcDb3dPolylineVertex
 10
162.3129999999998
 20
8.948309999999905
 30
0.0
 70
    32
  0
VERTEX
  5
16FF
330
165D
100
AcDbEntity
  8
241
  6
Continuous
100
AcDbVertex
100
AcDb3dPolylineVertex
 10
162.3009999999999
 20
8.923029999999926
 30
0.0
 70
    32
  0
VERTEX
  5
1700
330
165D
100
AcDbEntity
  8
241
  6
Continuous
100
AcDbVertex
100
AcDb3dPolylineVertex
 10
162.2899999999999
 20
8.897689999999926
 30
0.0
 70
    32
  0
VERTEX
  5
1701
330
165D
100
AcDbEntity
  8
241
  6
Continuous
100
AcDbVertex
100
AcDb3dPolylineVertex
 10
162.2779999999998
 20
8.872289999999908
 30
0.0
 70
    32
  0
VERTEX
  5
1702
330
165D
100
AcDbEntity
  8
241
  6
Continuous
100
AcDbVertex
100
AcDb3dPolylineVertex
 10
162.2669999999999
 20
8.846819999999921
 30
0.0
 70
    32
  0
VERTEX
  5
1703
330
165D
100
AcDbEntity
  8
241
  6
Continuous
100
AcDbVertex
100
AcDb3dPolylineVertex
 10
162.2559999999999
 20
8.821279999999916
 30
0.0
 70
    32
  0
VERTEX
  5
1704
330
165D
100
AcDbEntity
  8
241
  6
Continuous
100
AcDbVertex
100
AcDb3dPolylineVertex
 10
162.2449999999999
 20
8.795689999999922
 30
0.0
 70
    32
  0
VERTEX
  5
1705
330
165D
100
AcDbEntity
  8
241
  6
Continuous
100
AcDbVertex
100
AcDb3dPolylineVertex
 10
162.2339999999999
 20
8.770049999999912
 30
0.0
 70
    32
  0
VERTEX
  5
1706
330
165D
100
AcDbEntity
  8
241
  6
Continuous
100
AcDbVertex
100
AcDb3dPolylineVertex
 10
162.2229999999998
 20
8.744379999999921
 30
0.0
 70
    32
  0
VERTEX
  5
1707
330
165D
100
AcDbEntity
  8
241
  6
Continuous
100
AcDbVertex
100
AcDb3dPolylineVertex
 10
162.2119999999999
 20
8.71867999999992
 30
0.0
 70
    32
  0
VERTEX
  5
1708
330
165D
100
AcDbEntity
  8
241
  6
Continuous
100
AcDbVertex
100
AcDb3dPolylineVertex
 10
162.2009999999998
 20
8.692939999999907
 30
0.0
 70
    32
  0
VERTEX
  5
1709
330
165D
100
AcDbEntity
  8
241
  6
Continuous
100
AcDbVertex
100
AcDb3dPolylineVertex
 10
162.1899999999999
 20
8.667179999999916
 30
0.0
 70
    32
  0
VERTEX
  5
170A
330
165D
100
AcDbEntity
  8
241
  6
Continuous
100
AcDbVertex
100
AcDb3dPolylineVertex
 10
162.1789999999999
 20
8.641379999999911
 30
0.0
 70
    32
  0
VERTEX
  5
170B
330
165D
100
AcDbEntity
  8
241
  6
Continuous
100
AcDbVertex
100
AcDb3dPolylineVertex
 10
162.1689999999998
 20
8.615549999999927
 30
0.0
 70
    32
  0
VERTEX
  5
170C
330
165D
100
AcDbEntity
  8
241
  6
Continuous
100
AcDbVertex
100
AcDb3dPolylineVertex
 10
162.1579999999998
 20
8.589689999999905
 30
0.0
 70
    32
  0
VERTEX
  5
170D
330
165D
100
AcDbEntity
  8
241
  6
Continuous
100
AcDbVertex
100
AcDb3dPolylineVertex
 10
162.1479999999999
 20
8.563789999999926
 30
0.0
 70
    32
  0
VERTEX
  5
170E
330
165D
100
AcDbEntity
  8
241
  6
Continuous
100
AcDbVertex
100
AcDb3dPolylineVertex
 10
162.1369999999998
 20
8.537869999999911
 30
0.0
 70
    32
  0
VERTEX
  5
170F
330
165D
100
AcDbEntity
  8
241
  6
Continuous
100
AcDbVertex
100
AcDb3dPolylineVertex
 10
162.1269999999999
 20
8.511909999999915
 30
0.0
 70
    32
  0
VERTEX
  5
1710
330
165D
100
AcDbEntity
  8
241
  6
Continuous
100
AcDbVertex
100
AcDb3dPolylineVertex
 10
162.1169999999999
 20
8.48592999999991
 30
0.0
 70
    32
  0
VERTEX
  5
1711
330
165D
100
AcDbEntity
  8
241
  6
Continuous
100
AcDbVertex
100
AcDb3dPolylineVertex
 10
162.1069999999999
 20
8.459909999999922
 30
0.0
 70
    32
  0
VERTEX
  5
1712
330
165D
100
AcDbEntity
  8
241
  6
Continuous
100
AcDbVertex
100
AcDb3dPolylineVertex
 10
162.0969999999998
 20
8.433869999999899
 30
0.0
 70
    32
  0
VERTEX
  5
1713
330
165D
100
AcDbEntity
  8
241
  6
Continuous
100
AcDbVertex
100
AcDb3dPolylineVertex
 10
162.0869999999999
 20
8.40778999999992
 30
0.0
 70
    32
  0
VERTEX
  5
1714
330
165D
100
AcDbEntity
  8
241
  6
Continuous
100
AcDbVertex
100
AcDb3dPolylineVertex
 10
162.0769999999999
 20
8.381689999999906
 30
0.0
 70
    32
  0
VERTEX
  5
1715
330
165D
100
AcDbEntity
  8
241
  6
Continuous
100
AcDbVertex
100
AcDb3dPolylineVertex
 10
162.0669999999999
 20
8.355549999999903
 30
0.0
 70
    32
  0
VERTEX
  5
1716
330
165D
100
AcDbEntity
  8
241
  6
Continuous
100
AcDbVertex
100
AcDb3dPolylineVertex
 10
162.0569999999999
 20
8.329389999999904
 30
0.0
 70
    32
  0
VERTEX
  5
1717
330
165D
100
AcDbEntity
  8
241
  6
Continuous
100
AcDbVertex
100
AcDb3dPolylineVertex
 10
162.0479999999999
 20
8.303189999999915
 30
0.0
 70
    32
  0
VERTEX
  5
1718
330
165D
100
AcDbEntity
  8
241
  6
Continuous
100
AcDbVertex
100
AcDb3dPolylineVertex
 10
162.0379999999998
 20
8.27696999999992
 30
0.0
 70
    32
  0
VERTEX
  5
1719
330
165D
100
AcDbEntity
  8
241
  6
Continuous
100
AcDbVertex
100
AcDb3dPolylineVertex
 10
162.0289999999998
 20
8.250719999999915
 30
0.0
 70
    32
  0
VERTEX
  5
171A
330
165D
100
AcDbEntity
  8
241
  6
Continuous
100
AcDbVertex
100
AcDb3dPolylineVertex
 10
162.0189999999999
 20
8.224439999999901
 30
0.0
 70
    32
  0
VERTEX
  5
171B
330
165D
100
AcDbEntity
  8
241
  6
Continuous
100
AcDbVertex
100
AcDb3dPolylineVertex
 10
162.0099999999998
 20
8.198129999999906
 30
0.0
 70
    32
  0
VERTEX
  5
171C
330
165D
100
AcDbEntity
  8
241
  6
Continuous
100
AcDbVertex
100
AcDb3dPolylineVertex
 10
162.0009999999999
 20
8.171799999999905
 30
0.0
 70
    32
  0
VERTEX
  5
171D
330
165D
100
AcDbEntity
  8
241
  6
Continuous
100
AcDbVertex
100
AcDb3dPolylineVertex
 10
161.9919999999999
 20
8.145429999999919
 30
0.0
 70
    32
  0
VERTEX
  5
171E
330
165D
100
AcDbEntity
  8
241
  6
Continuous
100
AcDbVertex
100
AcDb3dPolylineVertex
 10
161.9829999999999
 20
8.119039999999927
 30
0.0
 70
    32
  0
VERTEX
  5
171F
330
165D
100
AcDbEntity
  8
241
  6
Continuous
100
AcDbVertex
100
AcDb3dPolylineVertex
 10
161.9739999999999
 20
8.092619999999925
 30
0.0
 70
    32
  0
VERTEX
  5
1720
330
165D
100
AcDbEntity
  8
241
  6
Continuous
100
AcDbVertex
100
AcDb3dPolylineVertex
 10
161.9649999999999
 20
8.066179999999917
 30
0.0
 70
    32
  0
VERTEX
  5
1721
330
165D
100
AcDbEntity
  8
241
  6
Continuous
100
AcDbVertex
100
AcDb3dPolylineVertex
 10
161.9559999999999
 20
8.039709999999926
 30
0.0
 70
    32
  0
VERTEX
  5
1722
330
165D
100
AcDbEntity
  8
241
  6
Continuous
100
AcDbVertex
100
AcDb3dPolylineVertex
 10
161.9469999999998
 20
8.013209999999928
 30
0.0
 70
    32
  0
VERTEX
  5
1723
330
165D
100
AcDbEntity
  8
241
  6
Continuous
100
AcDbVertex
100
AcDb3dPolylineVertex
 10
161.9389999999998
 20
7.986679999999921
 30
0.0
 70
    32
  0
VERTEX
  5
1724
330
165D
100
AcDbEntity
  8
241
  6
Continuous
100
AcDbVertex
100
AcDb3dPolylineVertex
 10
161.9299999999999
 20
7.960129999999907
 30
0.0
 70
    32
  0
VERTEX
  5
1725
330
165D
100
AcDbEntity
  8
241
  6
Continuous
100
AcDbVertex
100
AcDb3dPolylineVertex
 10
161.9219999999999
 20
7.93354999999991
 30
0.0
 70
    32
  0
VERTEX
  5
1726
330
165D
100
AcDbEntity
  8
241
  6
Continuous
100
AcDbVertex
100
AcDb3dPolylineVertex
 10
161.9129999999999
 20
7.906949999999909
 30
0.0
 70
    32
  0
VERTEX
  5
1727
330
165D
100
AcDbEntity
  8
241
  6
Continuous
100
AcDbVertex
100
AcDb3dPolylineVertex
 10
161.9049999999999
 20
7.880319999999926
 30
0.0
 70
    32
  0
VERTEX
  5
1728
330
165D
100
AcDbEntity
  8
241
  6
Continuous
100
AcDbVertex
100
AcDb3dPolylineVertex
 10
161.8969999999999
 20
7.853659999999905
 30
0.0
 70
    32
  0
VERTEX
  5
1729
330
165D
100
AcDbEntity
  8
241
  6
Continuous
100
AcDbVertex
100
AcDb3dPolylineVertex
 10
161.8879999999999
 20
7.826979999999905
 30
0.0
 70
    32
  0
VERTEX
  5
172A
330
165D
100
AcDbEntity
  8
241
  6
Continuous
100
AcDbVertex
100
AcDb3dPolylineVertex
 10
161.8799999999999
 20
7.800279999999901
 30
0.0
 70
    32
  0
VERTEX
  5
172B
330
165D
100
AcDbEntity
  8
241
  6
Continuous
100
AcDbVertex
100
AcDb3dPolylineVertex
 10
161.8719999999999
 20
7.773549999999914
 30
0.0
 70
    32
  0
VERTEX
  5
172C
330
165D
100
AcDbEntity
  8
241
  6
Continuous
100
AcDbVertex
100
AcDb3dPolylineVertex
 10
161.8649999999999
 20
7.746789999999919
 30
0.0
 70
    32
  0
VERTEX
  5
172D
330
165D
100
AcDbEntity
  8
241
  6
Continuous
100
AcDbVertex
100
AcDb3dPolylineVertex
 10
161.8569999999999
 20
7.720009999999916
 30
0.0
 70
    32
  0
VERTEX
  5
172E
330
165D
100
AcDbEntity
  8
241
  6
Continuous
100
AcDbVertex
100
AcDb3dPolylineVertex
 10
161.8489999999998
 20
7.693209999999907
 30
0.0
 70
    32
  0
VERTEX
  5
172F
330
165D
100
AcDbEntity
  8
241
  6
Continuous
100
AcDbVertex
100
AcDb3dPolylineVertex
 10
161.8409999999999
 20
7.666379999999917
 30
0.0
 70
    32
  0
VERTEX
  5
1730
330
165D
100
AcDbEntity
  8
241
  6
Continuous
100
AcDbVertex
100
AcDb3dPolylineVertex
 10
161.8339999999999
 20
7.639529999999922
 30
0.0
 70
    32
  0
VERTEX
  5
1731
330
165D
100
AcDbEntity
  8
241
  6
Continuous
100
AcDbVertex
100
AcDb3dPolylineVertex
 10
161.8259999999999
 20
7.61265999999992
 30
0.0
 70
    32
  0
VERTEX
  5
1732
330
165D
100
AcDbEntity
  8
241
  6
Continuous
100
AcDbVertex
100
AcDb3dPolylineVertex
 10
161.8189999999999
 20
7.585759999999907
 30
0.0
 70
    32
  0
VERTEX
  5
1733
330
165D
100
AcDbEntity
  8
241
  6
Continuous
100
AcDbVertex
100
AcDb3dPolylineVertex
 10
161.8119999999999
 20
7.558839999999917
 30
0.0
 70
    32
  0
VERTEX
  5
1734
330
165D
100
AcDbEntity
  8
241
  6
Continuous
100
AcDbVertex
100
AcDb3dPolylineVertex
 10
161.8039999999999
 20
7.531899999999922
 30
0.0
 70
    32
  0
VERTEX
  5
1735
330
165D
100
AcDbEntity
  8
241
  6
Continuous
100
AcDbVertex
100
AcDb3dPolylineVertex
 10
161.7969999999998
 20
7.504929999999916
 30
0.0
 70
    32
  0
VERTEX
  5
1736
330
165D
100
AcDbEntity
  8
241
  6
Continuous
100
AcDbVertex
100
AcDb3dPolylineVertex
 10
161.7899999999998
 20
7.477939999999902
 30
0.0
 70
    32
  0
VERTEX
  5
1737
330
165D
100
AcDbEntity
  8
241
  6
Continuous
100
AcDbVertex
100
AcDb3dPolylineVertex
 10
161.7829999999998
 20
7.450929999999914
 30
0.0
 70
    32
  0
VERTEX
  5
1738
330
165D
100
AcDbEntity
  8
241
  6
Continuous
100
AcDbVertex
100
AcDb3dPolylineVertex
 10
161.7759999999999
 20
7.423899999999918
 30
0.0
 70
    32
  0
VERTEX
  5
1739
330
165D
100
AcDbEntity
  8
241
  6
Continuous
100
AcDbVertex
100
AcDb3dPolylineVertex
 10
161.7699999999999
 20
7.396839999999912
 30
0.0
 70
    32
  0
VERTEX
  5
173A
330
165D
100
AcDbEntity
  8
241
  6
Continuous
100
AcDbVertex
100
AcDb3dPolylineVertex
 10
161.7629999999999
 20
7.369769999999902
 30
0.0
 70
    32
  0
VERTEX
  5
173B
330
165D
100
AcDbEntity
  8
241
  6
Continuous
100
AcDbVertex
100
AcDb3dPolylineVertex
 10
161.7559999999999
 20
7.342669999999912
 30
0.0
 70
    32
  0
VERTEX
  5
173C
330
165D
100
AcDbEntity
  8
241
  6
Continuous
100
AcDbVertex
100
AcDb3dPolylineVertex
 10
161.7499999999998
 20
7.315549999999916
 30
0.0
 70
    32
  0
VERTEX
  5
173D
330
165D
100
AcDbEntity
  8
241
  6
Continuous
100
AcDbVertex
100
AcDb3dPolylineVertex
 10
161.7429999999998
 20
7.288409999999911
 30
0.0
 70
    32
  0
VERTEX
  5
173E
330
165D
100
AcDbEntity
  8
241
  6
Continuous
100
AcDbVertex
100
AcDb3dPolylineVertex
 10
161.7369999999999
 20
7.2612499999999
 30
0.0
 70
    32
  0
VERTEX
  5
173F
330
165D
100
AcDbEntity
  8
241
  6
Continuous
100
AcDbVertex
100
AcDb3dPolylineVertex
 10
161.7309999999998
 20
7.234069999999917
 30
0.0
 70
    32
  0
VERTEX
  5
1740
330
165D
100
AcDbEntity
  8
241
  6
Continuous
100
AcDbVertex
100
AcDb3dPolylineVertex
 10
161.7239999999998
 20
7.206869999999922
 30
0.0
 70
    32
  0
VERTEX
  5
1741
330
165D
100
AcDbEntity
  8
241
  6
Continuous
100
AcDbVertex
100
AcDb3dPolylineVertex
 10
161.7179999999998
 20
7.17963999999992
 30
0.0
 70
    32
  0
VERTEX
  5
1742
330
165D
100
AcDbEntity
  8
241
  6
Continuous
100
AcDbVertex
100
AcDb3dPolylineVertex
 10
161.7119999999999
 20
7.152399999999912
 30
0.0
 70
    32
  0
VERTEX
  5
1743
330
165D
100
AcDbEntity
  8
241
  6
Continuous
100
AcDbVertex
100
AcDb3dPolylineVertex
 10
161.7059999999999
 20
7.125139999999902
 30
0.0
 70
    32
  0
VERTEX
  5
1744
330
165D
100
AcDbEntity
  8
241
  6
Continuous
100
AcDbVertex
100
AcDb3dPolylineVertex
 10
161.6999999999998
 20
7.097859999999911
 30
0.0
 70
    32
  0
VERTEX
  5
1745
330
165D
100
AcDbEntity
  8
241
  6
Continuous
100
AcDbVertex
100
AcDb3dPolylineVertex
 10
161.6949999999998
 20
7.070559999999915
 30
0.0
 70
    32
  0
VERTEX
  5
1746
330
165D
100
AcDbEntity
  8
241
  6
Continuous
100
AcDbVertex
100
AcDb3dPolylineVertex
 10
161.6889999999998
 20
7.043239999999912
 30
0.0
 70
    32
  0
VERTEX
  5
1747
330
165D
100
AcDbEntity
  8
241
  6
Continuous
100
AcDbVertex
100
AcDb3dPolylineVertex
 10
161.6829999999999
 20
7.015909999999905
 30
0.0
 70
    32
  0
VERTEX
  5
1748
330
165D
100
AcDbEntity
  8
241
  6
Continuous
100
AcDbVertex
100
AcDb3dPolylineVertex
 10
161.6779999999999
 20
6.988549999999917
 30
0.0
 70
    32
  0
VERTEX
  5
1749
330
165D
100
AcDbEntity
  8
241
  6
Continuous
100
AcDbVertex
100
AcDb3dPolylineVertex
 10
161.6719999999998
 20
6.961169999999922
 30
0.0
 70
    32
  0
VERTEX
  5
174A
330
165D
100
AcDbEntity
  8
241
  6
Continuous
100
AcDbVertex
100
AcDb3dPolylineVertex
 10
161.6669999999999
 20
6.933779999999927
 30
0.0
 70
    32
  0
VERTEX
  5
174B
330
165D
100
AcDbEntity
  8
241
  6
Continuous
100
AcDbVertex
100
AcDb3dPolylineVertex
 10
161.6619999999999
 20
6.906369999999922
 30
0.0
 70
    32
  0
VERTEX
  5
174C
330
165D
100
AcDbEntity
  8
241
  6
Continuous
100
AcDbVertex
100
AcDb3dPolylineVertex
 10
161.6559999999998
 20
6.878939999999912
 30
0.0
 70
    32
  0
VERTEX
  5
174D
330
165D
100
AcDbEntity
  8
241
  6
Continuous
100
AcDbVertex
100
AcDb3dPolylineVertex
 10
161.6509999999999
 20
6.851499999999902
 30
0.0
 70
    32
  0
VERTEX
  5
174E
330
165D
100
AcDbEntity
  8
241
  6
Continuous
100
AcDbVertex
100
AcDb3dPolylineVertex
 10
161.6459999999999
 20
6.824029999999907
 30
0.0
 70
    32
  0
VERTEX
  5
174F
330
165D
100
AcDbEntity
  8
241
  6
Continuous
100
AcDbVertex
100
AcDb3dPolylineVertex
 10
161.6409999999998
 20
6.79654999999991
 30
0.0
 70
    32
  0
VERTEX
  5
1750
330
165D
100
AcDbEntity
  8
241
  6
Continuous
100
AcDbVertex
100
AcDb3dPolylineVertex
 10
161.6359999999999
 20
6.76905999999991
 30
0.0
 70
    32
  0
VERTEX
  5
1751
330
165D
100
AcDbEntity
  8
241
  6
Continuous
100
AcDbVertex
100
AcDb3dPolylineVertex
 10
161.6319999999998
 20
6.741539999999901
 30
0.0
 70
    32
  0
VERTEX
  5
1752
330
165D
100
AcDbEntity
  8
241
  6
Continuous
100
AcDbVertex
100
AcDb3dPolylineVertex
 10
161.6269999999999
 20
6.714009999999916
 30
0.0
 70
    32
  0
VERTEX
  5
1753
330
165D
100
AcDbEntity
  8
241
  6
Continuous
100
AcDbVertex
100
AcDb3dPolylineVertex
 10
161.6219999999999
 20
6.686469999999927
 30
0.0
 70
    32
  0
VERTEX
  5
1754
330
165D
100
AcDbEntity
  8
241
  6
Continuous
100
AcDbVertex
100
AcDb3dPolylineVertex
 10
161.6179999999998
 20
6.658899999999902
 30
0.0
 70
    32
  0
VERTEX
  5
1755
330
165D
100
AcDbEntity
  8
241
  6
Continuous
100
AcDbVertex
100
AcDb3dPolylineVertex
 10
161.6129999999999
 20
6.631329999999906
 30
0.0
 70
    32
  0
VERTEX
  5
1756
330
165D
100
AcDbEntity
  8
241
  6
Continuous
100
AcDbVertex
100
AcDb3dPolylineVertex
 10
161.6089999999998
 20
6.603729999999927
 30
0.0
 70
    32
  0
VERTEX
  5
1757
330
165D
100
AcDbEntity
  8
241
  6
Continuous
100
AcDbVertex
100
AcDb3dPolylineVertex
 10
161.6049999999998
 20
6.576119999999917
 30
0.0
 70
    32
  0
VERTEX
  5
1758
330
165D
100
AcDbEntity
  8
241
  6
Continuous
100
AcDbVertex
100
AcDb3dPolylineVertex
 10
161.6009999999998
 20
6.548499999999902
 30
0.0
 70
    32
  0
VERTEX
  5
1759
330
165D
100
AcDbEntity
  8
241
  6
Continuous
100
AcDbVertex
100
AcDb3dPolylineVertex
 10
161.5959999999999
 20
6.52085999999991
 30
0.0
 70
    32
  0
VERTEX
  5
175A
330
165D
100
AcDbEntity
  8
241
  6
Continuous
100
AcDbVertex
100
AcDb3dPolylineVertex
 10
161.5919999999999
 20
6.493199999999916
 30
0.0
 70
    32
  0
VERTEX
  5
175B
330
165D
100
AcDbEntity
  8
241
  6
Continuous
100
AcDbVertex
100
AcDb3dPolylineVertex
 10
161.5889999999999
 20
6.465539999999919
 30
0.0
 70
    32
  0
VERTEX
  5
175C
330
165D
100
AcDbEntity
  8
241
  6
Continuous
100
AcDbVertex
100
AcDb3dPolylineVertex
 10
161.5849999999999
 20
6.437849999999912
 30
0.0
 70
    32
  0
VERTEX
  5
175D
330
165D
100
AcDbEntity
  8
241
  6
Continuous
100
AcDbVertex
100
AcDb3dPolylineVertex
 10
161.5809999999999
 20
6.410159999999906
 30
0.0
 70
    32
  0
VERTEX
  5
175E
330
165D
100
AcDbEntity
  8
241
  6
Continuous
100
AcDbVertex
100
AcDb3dPolylineVertex
 10
161.5769999999998
 20
6.382439999999918
 30
0.0
 70
    32
  0
VERTEX
  5
175F
330
165D
100
AcDbEntity
  8
241
  6
Continuous
100
AcDbVertex
100
AcDb3dPolylineVertex
 10
161.5739999999998
 20
6.3547199999999
 30
0.0
 70
    32
  0
VERTEX
  5
1760
330
165D
100
AcDbEntity
  8
241
  6
Continuous
100
AcDbVertex
100
AcDb3dPolylineVertex
 10
161.5699999999998
 20
6.326979999999905
 30
0.0
 70
    32
  0
VERTEX
  5
1761
330
165D
100
AcDbEntity
  8
241
  6
Continuous
100
AcDbVertex
100
AcDb3dPolylineVertex
 10
161.5669999999999
 20
6.299229999999909
 30
0.0
 70
    32
  0
VERTEX
  5
1762
330
165D
100
AcDbEntity
  8
241
  6
Continuous
100
AcDbVertex
100
AcDb3dPolylineVertex
 10
161.5629999999998
 20
6.271469999999905
 30
0.0
 70
    32
  0
VERTEX
  5
1763
330
165D
100
AcDbEntity
  8
241
  6
Continuous
100
AcDbVertex
100
AcDb3dPolylineVertex
 10
161.5599999999999
 20
6.243689999999901
 30
0.0
 70
    32
  0
VERTEX
  5
1764
330
165D
100
AcDbEntity
  8
241
  6
Continuous
100
AcDbVertex
100
AcDb3dPolylineVertex
 10
161.5569999999999
 20
6.215899999999917
 30
0.0
 70
    32
  0
VERTEX
  5
1765
330
165D
100
AcDbEntity
  8
241
  6
Continuous
100
AcDbVertex
100
AcDb3dPolylineVertex
 10
161.5539999999999
 20
6.188109999999909
 30
0.0
 70
    32
  0
VERTEX
  5
1766
330
165D
100
AcDbEntity
  8
241
  6
Continuous
100
AcDbVertex
100
AcDb3dPolylineVertex
 10
161.5509999999999
 20
6.160319999999927
 30
0.0
 70
    32
  0
VERTEX
  5
1767
330
165D
100
AcDbEntity
  8
241
  6
Continuous
100
AcDbVertex
100
AcDb3dPolylineVertex
 10
161.5479999999998
 20
6.132529999999917
 30
0.0
 70
    32
  0
VERTEX
  5
1768
330
165D
100
AcDbEntity
  8
241
  6
Continuous
100
AcDbVertex
100
AcDb3dPolylineVertex
 10
161.5449999999998
 20
6.104729999999902
 30
0.0
 70
    32
  0
VERTEX
  5
1769
330
165D
100
AcDbEntity
  8
241
  6
Continuous
100
AcDbVertex
100
AcDb3dPolylineVertex
 10
161.5419999999999
 20
6.076929999999919
 30
0.0
 70
    32
  0
VERTEX
  5
176A
330
165D
100
AcDbEntity
  8
241
  6
Continuous
100
AcDbVertex
100
AcDb3dPolylineVertex
 10
161.5399999999998
 20
6.049129999999905
 30
0.0
 70
    32
  0
VERTEX
  5
176B
330
165D
100
AcDbEntity
  8
241
  6
Continuous
100
AcDbVertex
100
AcDb3dPolylineVertex
 10
161.5369999999999
 20
6.021329999999919
 30
0.0
 70
    32
  0
VERTEX
  5
176C
330
165D
100
AcDbEntity
  8
241
  6
Continuous
100
AcDbVertex
100
AcDb3dPolylineVertex
 10
161.5349999999999
 20
5.993519999999902
 30
0.0
 70
    32
  0
VERTEX
  5
176D
330
165D
100
AcDbEntity
  8
241
  6
Continuous
100
AcDbVertex
100
AcDb3dPolylineVertex
 10
161.5319999999999
 20
5.965719999999919
 30
0.0
 70
    32
  0
VERTEX
  5
176E
330
165D
100
AcDbEntity
  8
241
  6
Continuous
100
AcDbVertex
100
AcDb3dPolylineVertex
 10
161.5299999999998
 20
5.9379099999999
 30
0.0
 70
    32
  0
VERTEX
  5
176F
330
165D
100
AcDbEntity
  8
241
  6
Continuous
100
AcDbVertex
100
AcDb3dPolylineVertex
 10
161.5279999999999
 20
5.91009999999991
 30
0.0
 70
    32
  0
VERTEX
  5
1770
330
165D
100
AcDbEntity
  8
241
  6
Continuous
100
AcDbVertex
100
AcDb3dPolylineVertex
 10
161.5259999999999
 20
5.882289999999926
 30
0.0
 70
    32
  0
VERTEX
  5
1771
330
165D
100
AcDbEntity
  8
241
  6
Continuous
100
AcDbVertex
100
AcDb3dPolylineVertex
 10
161.5239999999999
 20
5.854479999999909
 30
0.0
 70
    32
  0
VERTEX
  5
1772
330
165D
100
AcDbEntity
  8
241
  6
Continuous
100
AcDbVertex
100
AcDb3dPolylineVertex
 10
161.5219999999999
 20
5.82666999999992
 30
0.0
 70
    32
  0
VERTEX
  5
1773
330
165D
100
AcDbEntity
  8
241
  6
Continuous
100
AcDbVertex
100
AcDb3dPolylineVertex
 10
161.5199999999999
 20
5.798859999999906
 30
0.0
 70
    32
  0
VERTEX
  5
1774
330
165D
100
AcDbEntity
  8
241
  6
Continuous
100
AcDbVertex
100
AcDb3dPolylineVertex
 10
161.5179999999999
 20
5.771039999999914
 30
0.0
 70
    32
  0
VERTEX
  5
1775
330
165D
100
AcDbEntity
  8
241
  6
Continuous
100
AcDbVertex
100
AcDb3dPolylineVertex
 10
161.5159999999998
 20
5.743229999999925
 30
0.0
 70
    32
  0
VERTEX
  5
1776
330
165D
100
AcDbEntity
  8
241
  6
Continuous
100
AcDbVertex
100
AcDb3dPolylineVertex
 10
161.5149999999998
 20
5.715409999999906
 30
0.0
 70
    32
  0
VERTEX
  5
1777
330
165D
100
AcDbEntity
  8
241
  6
Continuous
100
AcDbVertex
100
AcDb3dPolylineVertex
 10
161.5129999999999
 20
5.687599999999918
 30
0.0
 70
    32
  0
VERTEX
  5
1778
330
165D
100
AcDbEntity
  8
241
  6
Continuous
100
AcDbVertex
100
AcDb3dPolylineVertex
 10
161.5119999999999
 20
5.659779999999924
 30
0.0
 70
    32
  0
VERTEX
  5
1779
330
165D
100
AcDbEntity
  8
241
  6
Continuous
100
AcDbVertex
100
AcDb3dPolylineVertex
 10
161.5099999999998
 20
5.63196999999991
 30
0.0
 70
    32
  0
VERTEX
  5
177A
330
165D
100
AcDbEntity
  8
241
  6
Continuous
100
AcDbVertex
100
AcDb3dPolylineVertex
 10
161.5089999999998
 20
5.604149999999918
 30
0.0
 70
    32
  0
VERTEX
  5
177B
330
165D
100
AcDbEntity
  8
241
  6
Continuous
100
AcDbVertex
100
AcDb3dPolylineVertex
 10
161.5079999999998
 20
5.576329999999927
 30
0.0
 70
    32
  0
VERTEX
  5
177C
330
165D
100
AcDbEntity
  8
241
  6
Continuous
100
AcDbVertex
100
AcDb3dPolylineVertex
 10
161.5069999999999
 20
5.54851999999991
 30
0.0
 70
    32
  0
VERTEX
  5
177D
330
165D
100
AcDbEntity
  8
241
  6
Continuous
100
AcDbVertex
100
AcDb3dPolylineVertex
 10
161.5059999999998
 20
5.520699999999918
 30
0.0
 70
    32
  0
VERTEX
  5
177E
330
165D
100
AcDbEntity
  8
241
  6
Continuous
100
AcDbVertex
100
AcDb3dPolylineVertex
 10
161.5049999999999
 20
5.492889999999903
 30
0.0
 70
    32
  0
VERTEX
  5
177F
330
165D
100
AcDbEntity
  8
241
  6
Continuous
100
AcDbVertex
100
AcDb3dPolylineVertex
 10
161.5039999999999
 20
5.46506999999991
 30
0.0
 70
    32
  0
VERTEX
  5
1780
330
165D
100
AcDbEntity
  8
241
  6
Continuous
100
AcDbVertex
100
AcDb3dPolylineVertex
 10
161.5029999999998
 20
5.437259999999921
 30
0.0
 70
    32
  0
VERTEX
  5
1781
330
165D
100
AcDbEntity
  8
241
  6
Continuous
100
AcDbVertex
100
AcDb3dPolylineVertex
 10
161.5029999999998
 20
5.409449999999907
 30
0.0
 70
    32
  0
VERTEX
  5
1782
330
165D
100
AcDbEntity
  8
241
  6
Continuous
100
AcDbVertex
100
AcDb3dPolylineVertex
 10
161.5019999999999
 20
5.381639999999919
 30
0.0
 70
    32
  0
VERTEX
  5
1783
330
165D
100
AcDbEntity
  8
241
  6
Continuous
100
AcDbVertex
100
AcDb3dPolylineVertex
 10
161.5009999999999
 20
5.353829999999902
 30
0.0
 70
    32
  0
VERTEX
  5
1784
330
165D
100
AcDbEntity
  8
241
  6
Continuous
100
AcDbVertex
100
AcDb3dPolylineVertex
 10
161.5009999999999
 20
5.326019999999914
 30
0.0
 70
    32
  0
VERTEX
  5
1785
330
165D
100
AcDbEntity
  8
241
  6
Continuous
100
AcDbVertex
100
AcDb3dPolylineVertex
 10
161.5009999999999
 20
5.298209999999923
 30
0.0
 70
    32
  0
VERTEX
  5
1786
330
165D
100
AcDbEntity
  8
241
  6
Continuous
100
AcDbVertex
100
AcDb3dPolylineVertex
 10
161.4999999999999
 20
5.270399999999909
 30
0.0
 70
    32
  0
VERTEX
  5
1787
330
165D
100
AcDbEntity
  8
241
  6
Continuous
100
AcDbVertex
100
AcDb3dPolylineVertex
 10
161.4999999999999
 20
5.242589999999919
 30
0.0
 70
    32
  0
VERTEX
  5
1788
330
165D
100
AcDbEntity
  8
241
  6
Continuous
100
AcDbVertex
100
AcDb3dPolylineVertex
 10
161.4999999999999
 20
5.214789999999908
 30
0.0
 70
    32
  0
VERTEX
  5
1789
330
165D
100
AcDbEntity
  8
241
  6
Continuous
100
AcDbVertex
100
AcDb3dPolylineVertex
 10
161.4999999999999
 20
5.186989999999923
 30
0.0
 70
    32
  0
VERTEX
  5
178A
330
165D
100
AcDbEntity
  8
241
  6
Continuous
100
AcDbVertex
100
AcDb3dPolylineVertex
 10
161.4999999999999
 20
5.15918999999991
 30
0.0
 70
    32
  0
VERTEX
  5
178B
330
165D
100
AcDbEntity
  8
241
  6
Continuous
100
AcDbVertex
100
AcDb3dPolylineVertex
 10
161.4999999999999
 20
5.131389999999925
 30
0.0
 70
    32
  0
VERTEX
  5
178C
330
165D
100
AcDbEntity
  8
241
  6
Continuous
100
AcDbVertex
100
AcDb3dPolylineVertex
 10
161.4999999999999
 20
5.103589999999909
 30
0.0
 70
    32
  0
VERTEX
  5
178D
330
165D
100
AcDbEntity
  8
241
  6
Continuous
100
AcDbVertex
100
AcDb3dPolylineVertex
 10
161.5009999999999
 20
5.075799999999901
 30
0.0
 70
    32
  0
VERTEX
  5
178E
330
165D
100
AcDbEntity
  8
241
  6
Continuous
100
AcDbVertex
100
AcDb3dPolylineVertex
 10
161.5009999999999
 20
5.048009999999917
 30
0.0
 70
    32
  0
VERTEX
  5
178F
330
165D
100
AcDbEntity
  8
241
  6
Continuous
100
AcDbVertex
100
AcDb3dPolylineVertex
 10
161.5019999999999
 20
5.020219999999909
 30
0.0
 70
    32
  0
VERTEX
  5
1790
330
165D
100
AcDbEntity
  8
241
  6
Continuous
100
AcDbVertex
100
AcDb3dPolylineVertex
 10
161.5019999999999
 20
4.992429999999925
 30
0.0
 70
    32
  0
VERTEX
  5
1791
330
165D
100
AcDbEntity
  8
241
  6
Continuous
100
AcDbVertex
100
AcDb3dPolylineVertex
 10
161.5029999999998
 20
4.964649999999918
 30
0.0
 70
    32
  0
VERTEX
  5
1792
330
165D
100
AcDbEntity
  8
241
  6
Continuous
100
AcDbVertex
100
AcDb3dPolylineVertex
 10
161.5039999999999
 20
4.936869999999911
 30
0.0
 70
    32
  0
VERTEX
  5
1793
330
165D
100
AcDbEntity
  8
241
  6
Continuous
100
AcDbVertex
100
AcDb3dPolylineVertex
 10
161.5039999999999
 20
4.909089999999906
 30
0.0
 70
    32
  0
VERTEX
  5
1794
330
165D
100
AcDbEntity
  8
241
  6
Continuous
100
AcDbVertex
100
AcDb3dPolylineVertex
 10
161.5049999999999
 20
4.881319999999901
 30
0.0
 70
    32
  0
VERTEX
  5
1795
330
165D
100
AcDbEntity
  8
241
  6
Continuous
100
AcDbVertex
100
AcDb3dPolylineVertex
 10
161.5059999999998
 20
4.853549999999924
 30
0.0
 70
    32
  0
VERTEX
  5
1796
330
165D
100
AcDbEntity
  8
241
  6
Continuous
100
AcDbVertex
100
AcDb3dPolylineVertex
 10
161.5069999999999
 20
4.82577999999992
 30
0.0
 70
    32
  0
VERTEX
  5
1797
330
165D
100
AcDbEntity
  8
241
  6
Continuous
100
AcDbVertex
100
AcDb3dPolylineVertex
 10
161.5079999999998
 20
4.798009999999917
 30
0.0
 70
    32
  0
VERTEX
  5
1798
330
165D
100
AcDbEntity
  8
241
  6
Continuous
100
AcDbVertex
100
AcDb3dPolylineVertex
 10
161.5099999999998
 20
4.770249999999919
 30
0.0
 70
    32
  0
VERTEX
  5
1799
330
165D
100
AcDbEntity
  8
241
  6
Continuous
100
AcDbVertex
100
AcDb3dPolylineVertex
 10
161.5109999999999
 20
4.742489999999917
 30
0.0
 70
    32
  0
VERTEX
  5
179A
330
165D
100
AcDbEntity
  8
241
  6
Continuous
100
AcDbVertex
100
AcDb3dPolylineVertex
 10
161.5119999999999
 20
4.714739999999919
 30
0.0
 70
    32
  0
VERTEX
  5
179B
330
165D
100
AcDbEntity
  8
241
  6
Continuous
100
AcDbVertex
100
AcDb3dPolylineVertex
 10
161.5139999999999
 20
4.686989999999923
 30
0.0
 70
    32
  0
VERTEX
  5
179C
330
165D
100
AcDbEntity
  8
241
  6
Continuous
100
AcDbVertex
100
AcDb3dPolylineVertex
 10
161.5149999999998
 20
4.659249999999928
 30
0.0
 70
    32
  0
VERTEX
  5
179D
330
165D
100
AcDbEntity
  8
241
  6
Continuous
100
AcDbVertex
100
AcDb3dPolylineVertex
 10
161.5169999999998
 20
4.631509999999906
 30
0.0
 70
    32
  0
SEQEND
  5
179E
330
165D
100
AcDbEntity
  8
241
  6
Continuous
  0
ARC
  5
179F
330
1A
100
AcDbEntity
  8
240
  6
Continuous
100
AcDbCircle
 10
168.8375534199999
 20
16.99999999999991
 30
0.0
 40
10.0
100
AcDbArc
 50
90.00000000000005
 51
127.7492418699994
  0
ARC
  5
17A0
330
1A
100
AcDbEntity
  8
241
  6
Continuous
100
AcDbCircle
 10
168.4999999999999
 20
4.747114319999923
 30
0.0
 40
6.956658273837438
100
AcDbArc
 50
191.1655138600001
 51
348.8344861399998
  0
POLYLINE
  5
17A1
330
1A
100
AcDbEntity
  8
241
  6
Continuous
100
AcDb3dPolyline
 66
     1
 10
0.0
 20
0.0
 30
0.0
 70
     8
  0
VERTEX
  5
17A2
330
17A1
100
AcDbEntity
  8
241
  6
Continuous
100
AcDbVertex
100
AcDb3dPolylineVertex
 10
168.4999999999999
 20
8.583579999999926
 30
0.0
 70
    32
  0
VERTEX
  5
17A3
330
17A1
100
AcDbEntity
  8
241
  6
Continuous
100
AcDbVertex
100
AcDb3dPolylineVertex
 10
168.3899999999998
 20
8.582749999999919
 30
0.0
 70
    32
  0
VERTEX
  5
17A4
330
17A1
100
AcDbEntity
  8
241
  6
Continuous
100
AcDbVertex
100
AcDb3dPolylineVertex
 10
168.2809999999998
 20
8.580249999999921
 30
0.0
 70
    32
  0
VERTEX
  5
17A5
330
17A1
100
AcDbEntity
  8
241
  6
Continuous
100
AcDbVertex
100
AcDb3dPolylineVertex
 10
168.1709999999998
 20
8.576089999999906
 30
0.0
 70
    32
  0
VERTEX
  5
17A6
330
17A1
100
AcDbEntity
  8
241
  6
Continuous
100
AcDbVertex
100
AcDb3dPolylineVertex
 10
168.0619999999999
 20
8.570259999999905
 30
0.0
 70
    32
  0
VERTEX
  5
17A7
330
17A1
100
AcDbEntity
  8
241
  6
Continuous
100
AcDbVertex
100
AcDb3dPolylineVertex
 10
167.9519999999999
 20
8.562769999999915
 30
0.0
 70
    32
  0
VERTEX
  5
17A8
330
17A1
100
AcDbEntity
  8
241
  6
Continuous
100
AcDbVertex
100
AcDb3dPolylineVertex
 10
167.8429999999998
 20
8.553619999999909
 30
0.0
 70
    32
  0
VERTEX
  5
17A9
330
17A1
100
AcDbEntity
  8
241
  6
Continuous
100
AcDbVertex
100
AcDb3dPolylineVertex
 10
167.7339999999999
 20
8.54281999999992
 30
0.0
 70
    32
  0
VERTEX
  5
17AA
330
17A1
100
AcDbEntity
  8
241
  6
Continuous
100
AcDbVertex
100
AcDb3dPolylineVertex
 10
167.6259999999998
 20
8.530359999999916
 30
0.0
 70
    32
  0
VERTEX
  5
17AB
330
17A1
100
AcDbEntity
  8
241
  6
Continuous
100
AcDbVertex
100
AcDb3dPolylineVertex
 10
167.5169999999999
 20
8.516249999999926
 30
0.0
 70
    32
  0
VERTEX
  5
17AC
330
17A1
100
AcDbEntity
  8
241
  6
Continuous
100
AcDbVertex
100
AcDb3dPolylineVertex
 10
167.4089999999999
 20
8.500499999999931
 30
0.0
 70
    32
  0
VERTEX
  5
17AD
330
17A1
100
AcDbEntity
  8
241
  6
Continuous
100
AcDbVertex
100
AcDb3dPolylineVertex
 10
167.3009999999998
 20
8.483109999999925
 30
0.0
 70
    32
  0
VERTEX
  5
17AE
330
17A1
100
AcDbEntity
  8
241
  6
Continuous
100
AcDbVertex
100
AcDb3dPolylineVertex
 10
167.1939999999999
 20
8.46407999999991
 30
0.0
 70
    32
  0
VERTEX
  5
17AF
330
17A1
100
AcDbEntity
  8
241
  6
Continuous
100
AcDbVertex
100
AcDb3dPolylineVertex
 10
167.0869999999999
 20
8.443419999999917
 30
0.0
 70
    32
  0
VERTEX
  5
17B0
330
17A1
100
AcDbEntity
  8
241
  6
Continuous
100
AcDbVertex
100
AcDb3dPolylineVertex
 10
166.9799999999998
 20
8.421139999999923
 30
0.0
 70
    32
  0
VERTEX
  5
17B1
330
17A1
100
AcDbEntity
  8
241
  6
Continuous
100
AcDbVertex
100
AcDb3dPolylineVertex
 10
166.8739999999999
 20
8.397249999999926
 30
0.0
 70
    32
  0
VERTEX
  5
17B2
330
17A1
100
AcDbEntity
  8
241
  6
Continuous
100
AcDbVertex
100
AcDb3dPolylineVertex
 10
166.7689999999999
 20
8.371739999999901
 30
0.0
 70
    32
  0
VERTEX
  5
17B3
330
17A1
100
AcDbEntity
  8
241
  6
Continuous
100
AcDbVertex
100
AcDb3dPolylineVertex
 10
166.6639999999999
 20
8.344639999999911
 30
0.0
 70
    32
  0
VERTEX
  5
17B4
330
17A1
100
AcDbEntity
  8
241
  6
Continuous
100
AcDbVertex
100
AcDb3dPolylineVertex
 10
166.5589999999999
 20
8.315939999999926
 30
0.0
 70
    32
  0
VERTEX
  5
17B5
330
17A1
100
AcDbEntity
  8
241
  6
Continuous
100
AcDbVertex
100
AcDb3dPolylineVertex
 10
166.4549999999999
 20
8.285659999999921
 30
0.0
 70
    32
  0
VERTEX
  5
17B6
330
17A1
100
AcDbEntity
  8
241
  6
Continuous
100
AcDbVertex
100
AcDb3dPolylineVertex
 10
166.3519999999999
 20
8.25380999999993
 30
0.0
 70
    32
  0
VERTEX
  5
17B7
330
17A1
100
AcDbEntity
  8
241
  6
Continuous
100
AcDbVertex
100
AcDb3dPolylineVertex
 10
166.2489999999999
 20
8.220389999999921
 30
0.0
 70
    32
  0
VERTEX
  5
17B8
330
17A1
100
AcDbEntity
  8
241
  6
Continuous
100
AcDbVertex
100
AcDb3dPolylineVertex
 10
166.1469999999999
 20
8.185409999999905
 30
0.0
 70
    32
  0
VERTEX
  5
17B9
330
17A1
100
AcDbEntity
  8
241
  6
Continuous
100
AcDbVertex
100
AcDb3dPolylineVertex
 10
166.0459999999999
 20
8.148899999999912
 30
0.0
 70
    32
  0
VERTEX
  5
17BA
330
17A1
100
AcDbEntity
  8
241
  6
Continuous
100
AcDbVertex
100
AcDb3dPolylineVertex
 10
165.9459999999998
 20
8.110849999999912
 30
0.0
 70
    32
  0
VERTEX
  5
17BB
330
17A1
100
AcDbEntity
  8
241
  6
Continuous
100
AcDbVertex
100
AcDb3dPolylineVertex
 10
165.8459999999998
 20
8.071279999999916
 30
0.0
 70
    32
  0
VERTEX
  5
17BC
330
17A1
100
AcDbEntity
  8
241
  6
Continuous
100
AcDbVertex
100
AcDb3dPolylineVertex
 10
165.7469999999999
 20
8.030199999999922
 30
0.0
 70
    32
  0
VERTEX
  5
17BD
330
17A1
100
AcDbEntity
  8
241
  6
Continuous
100
AcDbVertex
100
AcDb3dPolylineVertex
 10
165.6489999999998
 20
7.98762999999991
 30
0.0
 70
    32
  0
VERTEX
  5
17BE
330
17A1
100
AcDbEntity
  8
241
  6
Continuous
100
AcDbVertex
100
AcDb3dPolylineVertex
 10
165.5519999999999
 20
7.94357999999991
 30
0.0
 70
    32
  0
VERTEX
  5
17BF
330
17A1
100
AcDbEntity
  8
241
  6
Continuous
100
AcDbVertex
100
AcDb3dPolylineVertex
 10
165.4559999999999
 20
7.898049999999924
 30
0.0
 70
    32
  0
VERTEX
  5
17C0
330
17A1
100
AcDbEntity
  8
241
  6
Continuous
100
AcDbVertex
100
AcDb3dPolylineVertex
 10
165.3599999999999
 20
7.851069999999905
 30
0.0
 70
    32
  0
VERTEX
  5
17C1
330
17A1
100
AcDbEntity
  8
241
  6
Continuous
100
AcDbVertex
100
AcDb3dPolylineVertex
 10
165.2659999999999
 20
7.802649999999914
 30
0.0
 70
    32
  0
VERTEX
  5
17C2
330
17A1
100
AcDbEntity
  8
241
  6
Continuous
100
AcDbVertex
100
AcDb3dPolylineVertex
 10
165.1729999999999
 20
7.752809999999922
 30
0.0
 70
    32
  0
VERTEX
  5
17C3
330
17A1
100
AcDbEntity
  8
241
  6
Continuous
100
AcDbVertex
100
AcDb3dPolylineVertex
 10
165.0799999999999
 20
7.701549999999912
 30
0.0
 70
    32
  0
VERTEX
  5
17C4
330
17A1
100
AcDbEntity
  8
241
  6
Continuous
100
AcDbVertex
100
AcDb3dPolylineVertex
 10
164.9889999999999
 20
7.648909999999915
 30
0.0
 70
    32
  0
VERTEX
  5
17C5
330
17A1
100
AcDbEntity
  8
241
  6
Continuous
100
AcDbVertex
100
AcDb3dPolylineVertex
 10
164.8989999999998
 20
7.594879999999902
 30
0.0
 70
    32
  0
VERTEX
  5
17C6
330
17A1
100
AcDbEntity
  8
241
  6
Continuous
100
AcDbVertex
100
AcDb3dPolylineVertex
 10
164.8099999999999
 20
7.539489999999915
 30
0.0
 70
    32
  0
VERTEX
  5
17C7
330
17A1
100
AcDbEntity
  8
241
  6
Continuous
100
AcDbVertex
100
AcDb3dPolylineVertex
 10
164.7219999999999
 20
7.482759999999927
 30
0.0
 70
    32
  0
VERTEX
  5
17C8
330
17A1
100
AcDbEntity
  8
241
  6
Continuous
100
AcDbVertex
100
AcDb3dPolylineVertex
 10
164.6349999999998
 20
7.424689999999912
 30
0.0
 70
    32
  0
VERTEX
  5
17C9
330
17A1
100
AcDbEntity
  8
241
  6
Continuous
100
AcDbVertex
100
AcDb3dPolylineVertex
 10
164.5499999999999
 20
7.36531999999991
 30
0.0
 70
    32
  0
VERTEX
  5
17CA
330
17A1
100
AcDbEntity
  8
241
  6
Continuous
100
AcDbVertex
100
AcDb3dPolylineVertex
 10
164.4649999999999
 20
7.304659999999927
 30
0.0
 70
    32
  0
VERTEX
  5
17CB
330
17A1
100
AcDbEntity
  8
241
  6
Continuous
100
AcDbVertex
100
AcDb3dPolylineVertex
 10
164.3819999999999
 20
7.242729999999909
 30
0.0
 70
    32
  0
VERTEX
  5
17CC
330
17A1
100
AcDbEntity
  8
241
  6
Continuous
100
AcDbVertex
100
AcDb3dPolylineVertex
 10
164.2999999999999
 20
7.179539999999917
 30
0.0
 70
    32
  0
VERTEX
  5
17CD
330
17A1
100
AcDbEntity
  8
241
  6
Continuous
100
AcDbVertex
100
AcDb3dPolylineVertex
 10
164.2199999999999
 20
7.115119999999905
 30
0.0
 70
    32
  0
VERTEX
  5
17CE
330
17A1
100
AcDbEntity
  8
241
  6
Continuous
100
AcDbVertex
100
AcDb3dPolylineVertex
 10
164.1409999999999
 20
7.049489999999905
 30
0.0
 70
    32
  0
VERTEX
  5
17CF
330
17A1
100
AcDbEntity
  8
241
  6
Continuous
100
AcDbVertex
100
AcDb3dPolylineVertex
 10
164.0629999999998
 20
6.982659999999922
 30
0.0
 70
    32
  0
VERTEX
  5
17D0
330
17A1
100
AcDbEntity
  8
241
  6
Continuous
100
AcDbVertex
100
AcDb3dPolylineVertex
 10
163.9859999999998
 20
6.91465999999991
 30
0.0
 70
    32
  0
VERTEX
  5
17D1
330
17A1
100
AcDbEntity
  8
241
  6
Continuous
100
AcDbVertex
100
AcDb3dPolylineVertex
 10
163.9109999999998
 20
6.845509999999902
 30
0.0
 70
    32
  0
VERTEX
  5
17D2
330
17A1
100
AcDbEntity
  8
241
  6
Continuous
100
AcDbVertex
100
AcDb3dPolylineVertex
 10
163.8369999999999
 20
6.775229999999907
 30
0.0
 70
    32
  0
VERTEX
  5
17D3
330
17A1
100
AcDbEntity
  8
241
  6
Continuous
100
AcDbVertex
100
AcDb3dPolylineVertex
 10
163.7649999999998
 20
6.703829999999922
 30
0.0
 70
    32
  0
VERTEX
  5
17D4
330
17A1
100
AcDbEntity
  8
241
  6
Continuous
100
AcDbVertex
100
AcDb3dPolylineVertex
 10
163.6939999999998
 20
6.63134999999991
 30
0.0
 70
    32
  0
VERTEX
  5
17D5
330
17A1
100
AcDbEntity
  8
241
  6
Continuous
100
AcDbVertex
100
AcDb3dPolylineVertex
 10
163.6249999999998
 20
6.557809999999902
 30
0.0
 70
    32
  0
VERTEX
  5
17D6
330
17A1
100
AcDbEntity
  8
241
  6
Continuous
100
AcDbVertex
100
AcDb3dPolylineVertex
 10
163.5569999999999
 20
6.483219999999902
 30
0.0
 70
    32
  0
VERTEX
  5
17D7
330
17A1
100
AcDbEntity
  8
241
  6
Continuous
100
AcDbVertex
100
AcDb3dPolylineVertex
 10
163.4909999999999
 20
6.40760999999992
 30
0.0
 70
    32
  0
VERTEX
  5
17D8
330
17A1
100
AcDbEntity
  8
241
  6
Continuous
100
AcDbVertex
100
AcDb3dPolylineVertex
 10
163.4259999999999
 20
6.331009999999905
 30
0.0
 70
    32
  0
VERTEX
  5
17D9
330
17A1
100
AcDbEntity
  8
241
  6
Continuous
100
AcDbVertex
100
AcDb3dPolylineVertex
 10
163.3629999999999
 20
6.253429999999922
 30
0.0
 70
    32
  0
VERTEX
  5
17DA
330
17A1
100
AcDbEntity
  8
241
  6
Continuous
100
AcDbVertex
100
AcDb3dPolylineVertex
 10
163.3009999999999
 20
6.174909999999925
 30
0.0
 70
    32
  0
VERTEX
  5
17DB
330
17A1
100
AcDbEntity
  8
241
  6
Continuous
100
AcDbVertex
100
AcDb3dPolylineVertex
 10
163.2409999999999
 20
6.095459999999917
 30
0.0
 70
    32
  0
VERTEX
  5
17DC
330
17A1
100
AcDbEntity
  8
241
  6
Continuous
100
AcDbVertex
100
AcDb3dPolylineVertex
 10
163.1819999999999
 20
6.015109999999905
 30
0.0
 70
    32
  0
VERTEX
  5
17DD
330
17A1
100
AcDbEntity
  8
241
  6
Continuous
100
AcDbVertex
100
AcDb3dPolylineVertex
 10
163.1259999999999
 20
5.933879999999902
 30
0.0
 70
    32
  0
VERTEX
  5
17DE
330
17A1
100
AcDbEntity
  8
241
  6
Continuous
100
AcDbVertex
100
AcDb3dPolylineVertex
 10
163.0699999999999
 20
5.851809999999915
 30
0.0
 70
    32
  0
VERTEX
  5
17DF
330
17A1
100
AcDbEntity
  8
241
  6
Continuous
100
AcDbVertex
100
AcDb3dPolylineVertex
 10
163.0169999999998
 20
5.76890999999992
 30
0.0
 70
    32
  0
VERTEX
  5
17E0
330
17A1
100
AcDbEntity
  8
241
  6
Continuous
100
AcDbVertex
100
AcDb3dPolylineVertex
 10
162.9649999999998
 20
5.685209999999925
 30
0.0
 70
    32
  0
VERTEX
  5
17E1
330
17A1
100
AcDbEntity
  8
241
  6
Continuous
100
AcDbVertex
100
AcDb3dPolylineVertex
 10
162.9149999999998
 20
5.600739999999916
 30
0.0
 70
    32
  0
VERTEX
  5
17E2
330
17A1
100
AcDbEntity
  8
241
  6
Continuous
100
AcDbVertex
100
AcDb3dPolylineVertex
 10
162.8669999999999
 20
5.515509999999919
 30
0.0
 70
    32
  0
VERTEX
  5
17E3
330
17A1
100
AcDbEntity
  8
241
  6
Continuous
100
AcDbVertex
100
AcDb3dPolylineVertex
 10
162.8199999999998
 20
5.429569999999927
 30
0.0
 70
    32
  0
VERTEX
  5
17E4
330
17A1
100
AcDbEntity
  8
241
  6
Continuous
100
AcDbVertex
100
AcDb3dPolylineVertex
 10
162.7749999999998
 20
5.34292999999991
 30
0.0
 70
    32
  0
VERTEX
  5
17E5
330
17A1
100
AcDbEntity
  8
241
  6
Continuous
100
AcDbVertex
100
AcDb3dPolylineVertex
 10
162.7319999999999
 20
5.255629999999911
 30
0.0
 70
    32
  0
VERTEX
  5
17E6
330
17A1
100
AcDbEntity
  8
241
  6
Continuous
100
AcDbVertex
100
AcDb3dPolylineVertex
 10
162.6909999999999
 20
5.167679999999903
 30
0.0
 70
    32
  0
VERTEX
  5
17E7
330
17A1
100
AcDbEntity
  8
241
  6
Continuous
100
AcDbVertex
100
AcDb3dPolylineVertex
 10
162.6509999999999
 20
5.079119999999903
 30
0.0
 70
    32
  0
VERTEX
  5
17E8
330
17A1
100
AcDbEntity
  8
241
  6
Continuous
100
AcDbVertex
100
AcDb3dPolylineVertex
 10
162.6139999999999
 20
4.989969999999914
 30
0.0
 70
    32
  0
VERTEX
  5
17E9
330
17A1
100
AcDbEntity
  8
241
  6
Continuous
100
AcDbVertex
100
AcDb3dPolylineVertex
 10
162.5779999999998
 20
4.900259999999915
 30
0.0
 70
    32
  0
VERTEX
  5
17EA
330
17A1
100
AcDbEntity
  8
241
  6
Continuous
100
AcDbVertex
100
AcDb3dPolylineVertex
 10
162.5429999999999
 20
4.81000999999992
 30
0.0
 70
    32
  0
VERTEX
  5
17EB
330
17A1
100
AcDbEntity
  8
241
  6
Continuous
100
AcDbVertex
100
AcDb3dPolylineVertex
 10
162.5109999999999
 20
4.719269999999909
 30
0.0
 70
    32
  0
VERTEX
  5
17EC
330
17A1
100
AcDbEntity
  8
241
  6
Continuous
100
AcDbVertex
100
AcDb3dPolylineVertex
 10
162.4809999999999
 20
4.628039999999913
 30
0.0
 70
    32
  0
VERTEX
  5
17ED
330
17A1
100
AcDbEntity
  8
241
  6
Continuous
100
AcDbVertex
100
AcDb3dPolylineVertex
 10
162.4519999999998
 20
4.536369999999918
 30
0.0
 70
    32
  0
VERTEX
  5
17EE
330
17A1
100
AcDbEntity
  8
241
  6
Continuous
100
AcDbVertex
100
AcDb3dPolylineVertex
 10
162.4249999999999
 20
4.444279999999906
 30
0.0
 70
    32
  0
VERTEX
  5
17EF
330
17A1
100
AcDbEntity
  8
241
  6
Continuous
100
AcDbVertex
100
AcDb3dPolylineVertex
 10
162.4009999999999
 20
4.351799999999911
 30
0.0
 70
    32
  0
VERTEX
  5
17F0
330
17A1
100
AcDbEntity
  8
241
  6
Continuous
100
AcDbVertex
100
AcDb3dPolylineVertex
 10
162.3779999999999
 20
4.258949999999913
 30
0.0
 70
    32
  0
VERTEX
  5
17F1
330
17A1
100
AcDbEntity
  8
241
  6
Continuous
100
AcDbVertex
100
AcDb3dPolylineVertex
 10
162.3559999999998
 20
4.165769999999922
 30
0.0
 70
    32
  0
VERTEX
  5
17F2
330
17A1
100
AcDbEntity
  8
241
  6
Continuous
100
AcDbVertex
100
AcDb3dPolylineVertex
 10
162.3369999999999
 20
4.072279999999921
 30
0.0
 70
    32
  0
VERTEX
  5
17F3
330
17A1
100
AcDbEntity
  8
241
  6
Continuous
100
AcDbVertex
100
AcDb3dPolylineVertex
 10
162.3199999999998
 20
3.978509999999912
 30
0.0
 70
    32
  0
VERTEX
  5
17F4
330
17A1
100
AcDbEntity
  8
241
  6
Continuous
100
AcDbVertex
100
AcDb3dPolylineVertex
 10
162.3049999999999
 20
3.884499999999917
 30
0.0
 70
    32
  0
VERTEX
  5
17F5
330
17A1
100
AcDbEntity
  8
241
  6
Continuous
100
AcDbVertex
100
AcDb3dPolylineVertex
 10
162.2909999999999
 20
3.790269999999907
 30
0.0
 70
    32
  0
VERTEX
  5
17F6
330
17A1
100
AcDbEntity
  8
241
  6
Continuous
100
AcDbVertex
100
AcDb3dPolylineVertex
 10
162.2789999999998
 20
3.695839999999916
 30
0.0
 70
    32
  0
VERTEX
  5
17F7
330
17A1
100
AcDbEntity
  8
241
  6
Continuous
100
AcDbVertex
100
AcDb3dPolylineVertex
 10
162.2699999999999
 20
3.601259999999911
 30
0.0
 70
    32
  0
VERTEX
  5
17F8
330
17A1
100
AcDbEntity
  8
241
  6
Continuous
100
AcDbVertex
100
AcDb3dPolylineVertex
 10
162.2619999999998
 20
3.506539999999913
 30
0.0
 70
    32
  0
VERTEX
  5
17F9
330
17A1
100
AcDbEntity
  8
241
  6
Continuous
100
AcDbVertex
100
AcDb3dPolylineVertex
 10
162.2559999999999
 20
3.411719999999917
 30
0.0
 70
    32
  0
VERTEX
  5
17FA
330
17A1
100
AcDbEntity
  8
241
  6
Continuous
100
AcDbVertex
100
AcDb3dPolylineVertex
 10
162.2519999999999
 20
3.316819999999921
 30
0.0
 70
    32
  0
VERTEX
  5
17FB
330
17A1
100
AcDbEntity
  8
241
  6
Continuous
100
AcDbVertex
100
AcDb3dPolylineVertex
 10
162.2499999999999
 20
3.221879999999913
 30
0.0
 70
    32
  0
VERTEX
  5
17FC
330
17A1
100
AcDbEntity
  8
241
  6
Continuous
100
AcDbVertex
100
AcDb3dPolylineVertex
 10
162.2499999999999
 20
3.126919999999925
 30
0.0
 70
    32
  0
VERTEX
  5
17FD
330
17A1
100
AcDbEntity
  8
241
  6
Continuous
100
AcDbVertex
100
AcDb3dPolylineVertex
 10
162.2519999999999
 20
3.031979999999919
 30
0.0
 70
    32
  0
VERTEX
  5
17FE
330
17A1
100
AcDbEntity
  8
241
  6
Continuous
100
AcDbVertex
100
AcDb3dPolylineVertex
 10
162.2559999999999
 20
2.937079999999923
 30
0.0
 70
    32
  0
VERTEX
  5
17FF
330
17A1
100
AcDbEntity
  8
241
  6
Continuous
100
AcDbVertex
100
AcDb3dPolylineVertex
 10
162.2619999999998
 20
2.842249999999921
 30
0.0
 70
    32
  0
VERTEX
  5
1800
330
17A1
100
AcDbEntity
  8
241
  6
Continuous
100
AcDbVertex
100
AcDb3dPolylineVertex
 10
162.2689999999999
 20
2.747519999999922
 30
0.0
 70
    32
  0
VERTEX
  5
1801
330
17A1
100
AcDbEntity
  8
241
  6
Continuous
100
AcDbVertex
100
AcDb3dPolylineVertex
 10
162.2789999999998
 20
2.652929999999912
 30
0.0
 70
    32
  0
VERTEX
  5
1802
330
17A1
100
AcDbEntity
  8
241
  6
Continuous
100
AcDbVertex
100
AcDb3dPolylineVertex
 10
162.2899999999999
 20
2.558489999999919
 30
0.0
 70
    32
  0
VERTEX
  5
1803
330
17A1
100
AcDbEntity
  8
241
  6
Continuous
100
AcDbVertex
100
AcDb3dPolylineVertex
 10
162.3029999999998
 20
2.464239999999904
 30
0.0
 70
    32
  0
VERTEX
  5
1804
330
17A1
100
AcDbEntity
  8
241
  6
Continuous
100
AcDbVertex
100
AcDb3dPolylineVertex
 10
162.3189999999998
 20
2.370209999999929
 30
0.0
 70
    32
  0
VERTEX
  5
1805
330
17A1
100
AcDbEntity
  8
241
  6
Continuous
100
AcDbVertex
100
AcDb3dPolylineVertex
 10
162.3359999999999
 20
2.276429999999919
 30
0.0
 70
    32
  0
VERTEX
  5
1806
330
17A1
100
AcDbEntity
  8
241
  6
Continuous
100
AcDbVertex
100
AcDb3dPolylineVertex
 10
162.3549999999998
 20
2.18291999999991
 30
0.0
 70
    32
  0
VERTEX
  5
1807
330
17A1
100
AcDbEntity
  8
241
  6
Continuous
100
AcDbVertex
100
AcDb3dPolylineVertex
 10
162.3759999999999
 20
2.08970999999991
 30
0.0
 70
    32
  0
VERTEX
  5
1808
330
17A1
100
AcDbEntity
  8
241
  6
Continuous
100
AcDbVertex
100
AcDb3dPolylineVertex
 10
162.3989999999999
 20
1.996839999999906
 30
0.0
 70
    32
  0
VERTEX
  5
1809
330
17A1
100
AcDbEntity
  8
241
  6
Continuous
100
AcDbVertex
100
AcDb3dPolylineVertex
 10
162.4239999999999
 20
1.9043299999999
 30
0.0
 70
    32
  0
VERTEX
  5
180A
330
17A1
100
AcDbEntity
  8
241
  6
Continuous
100
AcDbVertex
100
AcDb3dPolylineVertex
 10
162.4499999999998
 20
1.812209999999907
 30
0.0
 70
    32
  0
VERTEX
  5
180B
330
17A1
100
AcDbEntity
  8
241
  6
Continuous
100
AcDbVertex
100
AcDb3dPolylineVertex
 10
162.4789999999998
 20
1.720499999999899
 30
0.0
 70
    32
  0
VERTEX
  5
180C
330
17A1
100
AcDbEntity
  8
241
  6
Continuous
100
AcDbVertex
100
AcDb3dPolylineVertex
 10
162.5089999999998
 20
1.629249999999926
 30
0.0
 70
    32
  0
VERTEX
  5
180D
330
17A1
100
AcDbEntity
  8
241
  6
Continuous
100
AcDbVertex
100
AcDb3dPolylineVertex
 10
162.5409999999999
 20
1.538459999999899
 30
0.0
 70
    32
  0
VERTEX
  5
180E
330
17A1
100
AcDbEntity
  8
241
  6
Continuous
100
AcDbVertex
100
AcDb3dPolylineVertex
 10
162.5749999999999
 20
1.448179999999919
 30
0.0
 70
    32
  0
VERTEX
  5
180F
330
17A1
100
AcDbEntity
  8
241
  6
Continuous
100
AcDbVertex
100
AcDb3dPolylineVertex
 10
162.6109999999998
 20
1.358429999999912
 30
0.0
 70
    32
  0
VERTEX
  5
1810
330
17A1
100
AcDbEntity
  8
241
  6
Continuous
100
AcDbVertex
100
AcDb3dPolylineVertex
 10
162.6479999999998
 20
1.269239999999909
 30
0.0
 70
    32
  0
VERTEX
  5
1811
330
17A1
100
AcDbEntity
  8
241
  6
Continuous
100
AcDbVertex
100
AcDb3dPolylineVertex
 10
162.6879999999998
 20
1.180629999999922
 30
0.0
 70
    32
  0
VERTEX
  5
1812
330
17A1
100
AcDbEntity
  8
241
  6
Continuous
100
AcDbVertex
100
AcDb3dPolylineVertex
 10
162.7289999999998
 20
1.092639999999903
 30
0.0
 70
    32
  0
VERTEX
  5
1813
330
17A1
100
AcDbEntity
  8
241
  6
Continuous
100
AcDbVertex
100
AcDb3dPolylineVertex
 10
162.7719999999999
 20
1.005289999999914
 30
0.0
 70
    32
  0
VERTEX
  5
1814
330
17A1
100
AcDbEntity
  8
241
  6
Continuous
100
AcDbVertex
100
AcDb3dPolylineVertex
 10
162.8169999999999
 20
0.9185979999999176
 30
0.0
 70
    32
  0
VERTEX
  5
1815
330
17A1
100
AcDbEntity
  8
241
  6
Continuous
100
AcDbVertex
100
AcDb3dPolylineVertex
 10
162.8629999999999
 20
0.8326029999999207
 30
0.0
 70
    32
  0
VERTEX
  5
1816
330
17A1
100
AcDbEntity
  8
241
  6
Continuous
100
AcDbVertex
100
AcDb3dPolylineVertex
 10
162.9119999999999
 20
0.7473279999999251
 30
0.0
 70
    32
  0
VERTEX
  5
1817
330
17A1
100
AcDbEntity
  8
241
  6
Continuous
100
AcDbVertex
100
AcDb3dPolylineVertex
 10
162.9619999999999
 20
0.6627989999999217
 30
0.0
 70
    32
  0
VERTEX
  5
1818
330
17A1
100
AcDbEntity
  8
241
  6
Continuous
100
AcDbVertex
100
AcDb3dPolylineVertex
 10
163.0129999999999
 20
0.5790419999999302
 30
0.0
 70
    32
  0
VERTEX
  5
1819
330
17A1
100
AcDbEntity
  8
241
  6
Continuous
100
AcDbVertex
100
AcDb3dPolylineVertex
 10
163.0669999999999
 20
0.4960819999999161
 30
0.0
 70
    32
  0
VERTEX
  5
181A
330
17A1
100
AcDbEntity
  8
241
  6
Continuous
100
AcDbVertex
100
AcDb3dPolylineVertex
 10
163.1219999999999
 20
0.4139459999999249
 30
0.0
 70
    32
  0
VERTEX
  5
181B
330
17A1
100
AcDbEntity
  8
241
  6
Continuous
100
AcDbVertex
100
AcDb3dPolylineVertex
 10
163.1779999999999
 20
0.332657999999924
 30
0.0
 70
    32
  0
VERTEX
  5
181C
330
17A1
100
AcDbEntity
  8
241
  6
Continuous
100
AcDbVertex
100
AcDb3dPolylineVertex
 10
163.2369999999998
 20
0.2522439999999051
 30
0.0
 70
    32
  0
VERTEX
  5
181D
330
17A1
100
AcDbEntity
  8
241
  6
Continuous
100
AcDbVertex
100
AcDb3dPolylineVertex
 10
163.2959999999998
 20
0.1727279999999212
 30
0.0
 70
    32
  0
VERTEX
  5
181E
330
17A1
100
AcDbEntity
  8
241
  6
Continuous
100
AcDbVertex
100
AcDb3dPolylineVertex
 10
163.3579999999999
 20
0.0941344999999103
 30
0.0
 70
    32
  0
VERTEX
  5
181F
330
17A1
100
AcDbEntity
  8
241
  6
Continuous
100
AcDbVertex
100
AcDb3dPolylineVertex
 10
163.4209999999998
 20
0.0164881999999125
 30
0.0
 70
    32
  0
VERTEX
  5
1820
330
17A1
100
AcDbEntity
  8
241
  6
Continuous
100
AcDbVertex
100
AcDb3dPolylineVertex
 10
163.4859999999998
 20
-0.0601872000000867
 30
0.0
 70
    32
  0
VERTEX
  5
1821
330
17A1
100
AcDbEntity
  8
241
  6
Continuous
100
AcDbVertex
100
AcDb3dPolylineVertex
 10
163.5519999999999
 20
-0.1358680000000731
 30
0.0
 70
    32
  0
VERTEX
  5
1822
330
17A1
100
AcDbEntity
  8
241
  6
Continuous
100
AcDbVertex
100
AcDb3dPolylineVertex
 10
163.6199999999999
 20
-0.2105310000000884
 30
0.0
 70
    32
  0
SEQEND
  5
1823
330
17A1
100
AcDbEntity
  8
241
  6
Continuous
  0
POLYLINE
  5
1824
330
1A
100
AcDbEntity
  8
241
  6
Continuous
100
AcDb3dPolyline
 66
     1
 10
0.0
 20
0.0
 30
0.0
 70
     8
  0
VERTEX
  5
1825
330
1824
100
AcDbEntity
  8
241
  6
Continuous
100
AcDbVertex
100
AcDb3dPolylineVertex
 10
161.5169999999998
 20
4.631509999999906
 30
0.0
 70
    32
  0
VERTEX
  5
1826
330
1824
100
AcDbEntity
  8
241
  6
Continuous
100
AcDbVertex
100
AcDb3dPolylineVertex
 10
161.5179999999999
 20
4.621789999999919
 30
0.0
 70
    32
  0
VERTEX
  5
1827
330
1824
100
AcDbEntity
  8
241
  6
Continuous
100
AcDbVertex
100
AcDb3dPolylineVertex
 10
161.5179999999999
 20
4.612079999999906
 30
0.0
 70
    32
  0
VERTEX
  5
1828
330
1824
100
AcDbEntity
  8
241
  6
Continuous
100
AcDbVertex
100
AcDb3dPolylineVertex
 10
161.5189999999999
 20
4.602369999999922
 30
0.0
 70
    32
  0
VERTEX
  5
1829
330
1824
100
AcDbEntity
  8
241
  6
Continuous
100
AcDbVertex
100
AcDb3dPolylineVertex
 10
161.5199999999999
 20
4.592659999999909
 30
0.0
 70
    32
  0
VERTEX
  5
182A
330
1824
100
AcDbEntity
  8
241
  6
Continuous
100
AcDbVertex
100
AcDb3dPolylineVertex
 10
161.5199999999999
 20
4.5829599999999
 30
0.0
 70
    32
  0
VERTEX
  5
182B
330
1824
100
AcDbEntity
  8
241
  6
Continuous
100
AcDbVertex
100
AcDb3dPolylineVertex
 10
161.5209999999999
 20
4.573249999999916
 30
0.0
 70
    32
  0
VERTEX
  5
182C
330
1824
100
AcDbEntity
  8
241
  6
Continuous
100
AcDbVertex
100
AcDb3dPolylineVertex
 10
161.5209999999999
 20
4.563539999999903
 30
0.0
 70
    32
  0
VERTEX
  5
182D
330
1824
100
AcDbEntity
  8
241
  6
Continuous
100
AcDbVertex
100
AcDb3dPolylineVertex
 10
161.5219999999999
 20
4.553839999999921
 30
0.0
 70
    32
  0
VERTEX
  5
182E
330
1824
100
AcDbEntity
  8
241
  6
Continuous
100
AcDbVertex
100
AcDb3dPolylineVertex
 10
161.5229999999998
 20
4.54412999999991
 30
0.0
 70
    32
  0
VERTEX
  5
182F
330
1824
100
AcDbEntity
  8
241
  6
Continuous
100
AcDbVertex
100
AcDb3dPolylineVertex
 10
161.5229999999998
 20
4.534429999999926
 30
0.0
 70
    32
  0
VERTEX
  5
1830
330
1824
100
AcDbEntity
  8
241
  6
Continuous
100
AcDbVertex
100
AcDb3dPolylineVertex
 10
161.5239999999999
 20
4.524729999999919
 30
0.0
 70
    32
  0
VERTEX
  5
1831
330
1824
100
AcDbEntity
  8
241
  6
Continuous
100
AcDbVertex
100
AcDb3dPolylineVertex
 10
161.5249999999999
 20
4.515029999999909
 30
0.0
 70
    32
  0
VERTEX
  5
1832
330
1824
100
AcDbEntity
  8
241
  6
Continuous
100
AcDbVertex
100
AcDb3dPolylineVertex
 10
161.5259999999999
 20
4.505329999999927
 30
0.0
 70
    32
  0
VERTEX
  5
1833
330
1824
100
AcDbEntity
  8
241
  6
Continuous
100
AcDbVertex
100
AcDb3dPolylineVertex
 10
161.5259999999999
 20
4.49562999999992
 30
0.0
 70
    32
  0
VERTEX
  5
1834
330
1824
100
AcDbEntity
  8
241
  6
Continuous
100
AcDbVertex
100
AcDb3dPolylineVertex
 10
161.5269999999999
 20
4.48592999999991
 30
0.0
 70
    32
  0
VERTEX
  5
1835
330
1824
100
AcDbEntity
  8
241
  6
Continuous
100
AcDbVertex
100
AcDb3dPolylineVertex
 10
161.5279999999999
 20
4.476229999999928
 30
0.0
 70
    32
  0
VERTEX
  5
1836
330
1824
100
AcDbEntity
  8
241
  6
Continuous
100
AcDbVertex
100
AcDb3dPolylineVertex
 10
161.5289999999998
 20
4.466529999999917
 30
0.0
 70
    32
  0
VERTEX
  5
1837
330
1824
100
AcDbEntity
  8
241
  6
Continuous
100
AcDbVertex
100
AcDb3dPolylineVertex
 10
161.5289999999998
 20
4.456839999999914
 30
0.0
 70
    32
  0
VERTEX
  5
1838
330
1824
100
AcDbEntity
  8
241
  6
Continuous
100
AcDbVertex
100
AcDb3dPolylineVertex
 10
161.5299999999998
 20
4.447139999999905
 30
0.0
 70
    32
  0
VERTEX
  5
1839
330
1824
100
AcDbEntity
  8
241
  6
Continuous
100
AcDbVertex
100
AcDb3dPolylineVertex
 10
161.5309999999999
 20
4.437449999999924
 30
0.0
 70
    32
  0
VERTEX
  5
183A
330
1824
100
AcDbEntity
  8
241
  6
Continuous
100
AcDbVertex
100
AcDb3dPolylineVertex
 10
161.5319999999999
 20
4.427759999999921
 30
0.0
 70
    32
  0
VERTEX
  5
183B
330
1824
100
AcDbEntity
  8
241
  6
Continuous
100
AcDbVertex
100
AcDb3dPolylineVertex
 10
161.5329999999998
 20
4.418069999999914
 30
0.0
 70
    32
  0
VERTEX
  5
183C
330
1824
100
AcDbEntity
  8
241
  6
Continuous
100
AcDbVertex
100
AcDb3dPolylineVertex
 10
161.5329999999998
 20
4.408379999999906
 30
0.0
 70
    32
  0
VERTEX
  5
183D
330
1824
100
AcDbEntity
  8
241
  6
Continuous
100
AcDbVertex
100
AcDb3dPolylineVertex
 10
161.5339999999998
 20
4.398689999999902
 30
0.0
 70
    32
  0
VERTEX
  5
183E
330
1824
100
AcDbEntity
  8
241
  6
Continuous
100
AcDbVertex
100
AcDb3dPolylineVertex
 10
161.5349999999999
 20
4.388999999999922
 30
0.0
 70
    32
  0
VERTEX
  5
183F
330
1824
100
AcDbEntity
  8
241
  6
Continuous
100
AcDbVertex
100
AcDb3dPolylineVertex
 10
161.5359999999999
 20
4.379309999999915
 30
0.0
 70
    32
  0
VERTEX
  5
1840
330
1824
100
AcDbEntity
  8
241
  6
Continuous
100
AcDbVertex
100
AcDb3dPolylineVertex
 10
161.5369999999999
 20
4.369629999999912
 30
0.0
 70
    32
  0
VERTEX
  5
1841
330
1824
100
AcDbEntity
  8
241
  6
Continuous
100
AcDbVertex
100
AcDb3dPolylineVertex
 10
161.5379999999998
 20
4.359949999999912
 30
0.0
 70
    32
  0
VERTEX
  5
1842
330
1824
100
AcDbEntity
  8
241
  6
Continuous
100
AcDbVertex
100
AcDb3dPolylineVertex
 10
161.5379999999998
 20
4.350259999999906
 30
0.0
 70
    32
  0
VERTEX
  5
1843
330
1824
100
AcDbEntity
  8
241
  6
Continuous
100
AcDbVertex
100
AcDb3dPolylineVertex
 10
161.5389999999998
 20
4.340579999999903
 30
0.0
 70
    32
  0
VERTEX
  5
1844
330
1824
100
AcDbEntity
  8
241
  6
Continuous
100
AcDbVertex
100
AcDb3dPolylineVertex
 10
161.5399999999998
 20
4.330899999999928
 30
0.0
 70
    32
  0
VERTEX
  5
1845
330
1824
100
AcDbEntity
  8
241
  6
Continuous
100
AcDbVertex
100
AcDb3dPolylineVertex
 10
161.5409999999998
 20
4.321219999999923
 30
0.0
 70
    32
  0
VERTEX
  5
1846
330
1824
100
AcDbEntity
  8
241
  6
Continuous
100
AcDbVertex
100
AcDb3dPolylineVertex
 10
161.5419999999999
 20
4.311539999999919
 30
0.0
 70
    32
  0
VERTEX
  5
1847
330
1824
100
AcDbEntity
  8
241
  6
Continuous
100
AcDbVertex
100
AcDb3dPolylineVertex
 10
161.5429999999999
 20
4.301869999999921
 30
0.0
 70
    32
  0
VERTEX
  5
1848
330
1824
100
AcDbEntity
  8
241
  6
Continuous
100
AcDbVertex
100
AcDb3dPolylineVertex
 10
161.5439999999998
 20
4.292189999999918
 30
0.0
 70
    32
  0
VERTEX
  5
1849
330
1824
100
AcDbEntity
  8
241
  6
Continuous
100
AcDbVertex
100
AcDb3dPolylineVertex
 10
161.5449999999998
 20
4.282519999999919
 30
0.0
 70
    32
  0
VERTEX
  5
184A
330
1824
100
AcDbEntity
  8
241
  6
Continuous
100
AcDbVertex
100
AcDb3dPolylineVertex
 10
161.5459999999998
 20
4.27284999999992
 30
0.0
 70
    32
  0
VERTEX
  5
184B
330
1824
100
AcDbEntity
  8
241
  6
Continuous
100
AcDbVertex
100
AcDb3dPolylineVertex
 10
161.5469999999999
 20
4.263169999999917
 30
0.0
 70
    32
  0
VERTEX
  5
184C
330
1824
100
AcDbEntity
  8
241
  6
Continuous
100
AcDbVertex
100
AcDb3dPolylineVertex
 10
161.5479999999998
 20
4.253499999999917
 30
0.0
 70
    32
  0
VERTEX
  5
184D
330
1824
100
AcDbEntity
  8
241
  6
Continuous
100
AcDbVertex
100
AcDb3dPolylineVertex
 10
161.5489999999999
 20
4.24383999999992
 30
0.0
 70
    32
  0
VERTEX
  5
184E
330
1824
100
AcDbEntity
  8
241
  6
Continuous
100
AcDbVertex
100
AcDb3dPolylineVertex
 10
161.5499999999999
 20
4.234169999999918
 30
0.0
 70
    32
  0
VERTEX
  5
184F
330
1824
100
AcDbEntity
  8
241
  6
Continuous
100
AcDbVertex
100
AcDb3dPolylineVertex
 10
161.5509999999999
 20
4.224499999999919
 30
0.0
 70
    32
  0
VERTEX
  5
1850
330
1824
100
AcDbEntity
  8
241
  6
Continuous
100
AcDbVertex
100
AcDb3dPolylineVertex
 10
161.5519999999999
 20
4.214839999999923
 30
0.0
 70
    32
  0
VERTEX
  5
1851
330
1824
100
AcDbEntity
  8
241
  6
Continuous
100
AcDbVertex
100
AcDb3dPolylineVertex
 10
161.5529999999998
 20
4.205179999999924
 30
0.0
 70
    32
  0
VERTEX
  5
1852
330
1824
100
AcDbEntity
  8
241
  6
Continuous
100
AcDbVertex
100
AcDb3dPolylineVertex
 10
161.5539999999999
 20
4.195509999999925
 30
0.0
 70
    32
  0
VERTEX
  5
1853
330
1824
100
AcDbEntity
  8
241
  6
Continuous
100
AcDbVertex
100
AcDb3dPolylineVertex
 10
161.5549999999998
 20
4.185849999999901
 30
0.0
 70
    32
  0
VERTEX
  5
1854
330
1824
100
AcDbEntity
  8
241
  6
Continuous
100
AcDbVertex
100
AcDb3dPolylineVertex
 10
161.5559999999999
 20
4.176199999999909
 30
0.0
 70
    32
  0
VERTEX
  5
1855
330
1824
100
AcDbEntity
  8
241
  6
Continuous
100
AcDbVertex
100
AcDb3dPolylineVertex
 10
161.5569999999999
 20
4.166539999999912
 30
0.0
 70
    32
  0
VERTEX
  5
1856
330
1824
100
AcDbEntity
  8
241
  6
Continuous
100
AcDbVertex
100
AcDb3dPolylineVertex
 10
161.5579999999999
 20
4.156879999999913
 30
0.0
 70
    32
  0
VERTEX
  5
1857
330
1824
100
AcDbEntity
  8
241
  6
Continuous
100
AcDbVertex
100
AcDb3dPolylineVertex
 10
161.5589999999999
 20
4.147229999999922
 30
0.0
 70
    32
  0
VERTEX
  5
1858
330
1824
100
AcDbEntity
  8
241
  6
Continuous
100
AcDbVertex
100
AcDb3dPolylineVertex
 10
161.5599999999999
 20
4.137579999999928
 30
0.0
 70
    32
  0
VERTEX
  5
1859
330
1824
100
AcDbEntity
  8
241
  6
Continuous
100
AcDbVertex
100
AcDb3dPolylineVertex
 10
161.5609999999999
 20
4.127919999999903
 30
0.0
 70
    32
  0
VERTEX
  5
185A
330
1824
100
AcDbEntity
  8
241
  6
Continuous
100
AcDbVertex
100
AcDb3dPolylineVertex
 10
161.5629999999998
 20
4.118279999999913
 30
0.0
 70
    32
  0
VERTEX
  5
185B
330
1824
100
AcDbEntity
  8
241
  6
Continuous
100
AcDbVertex
100
AcDb3dPolylineVertex
 10
161.5639999999998
 20
4.108629999999918
 30
0.0
 70
    32
  0
VERTEX
  5
185C
330
1824
100
AcDbEntity
  8
241
  6
Continuous
100
AcDbVertex
100
AcDb3dPolylineVertex
 10
161.5649999999999
 20
4.098979999999926
 30
0.0
 70
    32
  0
VERTEX
  5
185D
330
1824
100
AcDbEntity
  8
241
  6
Continuous
100
AcDbVertex
100
AcDb3dPolylineVertex
 10
161.5659999999999
 20
4.089339999999906
 30
0.0
 70
    32
  0
VERTEX
  5
185E
330
1824
100
AcDbEntity
  8
241
  6
Continuous
100
AcDbVertex
100
AcDb3dPolylineVertex
 10
161.5669999999999
 20
4.079689999999913
 30
0.0
 70
    32
  0
VERTEX
  5
185F
330
1824
100
AcDbEntity
  8
241
  6
Continuous
100
AcDbVertex
100
AcDb3dPolylineVertex
 10
161.5679999999998
 20
4.070049999999922
 30
0.0
 70
    32
  0
VERTEX
  5
1860
330
1824
100
AcDbEntity
  8
241
  6
Continuous
100
AcDbVertex
100
AcDb3dPolylineVertex
 10
161.5689999999998
 20
4.060409999999905
 30
0.0
 70
    32
  0
VERTEX
  5
1861
330
1824
100
AcDbEntity
  8
241
  6
Continuous
100
AcDbVertex
100
AcDb3dPolylineVertex
 10
161.5709999999998
 20
4.050769999999912
 30
0.0
 70
    32
  0
VERTEX
  5
1862
330
1824
100
AcDbEntity
  8
241
  6
Continuous
100
AcDbVertex
100
AcDb3dPolylineVertex
 10
161.5719999999999
 20
4.041139999999924
 30
0.0
 70
    32
  0
VERTEX
  5
1863
330
1824
100
AcDbEntity
  8
241
  6
Continuous
100
AcDbVertex
100
AcDb3dPolylineVertex
 10
161.5729999999998
 20
4.031499999999907
 30
0.0
 70
    32
  0
VERTEX
  5
1864
330
1824
100
AcDbEntity
  8
241
  6
Continuous
100
AcDbVertex
100
AcDb3dPolylineVertex
 10
161.5739999999998
 20
4.021869999999921
 30
0.0
 70
    32
  0
VERTEX
  5
1865
330
1824
100
AcDbEntity
  8
241
  6
Continuous
100
AcDbVertex
100
AcDb3dPolylineVertex
 10
161.5749999999999
 20
4.012239999999906
 30
0.0
 70
    32
  0
VERTEX
  5
1866
330
1824
100
AcDbEntity
  8
241
  6
Continuous
100
AcDbVertex
100
AcDb3dPolylineVertex
 10
161.5769999999998
 20
4.002609999999918
 30
0.0
 70
    32
  0
VERTEX
  5
1867
330
1824
100
AcDbEntity
  8
241
  6
Continuous
100
AcDbVertex
100
AcDb3dPolylineVertex
 10
161.5779999999998
 20
3.992979999999903
 30
0.0
 70
    32
  0
VERTEX
  5
1868
330
1824
100
AcDbEntity
  8
241
  6
Continuous
100
AcDbVertex
100
AcDb3dPolylineVertex
 10
161.5789999999999
 20
3.983349999999913
 30
0.0
 70
    32
  0
VERTEX
  5
1869
330
1824
100
AcDbEntity
  8
241
  6
Continuous
100
AcDbVertex
100
AcDb3dPolylineVertex
 10
161.5809999999999
 20
3.973729999999903
 30
0.0
 70
    32
  0
VERTEX
  5
186A
330
1824
100
AcDbEntity
  8
241
  6
Continuous
100
AcDbVertex
100
AcDb3dPolylineVertex
 10
161.5819999999999
 20
3.964109999999917
 30
0.0
 70
    32
  0
VERTEX
  5
186B
330
1824
100
AcDbEntity
  8
241
  6
Continuous
100
AcDbVertex
100
AcDb3dPolylineVertex
 10
161.5829999999999
 20
3.954479999999903
 30
0.0
 70
    32
  0
VERTEX
  5
186C
330
1824
100
AcDbEntity
  8
241
  6
Continuous
100
AcDbVertex
100
AcDb3dPolylineVertex
 10
161.5839999999999
 20
3.944869999999923
 30
0.0
 70
    32
  0
VERTEX
  5
186D
330
1824
100
AcDbEntity
  8
241
  6
Continuous
100
AcDbVertex
100
AcDb3dPolylineVertex
 10
161.5859999999999
 20
3.935249999999911
 30
0.0
 70
    32
  0
VERTEX
  5
186E
330
1824
100
AcDbEntity
  8
241
  6
Continuous
100
AcDbVertex
100
AcDb3dPolylineVertex
 10
161.5869999999999
 20
3.925629999999926
 30
0.0
 70
    32
  0
VERTEX
  5
186F
330
1824
100
AcDbEntity
  8
241
  6
Continuous
100
AcDbVertex
100
AcDb3dPolylineVertex
 10
161.5879999999998
 20
3.916019999999917
 30
0.0
 70
    32
  0
VERTEX
  5
1870
330
1824
100
AcDbEntity
  8
241
  6
Continuous
100
AcDbVertex
100
AcDb3dPolylineVertex
 10
161.5899999999999
 20
3.906409999999908
 30
0.0
 70
    32
  0
VERTEX
  5
1871
330
1824
100
AcDbEntity
  8
241
  6
Continuous
100
AcDbVertex
100
AcDb3dPolylineVertex
 10
161.5909999999999
 20
3.896799999999926
 30
0.0
 70
    32
  0
VERTEX
  5
1872
330
1824
100
AcDbEntity
  8
241
  6
Continuous
100
AcDbVertex
100
AcDb3dPolylineVertex
 10
161.5919999999999
 20
3.887189999999917
 30
0.0
 70
    32
  0
VERTEX
  5
1873
330
1824
100
AcDbEntity
  8
241
  6
Continuous
100
AcDbVertex
100
AcDb3dPolylineVertex
 10
161.5939999999998
 20
3.877579999999909
 30
0.0
 70
    32
  0
VERTEX
  5
1874
330
1824
100
AcDbEntity
  8
241
  6
Continuous
100
AcDbVertex
100
AcDb3dPolylineVertex
 10
161.5949999999998
 20
3.867979999999903
 30
0.0
 70
    32
  0
VERTEX
  5
1875
330
1824
100
AcDbEntity
  8
241
  6
Continuous
100
AcDbVertex
100
AcDb3dPolylineVertex
 10
161.5969999999999
 20
3.858379999999923
 30
0.0
 70
    32
  0
VERTEX
  5
1876
330
1824
100
AcDbEntity
  8
241
  6
Continuous
100
AcDbVertex
100
AcDb3dPolylineVertex
 10
161.5979999999998
 20
3.848779999999917
 30
0.0
 70
    32
  0
VERTEX
  5
1877
330
1824
100
AcDbEntity
  8
241
  6
Continuous
100
AcDbVertex
100
AcDb3dPolylineVertex
 10
161.5989999999999
 20
3.839179999999912
 30
0.0
 70
    32
  0
VERTEX
  5
1878
330
1824
100
AcDbEntity
  8
241
  6
Continuous
100
AcDbVertex
100
AcDb3dPolylineVertex
 10
161.6009999999998
 20
3.829579999999907
 30
0.0
 70
    32
  0
VERTEX
  5
1879
330
1824
100
AcDbEntity
  8
241
  6
Continuous
100
AcDbVertex
100
AcDb3dPolylineVertex
 10
161.6019999999998
 20
3.819989999999903
 30
0.0
 70
    32
  0
VERTEX
  5
187A
330
1824
100
AcDbEntity
  8
241
  6
Continuous
100
AcDbVertex
100
AcDb3dPolylineVertex
 10
161.6039999999998
 20
3.810389999999926
 30
0.0
 70
    32
  0
VERTEX
  5
187B
330
1824
100
AcDbEntity
  8
241
  6
Continuous
100
AcDbVertex
100
AcDb3dPolylineVertex
 10
161.6049999999998
 20
3.800799999999922
 30
0.0
 70
    32
  0
VERTEX
  5
187C
330
1824
100
AcDbEntity
  8
241
  6
Continuous
100
AcDbVertex
100
AcDb3dPolylineVertex
 10
161.6069999999999
 20
3.791209999999921
 30
0.0
 70
    32
  0
VERTEX
  5
187D
330
1824
100
AcDbEntity
  8
241
  6
Continuous
100
AcDbVertex
100
AcDb3dPolylineVertex
 10
161.6079999999999
 20
3.781629999999921
 30
0.0
 70
    32
  0
VERTEX
  5
187E
330
1824
100
AcDbEntity
  8
241
  6
Continuous
100
AcDbVertex
100
AcDb3dPolylineVertex
 10
161.6099999999999
 20
3.772039999999917
 30
0.0
 70
    32
  0
VERTEX
  5
187F
330
1824
100
AcDbEntity
  8
241
  6
Continuous
100
AcDbVertex
100
AcDb3dPolylineVertex
 10
161.6109999999998
 20
3.762459999999919
 30
0.0
 70
    32
  0
VERTEX
  5
1880
330
1824
100
AcDbEntity
  8
241
  6
Continuous
100
AcDbVertex
100
AcDb3dPolylineVertex
 10
161.6119999999999
 20
3.752879999999917
 30
0.0
 70
    32
  0
VERTEX
  5
1881
330
1824
100
AcDbEntity
  8
241
  6
Continuous
100
AcDbVertex
100
AcDb3dPolylineVertex
 10
161.6139999999999
 20
3.743299999999917
 30
0.0
 70
    32
  0
VERTEX
  5
1882
330
1824
100
AcDbEntity
  8
241
  6
Continuous
100
AcDbVertex
100
AcDb3dPolylineVertex
 10
161.6159999999999
 20
3.733729999999923
 30
0.0
 70
    32
  0
VERTEX
  5
1883
330
1824
100
AcDbEntity
  8
241
  6
Continuous
100
AcDbVertex
100
AcDb3dPolylineVertex
 10
161.6169999999999
 20
3.724149999999923
 30
0.0
 70
    32
  0
VERTEX
  5
1884
330
1824
100
AcDbEntity
  8
241
  6
Continuous
100
AcDbVertex
100
AcDb3dPolylineVertex
 10
161.6189999999999
 20
3.714579999999926
 30
0.0
 70
    32
  0
VERTEX
  5
1885
330
1824
100
AcDbEntity
  8
241
  6
Continuous
100
AcDbVertex
100
AcDb3dPolylineVertex
 10
161.6199999999999
 20
3.705009999999901
 30
0.0
 70
    32
  0
VERTEX
  5
1886
330
1824
100
AcDbEntity
  8
241
  6
Continuous
100
AcDbVertex
100
AcDb3dPolylineVertex
 10
161.6219999999999
 20
3.695439999999904
 30
0.0
 70
    32
  0
VERTEX
  5
1887
330
1824
100
AcDbEntity
  8
241
  6
Continuous
100
AcDbVertex
100
AcDb3dPolylineVertex
 10
161.6229999999998
 20
3.685879999999912
 30
0.0
 70
    32
  0
VERTEX
  5
1888
330
1824
100
AcDbEntity
  8
241
  6
Continuous
100
AcDbVertex
100
AcDb3dPolylineVertex
 10
161.6249999999998
 20
3.676319999999916
 30
0.0
 70
    32
  0
VERTEX
  5
1889
330
1824
100
AcDbEntity
  8
241
  6
Continuous
100
AcDbVertex
100
AcDb3dPolylineVertex
 10
161.6259999999999
 20
3.666749999999921
 30
0.0
 70
    32
  0
VERTEX
  5
188A
330
1824
100
AcDbEntity
  8
241
  6
Continuous
100
AcDbVertex
100
AcDb3dPolylineVertex
 10
161.6279999999998
 20
3.657199999999903
 30
0.0
 70
    32
  0
VERTEX
  5
188B
330
1824
100
AcDbEntity
  8
241
  6
Continuous
100
AcDbVertex
100
AcDb3dPolylineVertex
 10
161.6299999999999
 20
3.647639999999908
 30
0.0
 70
    32
  0
VERTEX
  5
188C
330
1824
100
AcDbEntity
  8
241
  6
Continuous
100
AcDbVertex
100
AcDb3dPolylineVertex
 10
161.6309999999999
 20
3.638079999999916
 30
0.0
 70
    32
  0
VERTEX
  5
188D
330
1824
100
AcDbEntity
  8
241
  6
Continuous
100
AcDbVertex
100
AcDb3dPolylineVertex
 10
161.6329999999998
 20
3.628529999999923
 30
0.0
 70
    32
  0
VERTEX
  5
188E
330
1824
100
AcDbEntity
  8
241
  6
Continuous
100
AcDbVertex
100
AcDb3dPolylineVertex
 10
161.6349999999998
 20
3.618979999999908
 30
0.0
 70
    32
  0
VERTEX
  5
188F
330
1824
100
AcDbEntity
  8
241
  6
Continuous
100
AcDbVertex
100
AcDb3dPolylineVertex
 10
161.6359999999999
 20
3.609439999999921
 30
0.0
 70
    32
  0
VERTEX
  5
1890
330
1824
100
AcDbEntity
  8
241
  6
Continuous
100
AcDbVertex
100
AcDb3dPolylineVertex
 10
161.6379999999999
 20
3.599889999999901
 30
0.0
 70
    32
  0
VERTEX
  5
1891
330
1824
100
AcDbEntity
  8
241
  6
Continuous
100
AcDbVertex
100
AcDb3dPolylineVertex
 10
161.6399999999998
 20
3.590349999999912
 30
0.0
 70
    32
  0
VERTEX
  5
1892
330
1824
100
AcDbEntity
  8
241
  6
Continuous
100
AcDbVertex
100
AcDb3dPolylineVertex
 10
161.6409999999998
 20
3.580809999999928
 30
0.0
 70
    32
  0
VERTEX
  5
1893
330
1824
100
AcDbEntity
  8
241
  6
Continuous
100
AcDbVertex
100
AcDb3dPolylineVertex
 10
161.6429999999999
 20
3.571269999999913
 30
0.0
 70
    32
  0
VERTEX
  5
1894
330
1824
100
AcDbEntity
  8
241
  6
Continuous
100
AcDbVertex
100
AcDb3dPolylineVertex
 10
161.6449999999999
 20
3.561729999999926
 30
0.0
 70
    32
  0
VERTEX
  5
1895
330
1824
100
AcDbEntity
  8
241
  6
Continuous
100
AcDbVertex
100
AcDb3dPolylineVertex
 10
161.6459999999999
 20
3.552199999999912
 30
0.0
 70
    32
  0
VERTEX
  5
1896
330
1824
100
AcDbEntity
  8
241
  6
Continuous
100
AcDbVertex
100
AcDb3dPolylineVertex
 10
161.6479999999998
 20
3.542669999999901
 30
0.0
 70
    32
  0
VERTEX
  5
1897
330
1824
100
AcDbEntity
  8
241
  6
Continuous
100
AcDbVertex
100
AcDb3dPolylineVertex
 10
161.6499999999999
 20
3.533139999999917
 30
0.0
 70
    32
  0
VERTEX
  5
1898
330
1824
100
AcDbEntity
  8
241
  6
Continuous
100
AcDbVertex
100
AcDb3dPolylineVertex
 10
161.6509999999999
 20
3.523609999999904
 30
0.0
 70
    32
  0
VERTEX
  5
1899
330
1824
100
AcDbEntity
  8
241
  6
Continuous
100
AcDbVertex
100
AcDb3dPolylineVertex
 10
161.6529999999999
 20
3.514089999999923
 30
0.0
 70
    32
  0
VERTEX
  5
189A
330
1824
100
AcDbEntity
  8
241
  6
Continuous
100
AcDbVertex
100
AcDb3dPolylineVertex
 10
161.6549999999999
 20
3.504569999999913
 30
0.0
 70
    32
  0
VERTEX
  5
189B
330
1824
100
AcDbEntity
  8
241
  6
Continuous
100
AcDbVertex
100
AcDb3dPolylineVertex
 10
161.6569999999999
 20
3.495049999999906
 30
0.0
 70
    32
  0
VERTEX
  5
189C
330
1824
100
AcDbEntity
  8
241
  6
Continuous
100
AcDbVertex
100
AcDb3dPolylineVertex
 10
161.6589999999998
 20
3.485529999999926
 30
0.0
 70
    32
  0
VERTEX
  5
189D
330
1824
100
AcDbEntity
  8
241
  6
Continuous
100
AcDbVertex
100
AcDb3dPolylineVertex
 10
161.6599999999999
 20
3.47601999999992
 30
0.0
 70
    32
  0
VERTEX
  5
189E
330
1824
100
AcDbEntity
  8
241
  6
Continuous
100
AcDbVertex
100
AcDb3dPolylineVertex
 10
161.6619999999999
 20
3.466509999999912
 30
0.0
 70
    32
  0
VERTEX
  5
189F
330
1824
100
AcDbEntity
  8
241
  6
Continuous
100
AcDbVertex
100
AcDb3dPolylineVertex
 10
161.6639999999998
 20
3.456999999999908
 30
0.0
 70
    32
  0
VERTEX
  5
18A0
330
1824
100
AcDbEntity
  8
241
  6
Continuous
100
AcDbVertex
100
AcDb3dPolylineVertex
 10
161.6659999999998
 20
3.447489999999901
 30
0.0
 70
    32
  0
VERTEX
  5
18A1
330
1824
100
AcDbEntity
  8
241
  6
Continuous
100
AcDbVertex
100
AcDb3dPolylineVertex
 10
161.6679999999999
 20
3.437989999999928
 30
0.0
 70
    32
  0
VERTEX
  5
18A2
330
1824
100
AcDbEntity
  8
241
  6
Continuous
100
AcDbVertex
100
AcDb3dPolylineVertex
 10
161.6689999999999
 20
3.428489999999923
 30
0.0
 70
    32
  0
VERTEX
  5
18A3
330
1824
100
AcDbEntity
  8
241
  6
Continuous
100
AcDbVertex
100
AcDb3dPolylineVertex
 10
161.6709999999998
 20
3.418989999999921
 30
0.0
 70
    32
  0
VERTEX
  5
18A4
330
1824
100
AcDbEntity
  8
241
  6
Continuous
100
AcDbVertex
100
AcDb3dPolylineVertex
 10
161.6729999999999
 20
3.409489999999919
 30
0.0
 70
    32
  0
VERTEX
  5
18A5
330
1824
100
AcDbEntity
  8
241
  6
Continuous
100
AcDbVertex
100
AcDb3dPolylineVertex
 10
161.6749999999999
 20
3.399999999999919
 30
0.0
 70
    32
  0
SEQEND
  5
18A6
330
1824
100
AcDbEntity
  8
241
  6
Continuous
  0
POLYLINE
  5
18A7
330
1A
100
AcDbEntity
  8
241
  6
Continuous
100
AcDb3dPolyline
 66
     1
 10
0.0
 20
0.0
 30
0.0
 70
     8
  0
VERTEX
  5
18A8
330
18A7
100
AcDbEntity
  8
241
  6
Continuous
100
AcDbVertex
100
AcDb3dPolylineVertex
 10
173.3799999999999
 20
-0.2105310000000884
 30
0.0
 70
    32
  0
VERTEX
  5
18A9
330
18A7
100
AcDbEntity
  8
241
  6
Continuous
100
AcDbVertex
100
AcDb3dPolylineVertex
 10
173.4479999999998
 20
-0.1358680000000731
 30
0.0
 70
    32
  0
VERTEX
  5
18AA
330
18A7
100
AcDbEntity
  8
241
  6
Continuous
100
AcDbVertex
100
AcDb3dPolylineVertex
 10
173.5139999999999
 20
-0.0601872000000867
 30
0.0
 70
    32
  0
VERTEX
  5
18AB
330
18A7
100
AcDbEntity
  8
241
  6
Continuous
100
AcDbVertex
100
AcDb3dPolylineVertex
 10
173.5789999999999
 20
0.0164881999999125
 30
0.0
 70
    32
  0
VERTEX
  5
18AC
330
18A7
100
AcDbEntity
  8
241
  6
Continuous
100
AcDbVertex
100
AcDb3dPolylineVertex
 10
173.6419999999999
 20
0.0941344999999103
 30
0.0
 70
    32
  0
VERTEX
  5
18AD
330
18A7
100
AcDbEntity
  8
241
  6
Continuous
100
AcDbVertex
100
AcDb3dPolylineVertex
 10
173.7039999999999
 20
0.1727279999999212
 30
0.0
 70
    32
  0
VERTEX
  5
18AE
330
18A7
100
AcDbEntity
  8
241
  6
Continuous
100
AcDbVertex
100
AcDb3dPolylineVertex
 10
173.7629999999999
 20
0.2522439999999051
 30
0.0
 70
    32
  0
VERTEX
  5
18AF
330
18A7
100
AcDbEntity
  8
241
  6
Continuous
100
AcDbVertex
100
AcDb3dPolylineVertex
 10
173.8219999999999
 20
0.332657999999924
 30
0.0
 70
    32
  0
VERTEX
  5
18B0
330
18A7
100
AcDbEntity
  8
241
  6
Continuous
100
AcDbVertex
100
AcDb3dPolylineVertex
 10
173.8779999999999
 20
0.4139459999999249
 30
0.0
 70
    32
  0
VERTEX
  5
18B1
330
18A7
100
AcDbEntity
  8
241
  6
Continuous
100
AcDbVertex
100
AcDb3dPolylineVertex
 10
173.9329999999998
 20
0.4960819999999161
 30
0.0
 70
    32
  0
VERTEX
  5
18B2
330
18A7
100
AcDbEntity
  8
241
  6
Continuous
100
AcDbVertex
100
AcDb3dPolylineVertex
 10
173.9869999999998
 20
0.5790419999999302
 30
0.0
 70
    32
  0
VERTEX
  5
18B3
330
18A7
100
AcDbEntity
  8
241
  6
Continuous
100
AcDbVertex
100
AcDb3dPolylineVertex
 10
174.0379999999998
 20
0.6627989999999217
 30
0.0
 70
    32
  0
VERTEX
  5
18B4
330
18A7
100
AcDbEntity
  8
241
  6
Continuous
100
AcDbVertex
100
AcDb3dPolylineVertex
 10
174.0879999999998
 20
0.7473279999999251
 30
0.0
 70
    32
  0
VERTEX
  5
18B5
330
18A7
100
AcDbEntity
  8
241
  6
Continuous
100
AcDbVertex
100
AcDb3dPolylineVertex
 10
174.1369999999999
 20
0.8326029999999207
 30
0.0
 70
    32
  0
VERTEX
  5
18B6
330
18A7
100
AcDbEntity
  8
241
  6
Continuous
100
AcDbVertex
100
AcDb3dPolylineVertex
 10
174.1829999999999
 20
0.9185979999999176
 30
0.0
 70
    32
  0
VERTEX
  5
18B7
330
18A7
100
AcDbEntity
  8
241
  6
Continuous
100
AcDbVertex
100
AcDb3dPolylineVertex
 10
174.2279999999998
 20
1.005289999999914
 30
0.0
 70
    32
  0
VERTEX
  5
18B8
330
18A7
100
AcDbEntity
  8
241
  6
Continuous
100
AcDbVertex
100
AcDb3dPolylineVertex
 10
174.2709999999998
 20
1.092639999999903
 30
0.0
 70
    32
  0
VERTEX
  5
18B9
330
18A7
100
AcDbEntity
  8
241
  6
Continuous
100
AcDbVertex
100
AcDb3dPolylineVertex
 10
174.3119999999999
 20
1.180629999999922
 30
0.0
 70
    32
  0
VERTEX
  5
18BA
330
18A7
100
AcDbEntity
  8
241
  6
Continuous
100
AcDbVertex
100
AcDb3dPolylineVertex
 10
174.3519999999999
 20
1.269239999999909
 30
0.0
 70
    32
  0
VERTEX
  5
18BB
330
18A7
100
AcDbEntity
  8
241
  6
Continuous
100
AcDbVertex
100
AcDb3dPolylineVertex
 10
174.3889999999999
 20
1.358429999999912
 30
0.0
 70
    32
  0
VERTEX
  5
18BC
330
18A7
100
AcDbEntity
  8
241
  6
Continuous
100
AcDbVertex
100
AcDb3dPolylineVertex
 10
174.4249999999999
 20
1.448179999999919
 30
0.0
 70
    32
  0
VERTEX
  5
18BD
330
18A7
100
AcDbEntity
  8
241
  6
Continuous
100
AcDbVertex
100
AcDb3dPolylineVertex
 10
174.4589999999999
 20
1.538459999999899
 30
0.0
 70
    32
  0
VERTEX
  5
18BE
330
18A7
100
AcDbEntity
  8
241
  6
Continuous
100
AcDbVertex
100
AcDb3dPolylineVertex
 10
174.4909999999998
 20
1.629249999999926
 30
0.0
 70
    32
  0
VERTEX
  5
18BF
330
18A7
100
AcDbEntity
  8
241
  6
Continuous
100
AcDbVertex
100
AcDb3dPolylineVertex
 10
174.5209999999998
 20
1.720499999999899
 30
0.0
 70
    32
  0
VERTEX
  5
18C0
330
18A7
100
AcDbEntity
  8
241
  6
Continuous
100
AcDbVertex
100
AcDb3dPolylineVertex
 10
174.5499999999999
 20
1.812209999999907
 30
0.0
 70
    32
  0
VERTEX
  5
18C1
330
18A7
100
AcDbEntity
  8
241
  6
Continuous
100
AcDbVertex
100
AcDb3dPolylineVertex
 10
174.5759999999998
 20
1.9043299999999
 30
0.0
 70
    32
  0
VERTEX
  5
18C2
330
18A7
100
AcDbEntity
  8
241
  6
Continuous
100
AcDbVertex
100
AcDb3dPolylineVertex
 10
174.6009999999999
 20
1.996839999999906
 30
0.0
 70
    32
  0
VERTEX
  5
18C3
330
18A7
100
AcDbEntity
  8
241
  6
Continuous
100
AcDbVertex
100
AcDb3dPolylineVertex
 10
174.6239999999999
 20
2.08970999999991
 30
0.0
 70
    32
  0
VERTEX
  5
18C4
330
18A7
100
AcDbEntity
  8
241
  6
Continuous
100
AcDbVertex
100
AcDb3dPolylineVertex
 10
174.6449999999999
 20
2.18291999999991
 30
0.0
 70
    32
  0
VERTEX
  5
18C5
330
18A7
100
AcDbEntity
  8
241
  6
Continuous
100
AcDbVertex
100
AcDb3dPolylineVertex
 10
174.6639999999999
 20
2.276429999999919
 30
0.0
 70
    32
  0
VERTEX
  5
18C6
330
18A7
100
AcDbEntity
  8
241
  6
Continuous
100
AcDbVertex
100
AcDb3dPolylineVertex
 10
174.6809999999998
 20
2.370209999999929
 30
0.0
 70
    32
  0
VERTEX
  5
18C7
330
18A7
100
AcDbEntity
  8
241
  6
Continuous
100
AcDbVertex
100
AcDb3dPolylineVertex
 10
174.6969999999999
 20
2.464239999999904
 30
0.0
 70
    32
  0
VERTEX
  5
18C8
330
18A7
100
AcDbEntity
  8
241
  6
Continuous
100
AcDbVertex
100
AcDb3dPolylineVertex
 10
174.7099999999999
 20
2.558489999999919
 30
0.0
 70
    32
  0
VERTEX
  5
18C9
330
18A7
100
AcDbEntity
  8
241
  6
Continuous
100
AcDbVertex
100
AcDb3dPolylineVertex
 10
174.7209999999998
 20
2.652929999999912
 30
0.0
 70
    32
  0
VERTEX
  5
18CA
330
18A7
100
AcDbEntity
  8
241
  6
Continuous
100
AcDbVertex
100
AcDb3dPolylineVertex
 10
174.7309999999998
 20
2.747519999999922
 30
0.0
 70
    32
  0
VERTEX
  5
18CB
330
18A7
100
AcDbEntity
  8
241
  6
Continuous
100
AcDbVertex
100
AcDb3dPolylineVertex
 10
174.7379999999998
 20
2.842249999999921
 30
0.0
 70
    32
  0
VERTEX
  5
18CC
330
18A7
100
AcDbEntity
  8
241
  6
Continuous
100
AcDbVertex
100
AcDb3dPolylineVertex
 10
174.7439999999999
 20
2.937079999999923
 30
0.0
 70
    32
  0
VERTEX
  5
18CD
330
18A7
100
AcDbEntity
  8
241
  6
Continuous
100
AcDbVertex
100
AcDb3dPolylineVertex
 10
174.7479999999998
 20
3.031979999999919
 30
0.0
 70
    32
  0
VERTEX
  5
18CE
330
18A7
100
AcDbEntity
  8
241
  6
Continuous
100
AcDbVertex
100
AcDb3dPolylineVertex
 10
174.7499999999999
 20
3.126919999999925
 30
0.0
 70
    32
  0
VERTEX
  5
18CF
330
18A7
100
AcDbEntity
  8
241
  6
Continuous
100
AcDbVertex
100
AcDb3dPolylineVertex
 10
174.7499999999999
 20
3.221879999999913
 30
0.0
 70
    32
  0
VERTEX
  5
18D0
330
18A7
100
AcDbEntity
  8
241
  6
Continuous
100
AcDbVertex
100
AcDb3dPolylineVertex
 10
174.7479999999998
 20
3.316819999999921
 30
0.0
 70
    32
  0
VERTEX
  5
18D1
330
18A7
100
AcDbEntity
  8
241
  6
Continuous
100
AcDbVertex
100
AcDb3dPolylineVertex
 10
174.7439999999999
 20
3.411719999999917
 30
0.0
 70
    32
  0
VERTEX
  5
18D2
330
18A7
100
AcDbEntity
  8
241
  6
Continuous
100
AcDbVertex
100
AcDb3dPolylineVertex
 10
174.7379999999998
 20
3.506539999999913
 30
0.0
 70
    32
  0
VERTEX
  5
18D3
330
18A7
100
AcDbEntity
  8
241
  6
Continuous
100
AcDbVertex
100
AcDb3dPolylineVertex
 10
174.7299999999998
 20
3.601259999999911
 30
0.0
 70
    32
  0
VERTEX
  5
18D4
330
18A7
100
AcDbEntity
  8
241
  6
Continuous
100
AcDbVertex
100
AcDb3dPolylineVertex
 10
174.7209999999998
 20
3.695839999999916
 30
0.0
 70
    32
  0
VERTEX
  5
18D5
330
18A7
100
AcDbEntity
  8
241
  6
Continuous
100
AcDbVertex
100
AcDb3dPolylineVertex
 10
174.7089999999999
 20
3.790269999999907
 30
0.0
 70
    32
  0
VERTEX
  5
18D6
330
18A7
100
AcDbEntity
  8
241
  6
Continuous
100
AcDbVertex
100
AcDb3dPolylineVertex
 10
174.6949999999999
 20
3.884499999999917
 30
0.0
 70
    32
  0
VERTEX
  5
18D7
330
18A7
100
AcDbEntity
  8
241
  6
Continuous
100
AcDbVertex
100
AcDb3dPolylineVertex
 10
174.6799999999999
 20
3.978509999999912
 30
0.0
 70
    32
  0
VERTEX
  5
18D8
330
18A7
100
AcDbEntity
  8
241
  6
Continuous
100
AcDbVertex
100
AcDb3dPolylineVertex
 10
174.6629999999998
 20
4.072279999999921
 30
0.0
 70
    32
  0
VERTEX
  5
18D9
330
18A7
100
AcDbEntity
  8
241
  6
Continuous
100
AcDbVertex
100
AcDb3dPolylineVertex
 10
174.6439999999998
 20
4.165769999999922
 30
0.0
 70
    32
  0
VERTEX
  5
18DA
330
18A7
100
AcDbEntity
  8
241
  6
Continuous
100
AcDbVertex
100
AcDb3dPolylineVertex
 10
174.6219999999999
 20
4.258949999999913
 30
0.0
 70
    32
  0
VERTEX
  5
18DB
330
18A7
100
AcDbEntity
  8
241
  6
Continuous
100
AcDbVertex
100
AcDb3dPolylineVertex
 10
174.5989999999999
 20
4.351799999999911
 30
0.0
 70
    32
  0
VERTEX
  5
18DC
330
18A7
100
AcDbEntity
  8
241
  6
Continuous
100
AcDbVertex
100
AcDb3dPolylineVertex
 10
174.5749999999998
 20
4.444279999999906
 30
0.0
 70
    32
  0
VERTEX
  5
18DD
330
18A7
100
AcDbEntity
  8
241
  6
Continuous
100
AcDbVertex
100
AcDb3dPolylineVertex
 10
174.5479999999999
 20
4.536369999999918
 30
0.0
 70
    32
  0
VERTEX
  5
18DE
330
18A7
100
AcDbEntity
  8
241
  6
Continuous
100
AcDbVertex
100
AcDb3dPolylineVertex
 10
174.5189999999999
 20
4.628039999999913
 30
0.0
 70
    32
  0
VERTEX
  5
18DF
330
18A7
100
AcDbEntity
  8
241
  6
Continuous
100
AcDbVertex
100
AcDb3dPolylineVertex
 10
174.4889999999999
 20
4.719269999999909
 30
0.0
 70
    32
  0
VERTEX
  5
18E0
330
18A7
100
AcDbEntity
  8
241
  6
Continuous
100
AcDbVertex
100
AcDb3dPolylineVertex
 10
174.4569999999998
 20
4.81000999999992
 30
0.0
 70
    32
  0
VERTEX
  5
18E1
330
18A7
100
AcDbEntity
  8
241
  6
Continuous
100
AcDbVertex
100
AcDb3dPolylineVertex
 10
174.4219999999999
 20
4.900259999999915
 30
0.0
 70
    32
  0
VERTEX
  5
18E2
330
18A7
100
AcDbEntity
  8
241
  6
Continuous
100
AcDbVertex
100
AcDb3dPolylineVertex
 10
174.3859999999998
 20
4.989969999999914
 30
0.0
 70
    32
  0
VERTEX
  5
18E3
330
18A7
100
AcDbEntity
  8
241
  6
Continuous
100
AcDbVertex
100
AcDb3dPolylineVertex
 10
174.3489999999999
 20
5.079119999999903
 30
0.0
 70
    32
  0
VERTEX
  5
18E4
330
18A7
100
AcDbEntity
  8
241
  6
Continuous
100
AcDbVertex
100
AcDb3dPolylineVertex
 10
174.3089999999999
 20
5.167679999999903
 30
0.0
 70
    32
  0
VERTEX
  5
18E5
330
18A7
100
AcDbEntity
  8
241
  6
Continuous
100
AcDbVertex
100
AcDb3dPolylineVertex
 10
174.2679999999999
 20
5.255629999999911
 30
0.0
 70
    32
  0
VERTEX
  5
18E6
330
18A7
100
AcDbEntity
  8
241
  6
Continuous
100
AcDbVertex
100
AcDb3dPolylineVertex
 10
174.2249999999999
 20
5.34292999999991
 30
0.0
 70
    32
  0
VERTEX
  5
18E7
330
18A7
100
AcDbEntity
  8
241
  6
Continuous
100
AcDbVertex
100
AcDb3dPolylineVertex
 10
174.1799999999999
 20
5.429569999999927
 30
0.0
 70
    32
  0
VERTEX
  5
18E8
330
18A7
100
AcDbEntity
  8
241
  6
Continuous
100
AcDbVertex
100
AcDb3dPolylineVertex
 10
174.1329999999998
 20
5.515509999999919
 30
0.0
 70
    32
  0
VERTEX
  5
18E9
330
18A7
100
AcDbEntity
  8
241
  6
Continuous
100
AcDbVertex
100
AcDb3dPolylineVertex
 10
174.0849999999999
 20
5.600739999999916
 30
0.0
 70
    32
  0
VERTEX
  5
18EA
330
18A7
100
AcDbEntity
  8
241
  6
Continuous
100
AcDbVertex
100
AcDb3dPolylineVertex
 10
174.0349999999999
 20
5.685209999999925
 30
0.0
 70
    32
  0
VERTEX
  5
18EB
330
18A7
100
AcDbEntity
  8
241
  6
Continuous
100
AcDbVertex
100
AcDb3dPolylineVertex
 10
173.9829999999998
 20
5.76890999999992
 30
0.0
 70
    32
  0
VERTEX
  5
18EC
330
18A7
100
AcDbEntity
  8
241
  6
Continuous
100
AcDbVertex
100
AcDb3dPolylineVertex
 10
173.9299999999999
 20
5.851809999999915
 30
0.0
 70
    32
  0
VERTEX
  5
18ED
330
18A7
100
AcDbEntity
  8
241
  6
Continuous
100
AcDbVertex
100
AcDb3dPolylineVertex
 10
173.8739999999999
 20
5.933879999999902
 30
0.0
 70
    32
  0
VERTEX
  5
18EE
330
18A7
100
AcDbEntity
  8
241
  6
Continuous
100
AcDbVertex
100
AcDb3dPolylineVertex
 10
173.8179999999998
 20
6.015109999999905
 30
0.0
 70
    32
  0
VERTEX
  5
18EF
330
18A7
100
AcDbEntity
  8
241
  6
Continuous
100
AcDbVertex
100
AcDb3dPolylineVertex
 10
173.7589999999999
 20
6.095459999999917
 30
0.0
 70
    32
  0
VERTEX
  5
18F0
330
18A7
100
AcDbEntity
  8
241
  6
Continuous
100
AcDbVertex
100
AcDb3dPolylineVertex
 10
173.6989999999999
 20
6.174909999999925
 30
0.0
 70
    32
  0
VERTEX
  5
18F1
330
18A7
100
AcDbEntity
  8
241
  6
Continuous
100
AcDbVertex
100
AcDb3dPolylineVertex
 10
173.6369999999998
 20
6.253429999999922
 30
0.0
 70
    32
  0
VERTEX
  5
18F2
330
18A7
100
AcDbEntity
  8
241
  6
Continuous
100
AcDbVertex
100
AcDb3dPolylineVertex
 10
173.5739999999999
 20
6.331009999999905
 30
0.0
 70
    32
  0
VERTEX
  5
18F3
330
18A7
100
AcDbEntity
  8
241
  6
Continuous
100
AcDbVertex
100
AcDb3dPolylineVertex
 10
173.5089999999999
 20
6.40760999999992
 30
0.0
 70
    32
  0
VERTEX
  5
18F4
330
18A7
100
AcDbEntity
  8
241
  6
Continuous
100
AcDbVertex
100
AcDb3dPolylineVertex
 10
173.4429999999998
 20
6.483219999999902
 30
0.0
 70
    32
  0
VERTEX
  5
18F5
330
18A7
100
AcDbEntity
  8
241
  6
Continuous
100
AcDbVertex
100
AcDb3dPolylineVertex
 10
173.3749999999999
 20
6.557809999999902
 30
0.0
 70
    32
  0
VERTEX
  5
18F6
330
18A7
100
AcDbEntity
  8
241
  6
Continuous
100
AcDbVertex
100
AcDb3dPolylineVertex
 10
173.3059999999998
 20
6.63134999999991
 30
0.0
 70
    32
  0
VERTEX
  5
18F7
330
18A7
100
AcDbEntity
  8
241
  6
Continuous
100
AcDbVertex
100
AcDb3dPolylineVertex
 10
173.2349999999999
 20
6.703829999999922
 30
0.0
 70
    32
  0
VERTEX
  5
18F8
330
18A7
100
AcDbEntity
  8
241
  6
Continuous
100
AcDbVertex
100
AcDb3dPolylineVertex
 10
173.1629999999998
 20
6.775229999999907
 30
0.0
 70
    32
  0
VERTEX
  5
18F9
330
18A7
100
AcDbEntity
  8
241
  6
Continuous
100
AcDbVertex
100
AcDb3dPolylineVertex
 10
173.0889999999999
 20
6.845509999999902
 30
0.0
 70
    32
  0
VERTEX
  5
18FA
330
18A7
100
AcDbEntity
  8
241
  6
Continuous
100
AcDbVertex
100
AcDb3dPolylineVertex
 10
173.0139999999999
 20
6.91465999999991
 30
0.0
 70
    32
  0
VERTEX
  5
18FB
330
18A7
100
AcDbEntity
  8
241
  6
Continuous
100
AcDbVertex
100
AcDb3dPolylineVertex
 10
172.9369999999999
 20
6.982659999999922
 30
0.0
 70
    32
  0
VERTEX
  5
18FC
330
18A7
100
AcDbEntity
  8
241
  6
Continuous
100
AcDbVertex
100
AcDb3dPolylineVertex
 10
172.8589999999999
 20
7.049489999999905
 30
0.0
 70
    32
  0
VERTEX
  5
18FD
330
18A7
100
AcDbEntity
  8
241
  6
Continuous
100
AcDbVertex
100
AcDb3dPolylineVertex
 10
172.7799999999999
 20
7.115119999999905
 30
0.0
 70
    32
  0
VERTEX
  5
18FE
330
18A7
100
AcDbEntity
  8
241
  6
Continuous
100
AcDbVertex
100
AcDb3dPolylineVertex
 10
172.6999999999998
 20
7.179539999999917
 30
0.0
 70
    32
  0
VERTEX
  5
18FF
330
18A7
100
AcDbEntity
  8
241
  6
Continuous
100
AcDbVertex
100
AcDb3dPolylineVertex
 10
172.6179999999999
 20
7.242729999999909
 30
0.0
 70
    32
  0
VERTEX
  5
1900
330
18A7
100
AcDbEntity
  8
241
  6
Continuous
100
AcDbVertex
100
AcDb3dPolylineVertex
 10
172.5349999999998
 20
7.304659999999927
 30
0.0
 70
    32
  0
VERTEX
  5
1901
330
18A7
100
AcDbEntity
  8
241
  6
Continuous
100
AcDbVertex
100
AcDb3dPolylineVertex
 10
172.4499999999998
 20
7.36531999999991
 30
0.0
 70
    32
  0
VERTEX
  5
1902
330
18A7
100
AcDbEntity
  8
241
  6
Continuous
100
AcDbVertex
100
AcDb3dPolylineVertex
 10
172.3649999999999
 20
7.424689999999912
 30
0.0
 70
    32
  0
VERTEX
  5
1903
330
18A7
100
AcDbEntity
  8
241
  6
Continuous
100
AcDbVertex
100
AcDb3dPolylineVertex
 10
172.2779999999999
 20
7.482759999999927
 30
0.0
 70
    32
  0
VERTEX
  5
1904
330
18A7
100
AcDbEntity
  8
241
  6
Continuous
100
AcDbVertex
100
AcDb3dPolylineVertex
 10
172.1899999999998
 20
7.539489999999915
 30
0.0
 70
    32
  0
VERTEX
  5
1905
330
18A7
100
AcDbEntity
  8
241
  6
Continuous
100
AcDbVertex
100
AcDb3dPolylineVertex
 10
172.1009999999998
 20
7.594879999999902
 30
0.0
 70
    32
  0
VERTEX
  5
1906
330
18A7
100
AcDbEntity
  8
241
  6
Continuous
100
AcDbVertex
100
AcDb3dPolylineVertex
 10
172.0109999999999
 20
7.648909999999915
 30
0.0
 70
    32
  0
VERTEX
  5
1907
330
18A7
100
AcDbEntity
  8
241
  6
Continuous
100
AcDbVertex
100
AcDb3dPolylineVertex
 10
171.9199999999998
 20
7.701549999999912
 30
0.0
 70
    32
  0
VERTEX
  5
1908
330
18A7
100
AcDbEntity
  8
241
  6
Continuous
100
AcDbVertex
100
AcDb3dPolylineVertex
 10
171.8269999999998
 20
7.752809999999922
 30
0.0
 70
    32
  0
VERTEX
  5
1909
330
18A7
100
AcDbEntity
  8
241
  6
Continuous
100
AcDbVertex
100
AcDb3dPolylineVertex
 10
171.7339999999999
 20
7.802649999999914
 30
0.0
 70
    32
  0
VERTEX
  5
190A
330
18A7
100
AcDbEntity
  8
241
  6
Continuous
100
AcDbVertex
100
AcDb3dPolylineVertex
 10
171.6399999999998
 20
7.851069999999905
 30
0.0
 70
    32
  0
VERTEX
  5
190B
330
18A7
100
AcDbEntity
  8
241
  6
Continuous
100
AcDbVertex
100
AcDb3dPolylineVertex
 10
171.5439999999999
 20
7.898049999999924
 30
0.0
 70
    32
  0
VERTEX
  5
190C
330
18A7
100
AcDbEntity
  8
241
  6
Continuous
100
AcDbVertex
100
AcDb3dPolylineVertex
 10
171.4479999999998
 20
7.94357999999991
 30
0.0
 70
    32
  0
VERTEX
  5
190D
330
18A7
100
AcDbEntity
  8
241
  6
Continuous
100
AcDbVertex
100
AcDb3dPolylineVertex
 10
171.3509999999999
 20
7.98762999999991
 30
0.0
 70
    32
  0
VERTEX
  5
190E
330
18A7
100
AcDbEntity
  8
241
  6
Continuous
100
AcDbVertex
100
AcDb3dPolylineVertex
 10
171.2529999999998
 20
8.030199999999922
 30
0.0
 70
    32
  0
VERTEX
  5
190F
330
18A7
100
AcDbEntity
  8
241
  6
Continuous
100
AcDbVertex
100
AcDb3dPolylineVertex
 10
171.1539999999999
 20
8.071279999999916
 30
0.0
 70
    32
  0
VERTEX
  5
1910
330
18A7
100
AcDbEntity
  8
241
  6
Continuous
100
AcDbVertex
100
AcDb3dPolylineVertex
 10
171.0539999999998
 20
8.110849999999912
 30
0.0
 70
    32
  0
VERTEX
  5
1911
330
18A7
100
AcDbEntity
  8
241
  6
Continuous
100
AcDbVertex
100
AcDb3dPolylineVertex
 10
170.9539999999999
 20
8.148899999999912
 30
0.0
 70
    32
  0
VERTEX
  5
1912
330
18A7
100
AcDbEntity
  8
241
  6
Continuous
100
AcDbVertex
100
AcDb3dPolylineVertex
 10
170.8529999999998
 20
8.185409999999905
 30
0.0
 70
    32
  0
VERTEX
  5
1913
330
18A7
100
AcDbEntity
  8
241
  6
Continuous
100
AcDbVertex
100
AcDb3dPolylineVertex
 10
170.7509999999998
 20
8.220389999999921
 30
0.0
 70
    32
  0
VERTEX
  5
1914
330
18A7
100
AcDbEntity
  8
241
  6
Continuous
100
AcDbVertex
100
AcDb3dPolylineVertex
 10
170.6479999999998
 20
8.25380999999993
 30
0.0
 70
    32
  0
VERTEX
  5
1915
330
18A7
100
AcDbEntity
  8
241
  6
Continuous
100
AcDbVertex
100
AcDb3dPolylineVertex
 10
170.5449999999998
 20
8.285659999999921
 30
0.0
 70
    32
  0
VERTEX
  5
1916
330
18A7
100
AcDbEntity
  8
241
  6
Continuous
100
AcDbVertex
100
AcDb3dPolylineVertex
 10
170.4409999999998
 20
8.315939999999926
 30
0.0
 70
    32
  0
VERTEX
  5
1917
330
18A7
100
AcDbEntity
  8
241
  6
Continuous
100
AcDbVertex
100
AcDb3dPolylineVertex
 10
170.3359999999998
 20
8.344639999999911
 30
0.0
 70
    32
  0
VERTEX
  5
1918
330
18A7
100
AcDbEntity
  8
241
  6
Continuous
100
AcDbVertex
100
AcDb3dPolylineVertex
 10
170.2309999999998
 20
8.371739999999901
 30
0.0
 70
    32
  0
VERTEX
  5
1919
330
18A7
100
AcDbEntity
  8
241
  6
Continuous
100
AcDbVertex
100
AcDb3dPolylineVertex
 10
170.1259999999998
 20
8.397249999999926
 30
0.0
 70
    32
  0
VERTEX
  5
191A
330
18A7
100
AcDbEntity
  8
241
  6
Continuous
100
AcDbVertex
100
AcDb3dPolylineVertex
 10
170.0199999999999
 20
8.421139999999923
 30
0.0
 70
    32
  0
VERTEX
  5
191B
330
18A7
100
AcDbEntity
  8
241
  6
Continuous
100
AcDbVertex
100
AcDb3dPolylineVertex
 10
169.9129999999998
 20
8.443419999999917
 30
0.0
 70
    32
  0
VERTEX
  5
191C
330
18A7
100
AcDbEntity
  8
241
  6
Continuous
100
AcDbVertex
100
AcDb3dPolylineVertex
 10
169.8059999999998
 20
8.46407999999991
 30
0.0
 70
    32
  0
VERTEX
  5
191D
330
18A7
100
AcDbEntity
  8
241
  6
Continuous
100
AcDbVertex
100
AcDb3dPolylineVertex
 10
169.6989999999999
 20
8.483109999999925
 30
0.0
 70
    32
  0
VERTEX
  5
191E
330
18A7
100
AcDbEntity
  8
241
  6
Continuous
100
AcDbVertex
100
AcDb3dPolylineVertex
 10
169.5909999999998
 20
8.500499999999931
 30
0.0
 70
    32
  0
VERTEX
  5
191F
330
18A7
100
AcDbEntity
  8
241
  6
Continuous
100
AcDbVertex
100
AcDb3dPolylineVertex
 10
169.4829999999999
 20
8.516249999999926
 30
0.0
 70
    32
  0
VERTEX
  5
1920
330
18A7
100
AcDbEntity
  8
241
  6
Continuous
100
AcDbVertex
100
AcDb3dPolylineVertex
 10
169.3739999999999
 20
8.530359999999916
 30
0.0
 70
    32
  0
VERTEX
  5
1921
330
18A7
100
AcDbEntity
  8
241
  6
Continuous
100
AcDbVertex
100
AcDb3dPolylineVertex
 10
169.2659999999999
 20
8.54281999999992
 30
0.0
 70
    32
  0
VERTEX
  5
1922
330
18A7
100
AcDbEntity
  8
241
  6
Continuous
100
AcDbVertex
100
AcDb3dPolylineVertex
 10
169.1569999999999
 20
8.553619999999909
 30
0.0
 70
    32
  0
VERTEX
  5
1923
330
18A7
100
AcDbEntity
  8
241
  6
Continuous
100
AcDbVertex
100
AcDb3dPolylineVertex
 10
169.0479999999998
 20
8.562769999999915
 30
0.0
 70
    32
  0
VERTEX
  5
1924
330
18A7
100
AcDbEntity
  8
241
  6
Continuous
100
AcDbVertex
100
AcDb3dPolylineVertex
 10
168.9379999999998
 20
8.570259999999905
 30
0.0
 70
    32
  0
VERTEX
  5
1925
330
18A7
100
AcDbEntity
  8
241
  6
Continuous
100
AcDbVertex
100
AcDb3dPolylineVertex
 10
168.8289999999999
 20
8.576089999999906
 30
0.0
 70
    32
  0
VERTEX
  5
1926
330
18A7
100
AcDbEntity
  8
241
  6
Continuous
100
AcDbVertex
100
AcDb3dPolylineVertex
 10
168.7189999999999
 20
8.580249999999921
 30
0.0
 70
    32
  0
VERTEX
  5
1927
330
18A7
100
AcDbEntity
  8
241
  6
Continuous
100
AcDbVertex
100
AcDb3dPolylineVertex
 10
168.6099999999999
 20
8.582749999999919
 30
0.0
 70
    32
  0
VERTEX
  5
1928
330
18A7
100
AcDbEntity
  8
241
  6
Continuous
100
AcDbVertex
100
AcDb3dPolylineVertex
 10
168.4999999999999
 20
8.583579999999926
 30
0.0
 70
    32
  0
SEQEND
  5
1929
330
18A7
100
AcDbEntity
  8
241
  6
Continuous
  0
ARC
  5
192A
330
1A
100
AcDbEntity
  8
240
  6
Continuous
100
AcDbCircle
 10
95.35715093999993
 20
-8.672286470000074
 30
0.0
 40
12.0
100
AcDbArc
 50
280.0000000000002
 51
314.9999999999999
  0
LINE
  5
192B
330
1A
100
AcDbEntity
  8
240
  6
Continuous
100
AcDbLine
 10
97.44092906999993
 20
-20.48997950000006
 30
0.0
 11
34.99999999065629
 21
-31.49999999999989
 31
0.0
  0
LINE
  5
192C
330
1A
100
AcDbEntity
  8
245
  6
CENTER2
100
AcDbLine
 10
181.9999999999999
 20
41.99999999999991
 30
0.0
 11
181.9999999999999
 21
-42.00000000000009
 31
0.0
  0
ARC
  5
192D
330
1A
100
AcDbEntity
  8
240
  6
Continuous
100
AcDbCircle
 10
190.4999999999999
 20
-0.0000000000000853
 30
0.0
 40
31.5
100
AcDbArc
 50
270.0
 51
0.0
  0
ARC
  5
192E
330
1A
100
AcDbEntity
  8
240
  6
Continuous
100
AcDbCircle
 10
206.7184141899998
 20
16.99999999999991
 30
0.0
 40
10.0
100
AcDbArc
 50
34.51810783999974
 51
90.00000000000005
  0
LINE
  5
192F
330
1A
100
AcDbEntity
  8
241
  6
Continuous
100
AcDbLine
 10
181.9999999999999
 20
6.999999999999912
 30
0.0
 11
182.0
 21
26.99999999999993
 31
0.0
  0
LINE
  5
1930
330
1A
100
AcDbEntity
  8
241
  6
Continuous
100
AcDbLine
 10
201.9999999999999
 20
6.999999999999912
 30
0.0
 11
201.9999999999999
 21
26.99999999999993
 31
0.0
  0
LINE
  5
1931
330
1A
100
AcDbEntity
  8
241
  6
Continuous
100
AcDbLine
 10
181.9999999999999
 20
6.999999999999912
 30
0.0
 11
201.9999999999999
 21
6.999999999999912
 31
0.0
  0
ARC
  5
1932
330
1A
100
AcDbEntity
  8
240
  6
Continuous
100
AcDbCircle
 10
181.9999999999999
 20
-0.0000000000000853
 30
0.0
 40
40.0
100
AcDbArc
 50
0.0
 51
34.51810783999974
  0
LINE
  5
1933
330
1A
100
AcDbEntity
  8
240
  6
Continuous
100
AcDbLine
 10
190.4999999999999
 20
-31.50000000000009
 30
0.0
 11
181.9999999999999
 21
-31.50000000000009
 31
0.0
  0
LINE
  5
1934
330
1A
100
AcDbEntity
  8
240
  6
Continuous
100
AcDbLine
 10
26.99999999999985
 20
26.99979999999991
 30
0.0
 11
26.99999999999984
 21
31.50000000000011
 31
0.0
  0
LINE
  5
1935
330
1A
100
AcDbEntity
  8
241
  6
Continuous
100
AcDbLine
 10
21.63449434733331
 20
31.50000000000071
 30
0.0
 11
21.63449434733331
 21
4.485536235553836
 31
0.0
  0
LINE
  5
1936
330
1A
100
AcDbEntity
  8
241
  6
Continuous
100
AcDbLine
 10
21.63449434733343
 20
-31.50000000000071
 30
0.0
 11
21.63449434733337
 21
-4.485536235553978
 31
0.0
  0
LINE
  5
1937
330
1A
100
AcDbEntity
  8
242
  6
PHANTOM2
100
AcDbLine
 10
106.0
 20
39.99999999999946
 30
0.0
 11
43.80000000000102
 21
39.99999999999936
 31
0.0
  0
LINE
  5
1938
330
1A
100
AcDbEntity
  8
242
  6
PHANTOM2
100
AcDbLine
 10
105.9999999999968
 20
-39.99999999999992
 30
0.0
 11
43.79999999999703
 21
-39.99999999999554
 31
0.0
  0
LINE
  5
1939
330
1A
100
AcDbEntity
  8
242
  6
PHANTOM2
100
AcDbLine
 10
43.80000000000102
 20
39.99999999999936
 30
0.0
 11
35.29289321881322
 21
31.49289321881153
 31
0.0
  0
LINE
  5
193A
330
1A
100
AcDbEntity
  8
242
  6
PHANTOM2
100
AcDbLine
 10
43.79999999999703
 20
-39.99999999999554
 30
0.0
 11
35.29289321881329
 21
-31.49289321881183
 31
0.0
  0
ARC
  5
193B
330
1A
100
AcDbEntity
  8
242
  6
PHANTOM2
100
AcDbCircle
 10
106.0
 20
35.99999999999946
 30
0.0
 40
4.0
100
AcDbArc
 50
0.0
 51
90.00000000000005
  0
ARC
  5
193C
330
1A
100
AcDbEntity
  8
242
  6
PHANTOM2
100
AcDbCircle
 10
105.9999999999972
 20
-35.99999999999992
 30
0.0
 40
4.0
100
AcDbArc
 50
270.0
 51
359.9999999999968
  0
LINE
  5
1943
330
1A
100
AcDbEntity
  8
250
  6
Continuous
100
AcDbLine
 10
-34.13687277507333
 20
-19.20165331710603
 30
0.0
 11
-32.70000000000008
 21
-17.45625000000007
 31
0.0
  0
LINE
  5
1944
330
1A
100
AcDbEntity
  8
250
  6
Continuous
100
AcDbLine
 10
-33.49312722492684
 20
-19.5733199837727
 30
0.0
 11
-32.70000000000008
 21
-17.45625000000007
 31
0.0
  0
LINE
  5
1945
330
1A
100
AcDbEntity
  8
250
  6
Continuous
100
AcDbLine
 10
-32.70000000000008
 20
-17.45625000000007
 30
0.0
 11
-33.81500000000007
 21
-19.38748665043937
 31
0.0
  0
LINE
  5
1946
330
1A
100
AcDbEntity
  8
250
  6
Continuous
100
AcDbLine
 10
-33.81500000000007
 20
-19.38748665043937
 30
0.0
 11
-38.36313006819125
 21
-27.26507900797827
 31
0.0
1001
ACAD
1000
DSTYLE
1002
{
1070
   140
1040
4.0
1070
   178
1070
   256
1002
}
  0
TEXT
  5
1947
330
1A
100
AcDbEntity
  8
250
  6
Continuous
100
AcDbText
 10
-53.82979673485789
 20
-26.2650790079783
 30
0.0
 40
2.799999999999998
  1
BBT40
  7
YOKO
100
AcDbText
1001
ITEMNAME
1000
LNSP3
  0
LINE
  5
1948
330
1A
100
AcDbEntity
  8
250
  6
Continuous
100
AcDbLine
 10
-38.36313006819125
 20
-27.26507900797827
 30
0.0
 11
-56.09646340152459
 21
-27.2650790079783
 31
0.0
1001
ITEMNAME
1000
LNSP2
  0
LINE
  5
1949
330
1A
100
AcDbEntity
  8
247
  6
Continuous
100
AcDbLine
 10
7.999999999999922
 20
-18.25000000006997
 30
0.0
 11
7.99999999999991
 21
-11.55769230802997
 31
0.0
  0
ARC
  5
194A
330
1A
100
AcDbEntity
  8
247
  6
Continuous
100
AcDbCircle
 10
6.250000000069841
 20
-18.25000000007
 30
0.0
 40
1.749999999929999
100
AcDbArc
 50
180.0
 51
0.0
  0
ARC
  5
194B
330
1A
100
AcDbEntity
  8
247
  6
Continuous
100
AcDbCircle
 10
6.250000000069825
 20
-11.55769230803
 30
0.0
 40
1.749999999929999
100
AcDbArc
 50
0.0
 51
180.0
  0
LINE
  5
194C
330
1A
100
AcDbEntity
  8
247
  6
Continuous
100
AcDbLine
 10
4.50000000013987
 20
-17.38461538472003
 30
0.0
 11
7.500000000019933
 21
-18.24485154196196
 31
0.0
  0
LINE
  5
194D
330
1A
100
AcDbEntity
  8
247
  6
Continuous
100
AcDbLine
 10
5.923076923159931
 20
-16.48498381833585
 30
0.0
 11
5.923076923159933
 21
-17.79267612597581
 31
0.0
  0
ARC
  5
194E
330
1A
100
AcDbEntity
  8
247
  6
Continuous
100
AcDbCircle
 10
5.049598667702898
 20
-16.14514381608976
 30
0.0
 40
0.5538165441895348
100
AcDbArc
 50
72.99788967529174
 51
172.9241662185103
  0
ARC
  5
194F
330
1A
100
AcDbEntity
  8
247
  6
Continuous
100
AcDbCircle
 10
4.936033044465636
 20
-16.56687832302881
 30
0.0
 40
0.9904354236226808
100
AcDbArc
 50
4.742936852202213
 51
73.84922627326648
1001
GENIUS_GENOBJ-N-FIL_13
1002
{
1000
OWNER
1000
GEN
1002
}
1001
GENIUS_GENODEF_13
1002
{
1000
HIER
1070
     0
1002
}
1002
{
1000
MANEDIT
1070
     0
1002
}
1002
{
1000
NOSEL
1070
     0
1002
}
1002
{
1000
BEHIND
1070
     0
1002
}
1002
{
1000
OTHER
1070
     0
1002
}
1002
{
1000
REACTOR
1002
}
  0
LINE
  5
1950
330
1A
100
AcDbEntity
  8
247
  6
Continuous
100
AcDbLine
 10
7.500000000019928
 20
-16.93715923432199
 30
0.0
 11
7.500000000019933
 21
-18.24485154196196
 31
0.0
  0
LINE
  5
1951
330
1A
100
AcDbEntity
  8
247
  6
Continuous
100
AcDbLine
 10
4.50000000013987
 20
-17.38461538472003
 30
0.0
 11
4.500000000139866
 21
-16.07692307708001
 31
0.0
  0
ARC
  5
1952
330
1A
100
AcDbEntity
  8
247
  6
Continuous
100
AcDbCircle
 10
6.482024232665401
 20
-16.56091963654693
 30
0.0
 40
0.5640818586791229
100
AcDbArc
 50
65.9909416525291
 51
172.263443459069
  0
ARC
  5
1953
330
1A
100
AcDbEntity
  8
247
  6
Continuous
100
AcDbCircle
 10
6.487429039186431
 20
-17.03826268534703
 30
0.0
 40
1.017605944623098
100
AcDbArc
 50
5.701985164259776
 51
77.27733843682253
1001
GENIUS_GENOBJ-N-FIL_13
1002
{
1000
OWNER
1000
GEN
1002
}
1001
GENIUS_GENODEF_13
1002
{
1000
HIER
1070
     0
1002
}
1002
{
1000
MANEDIT
1070
     0
1002
}
1002
{
1000
NOSEL
1070
     0
1002
}
1002
{
1000
BEHIND
1070
     0
1002
}
1002
{
1000
OTHER
1070
     0
1002
}
1002
{
1000
REACTOR
1002
}
  0
LINE
  5
1954
330
1A
100
AcDbEntity
  8
247
  6
Continuous
100
AcDbLine
 10
7.500000000019928
 20
-15.28331308054197
 30
0.0
 11
4.500000000139863
 21
-14.42307692329999
 31
0.0
  0
LINE
  5
1955
330
1A
100
AcDbEntity
  8
247
  6
Continuous
100
AcDbLine
 10
4.500000000139856
 20
-12.00000000032
 30
0.0
 11
4.500000000139856
 21
-12.5657366194566
 31
0.0
  0
LINE
  5
1956
330
1A
100
AcDbEntity
  8
247
  6
Continuous
100
AcDbLine
 10
7.50000000001992
 20
-13.46153846179999
 30
0.0
 11
7.50000000001992
 21
-12.84615384643996
 31
0.0
  0
ARC
  5
1957
330
1A
100
AcDbEntity
  8
247
  6
Continuous
100
AcDbCircle
 10
6.583285135973277
 20
-11.70879120912281
 30
0.0
 40
2.252650082342209
100
AcDbArc
 50
202.3594881415293
 51
254.9932485428465
  0
ARC
  5
1958
330
1A
100
AcDbEntity
  8
247
  6
Continuous
100
AcDbCircle
 10
5.308312655194439
 20
-12.37406947921326
 30
0.0
 40
0.8906723995727782
100
AcDbArc
 50
94.99458931907524
 51
155.166328957304
1001
GENIUS_GENOBJ-N-FIL_13
1002
{
1000
OWNER
1000
GEN
1002
}
1001
GENIUS_GENODEF_13
1002
{
1000
HIER
1070
     0
1002
}
1002
{
1000
MANEDIT
1070
     0
1002
}
1002
{
1000
NOSEL
1070
     0
1002
}
1002
{
1000
BEHIND
1070
     0
1002
}
1002
{
1000
OTHER
1070
     0
1002
}
1002
{
1000
REACTOR
1002
}
  0
ARC
  5
1959
330
1A
100
AcDbEntity
  8
247
  6
Continuous
100
AcDbCircle
 10
6.160145888667696
 20
-13.22645888621261
 30
0.0
 40
1.392781735586712
100
AcDbArc
 50
15.84609655577733
 51
82.32513700416928
  0
ARC
  5
195A
330
1A
100
AcDbEntity
  8
247
  6
Continuous
100
AcDbCircle
 10
6.459243431527196
 20
-12.64221272584035
 30
0.0
 40
1.324563662670287
100
AcDbArc
 50
249.7136016704969
 51
321.7887456564108
1001
GENIUS_GENOBJ-N-FIL_13
1002
{
1000
OWNER
1000
GEN
1002
}
1001
GENIUS_GENODEF_13
1002
{
1000
HIER
1070
     0
1002
}
1002
{
1000
MANEDIT
1070
     0
1002
}
1002
{
1000
NOSEL
1070
     0
1002
}
1002
{
1000
BEHIND
1070
     0
1002
}
1002
{
1000
OTHER
1070
     0
1002
}
1002
{
1000
REACTOR
1002
}
  0
LINE
  5
195B
330
1A
100
AcDbEntity
  8
247
  6
Continuous
100
AcDbLine
 10
6.346153846219888
 20
-12.53846153875997
 30
0.0
 11
6.346153846219888
 21
-11.84615384647998
 31
0.0
  0
LINE
  5
195C
330
1A
100
AcDbEntity
  8
247
  6
Continuous
100
AcDbLine
 10
4.500000000139872
 20
-18.25000000007
 30
0.0
 11
4.500000000139871
 21
-17.57692307702004
 31
0.0
  0
LINE
  5
19F2
330
1A
100
AcDbEntity
  8
250
  6
Continuous
100
AcDbLine
 10
-0.0000000000000568
 20
-22.72499999999999
 30
0.0
 11
-0.0000000000000589
 21
-57.0
 31
0.0
  0
LINE
  5
19F3
330
1A
100
AcDbEntity
  8
250
  6
Continuous
100
AcDbLine
 10
109.9999999999999
 20
-8.186291660000051
 30
0.0
 11
109.9999999999999
 21
-57.0
 31
0.0
  0
LINE
  5
19F4
330
1A
100
AcDbEntity
  8
250
  6
Continuous
100
AcDbLine
 10
1.999999999999941
 20
-56.0
 30
0.0
 11
107.9999999999999
 21
-56.0
 31
0.0
  0
INSERT
  5
19F5
330
1A
100
AcDbEntity
  8
250
  6
Continuous
100
AcDbBlockReference
  2
_Open
 10
-0.0000000000000589
 20
-56.0
 30
0.0
 41
2.0
 42
2.0
 43
2.0
 50
180.0
  0
INSERT
  5
19F6
330
1A
100
AcDbEntity
  8
250
  6
Continuous
100
AcDbBlockReference
  2
_Open
 10
109.9999999999999
 20
-56.0
 30
0.0
 41
2.0
 42
2.0
 43
2.0
  0
MTEXT
  5
19F7
330
1A
100
AcDbEntity
  8
250
  6
Continuous
370
    -3
100
AcDbMText
 10
54.99999999999992
 20
-53.6
 30
0.0
 40
2.799999999999998
 41
0.0
 71
     5
 72
     1
  1
\A1;110
 73
     1
 44
1.0
1001
ACAD
1000
MTEXTBEGIN
1070
    73
1070
     1
1070
    44
1040
1.0
1070
    74
1070
     0
1000
MTEXTEND
  0
LINE
  5
19F8
330
1A
100
AcDbEntity
  8
250
  6
Continuous
100
AcDbLine
 10
181.9999999999999
 20
42.49999999999992
 30
0.0
 11
181.9999999999999
 21
50.0
 31
0.0
  0
LINE
  5
19F9
330
1A
100
AcDbEntity
  8
250
  6
Continuous
100
AcDbLine
 10
201.9999999999999
 20
27.49999999999993
 30
0.0
 11
201.9999999999999
 21
50.0
 31
0.0
  0
LINE
  5
19FA
330
1A
100
AcDbEntity
  8
250
  6
Continuous
100
AcDbLine
 10
183.9999999999999
 20
49.0
 30
0.0
 11
199.9999999999999
 21
49.0
 31
0.0
  0
INSERT
  5
19FB
330
1A
100
AcDbEntity
  8
250
  6
Continuous
100
AcDbBlockReference
  2
_Open
 10
181.9999999999999
 20
49.0
 30
0.0
 41
2.0
 42
2.0
 43
2.0
 50
180.0
  0
INSERT
  5
19FC
330
1A
100
AcDbEntity
  8
250
  6
Continuous
100
AcDbBlockReference
  2
_Open
 10
201.9999999999999
 20
49.0
 30
0.0
 41
2.0
 42
2.0
 43
2.0
  0
MTEXT
  5
19FD
330
1A
100
AcDbEntity
  8
250
  6
Continuous
370
    -3
100
AcDbMText
 10
191.9999999999999
 20
51.4
 30
0.0
 40
2.799999999999998
 41
0.0
 71
     5
 72
     1
  1
\A1;□20
 73
     1
 44
1.0
1001
ACAD
1000
MTEXTBEGIN
1070
    73
1070
     1
1070
    44
1040
1.0
1070
    74
1070
     0
1000
MTEXTEND
  0
LINE
  5
1B01
330
1A
100
AcDbEntity
  8
250
  6
Continuous
100
AcDbLine
 10
111.4999999999999
 20
0.0000000000001136
 30
0.0
 11
127.0
 21
0.0000000000001092
 31
0.0
  0
LINE
  5
1B02
330
1A
100
AcDbEntity
  8
250
  6
Continuous
100
AcDbLine
 10
110.4999999999998
 20
26.99979999999991
 30
0.0
 11
127.0
 21
26.99979999999991
 31
0.0
  0
LINE
  5
1B03
330
1A
100
AcDbEntity
  8
250
  6
Continuous
100
AcDbLine
 10
126.0
 20
2.000000000000109
 30
0.0
 11
126.0
 21
24.9997999999999
 31
0.0
  0
INSERT
  5
1B04
330
1A
100
AcDbEntity
  8
250
  6
Continuous
100
AcDbBlockReference
  2
_Open
 10
126.0
 20
0.0000000000001095
 30
0.0
 41
2.0
 42
2.0
 43
2.0
 50
270.0
  0
INSERT
  5
1B05
330
1A
100
AcDbEntity
  8
250
  6
Continuous
100
AcDbBlockReference
  2
_Open
 10
126.0
 20
26.99979999999991
 30
0.0
 41
2.0
 42
2.0
 43
2.0
 50
90.0
  0
MTEXT
  5
1B06
330
1A
100
AcDbEntity
  8
250
  6
Continuous
370
    -3
100
AcDbMText
 10
123.6
 20
13.49990000000003
 30
0.0
 40
2.799999999999998
 41
0.0
 71
     5
 72
     1
  1
\A1;27
 11
0.0000000000000001
 21
1.0
 31
0.0
 73
     1
 44
1.0
1001
ACAD
1000
MTEXTBEGIN
1070
    73
1070
     1
1070
    44
1040
1.0
1070
    74
1070
     0
1000
MTEXTEND
  0
LINE
  5
1C5F
330
1A
100
AcDbEntity
  8
250
  6
Continuous
100
AcDbLine
 10
147.2895485628701
 20
15.4655928121313
 30
0.0
 11
216.7104514371298
 21
-15.46559281213142
 31
0.0
  0
INSERT
  5
1C60
330
1A
100
AcDbEntity
  8
250
  6
Continuous
100
AcDbBlockReference
  2
_Open
 10
145.462682697758
 20
16.27957138119085
 30
0.0
 41
2.0
 42
2.0
 43
2.0
 50
155.9841538476557
  0
INSERT
  5
1C61
330
1A
100
AcDbEntity
  8
250
  6
Continuous
100
AcDbBlockReference
  2
_Open
 10
218.5373173022419
 20
-16.27957138119099
 30
0.0
 41
2.0
 42
2.0
 43
2.0
 50
335.9841538476557
  0
MTEXT
  5
1C62
330
1A
100
AcDbEntity
  8
250
  6
Continuous
370
    -3
100
AcDbMText
 10
198.7284363892763
 20
-4.826073376879207
 30
0.0
 40
2.799999999999999
 41
0.0
 71
     5
 72
     1
  1
\A1;（\U+03C680）
 11
0.9134329325560493
 21
-0.4069892845297728
 31
0.0
 73
     1
 44
1.0
1001
ACAD
1000
MTEXTBEGIN
1070
    73
1070
     1
1070
    44
1040
1.0
1070
    74
1070
     0
1000
MTEXTEND
  0
VIEWPORT
  5
22
102
{ACAD_XDICTIONARY
360
1CC4
102
}
330
17
100
AcDbEntity
 67
     1
  8
0
100
AcDbViewport
 10
261.5176991150442
 20
148.5
 30
0.0
 40
523.0353982300885
 41
297.0
 68
     1
 69
     1
 12
261.5176991150442
 22
148.5
 13
0.0
 23
0.0
 14
1.0
 24
1.0
 15
10.0
 25
10.0
 16
0.0
 26
0.0
 36
1.0
 17
0.0
 27
0.0
 37
0.0
 42
50.0
 43
0.0
 44
0.0
 45
297.0
 50
0.0
 51
0.0
 72
   100
 90
    32800
  1

281
     0
 71
     1
 74
     0
110
0.0
120
0.0
130
0.0
111
1.0
121
0.0
131
0.0
112
0.0
122
1.0
132
0.0
 79
     0
146
0.0
  0
ENDSEC
  0
SECTION
  2
OBJECTS
  0
DICTIONARY
  5
C
330
0
100
AcDbDictionary
281
     1
  3
ACAD_CIP_PREVIOUS_PRODUCT_INFO
350
7CD
  3
ACAD_COLOR
350
7AE
  3
ACAD_DETAILVIEWSTYLE
350
7C7
  3
ACAD_GROUP
350
D
  3
ACAD_LAYOUT
350
565
  3
ACAD_MATERIAL
350
77C
  3
ACAD_MLEADERSTYLE
350
7C3
  3
ACAD_MLINESTYLE
350
E
  3
ACAD_PLOTSETTINGS
350
566
  3
ACAD_PLOTSTYLENAME
350
563
  3
ACAD_SCALELIST
350
7B1
  3
ACAD_SECTIONVIEWSTYLE
350
7C5
  3
ACAD_TABLESTYLE
350
7AF
  3
ACAD_VISUALSTYLE
350
795
  3
ACDB_RECOMPOSE_DATA
350
1CC2
  3
AcDbVariableDictionary
350
853
  3
DWGPROPS
350
1CC3
  3
GRADE_DWG
350
540
  0
DICTIONARY
  5
814
330
8
100
AcDbDictionary
280
     1
281
     1
  0
DICTIONARY
  5
970
330
2
100
AcDbDictionary
280
     1
281
     1
  3
ACAD_LAYERSTATES
360
971
  0
DICTIONARY
  5
7D2
330
F
100
AcDbDictionary
280
     1
281
     1
  3
ADSK_XREC_LAYER_RECONCILED
360
8C0
  0
DICTIONARY
  5
7E2
330
1AA
100
AcDbDictionary
280
     1
281
     1
  3
ADSK_XREC_LAYER_RECONCILED
360
8C8
  0
DICTIONARY
  5
7E4
330
1AB
100
AcDbDictionary
280
     1
281
     1
  3
ADSK_XREC_LAYER_RECONCILED
360
8C9
  0
DICTIONARY
  5
7E6
330
1AC
100
AcDbDictionary
280
     1
281
     1
  3
ADSK_XREC_LAYER_RECONCILED
360
8CA
  0
DICTIONARY
  5
7E8
330
1AD
100
AcDbDictionary
280
     1
281
     1
  3
ADSK_XREC_LAYER_RECONCILED
360
8CB
  0
DICTIONARY
  5
7EC
330
1AF
100
AcDbDictionary
280
     1
281
     1
  3
ADSK_XREC_LAYER_RECONCILED
360
8CD
  0
DICTIONARY
  5
7F0
330
21B
100
AcDbDictionary
280
     1
281
     1
  3
ADSK_XREC_LAYER_RECONCILED
360
8CF
  0
DICTIONARY
  5
7F4
330
21E
100
AcDbDictionary
280
     1
281
     1
  3
ADSK_XREC_LAYER_RECONCILED
360
8D1
  0
DICTIONARY
  5
146C
330
1A
100
AcDbDictionary
280
     1
281
     1
  3
ACAD_SORTENTS
360
146D
  0
DICTIONARY
  5
1CC4
330
22
100
AcDbDictionary
280
     1
281
     1
  3
ACAD_XREC_ROUNDTRIP
360
1CC5
  0
XRECORD
  5
7CD
102
{ACAD_REACTORS
330
C
102
}
330
C
100
AcDbXrecord
280
     1
300
ACD
300
2014
300
ACD_F_S
  0
DICTIONARY
  5
7AE
102
{ACAD_REACTORS
330
C
102
}
330
C
100
AcDbDictionary
281
     1
  0
DICTIONARY
  5
7C7
102
{ACAD_REACTORS
330
C
102
}
330
C
100
AcDbDictionary
281
     1
  3
Imperial24
350
B36
  3
Metric50
350
7C8
  0
DICTIONARY
  5
D
102
{ACAD_REACTORS
330
C
102
}
330
C
100
AcDbDictionary
281
     1
  0
DICTIONARY
  5
565
102
{ACAD_REACTORS
330
C
102
}
330
C
100
AcDbDictionary
281
     1
  3
Model
350
567
  3
ﾚｲｱｳﾄ1
350
568
  0
DICTIONARY
  5
77C
102
{ACAD_REACTORS
330
C
102
}
330
C
100
AcDbDictionary
281
     1
  3
ByBlock
350
785
  3
ByLayer
350
77D
  3
Global
350
78D
  0
DICTIONARY
  5
7C3
102
{ACAD_REACTORS
330
C
102
}
330
C
100
AcDbDictionary
281
     1
  3
Standard
350
7C4
  0
DICTIONARY
  5
E
102
{ACAD_REACTORS
330
C
102
}
330
C
100
AcDbDictionary
281
     1
  3
STANDARD
350
13
  0
DICTIONARY
  5
566
102
{ACAD_REACTORS
330
C
102
}
330
C
100
AcDbDictionary
281
     1
  3
A3(0.5倍)
350
772
  3
A3(1倍)
350
773
  3
A3(1倍)(2000)
350
774
  3
A3(2倍)
350
775
  3
A4(0.5倍)
350
776
  3
A4(1倍)
350
777
  3
A4(1倍)(2000)
350
778
  3
A4(2倍)
350
779
  0
ACDBDICTIONARYWDFLT
  5
563
102
{ACAD_REACTORS
330
C
102
}
330
C
100
AcDbDictionary
281
     1
  3
Normal
350
564
100
AcDbDictionaryWithDefault
340
564
  0
DICTIONARY
  5
7B1
102
{ACAD_REACTORS
330
C
102
}
330
C
100
AcDbDictionary
281
     1
  3
A0
350
7B2
  3
A1
350
7B3
  3
A2
350
7B4
  3
A3
350
7B5
  3
A4
350
7B6
  3
A5
350
7B7
  3
A6
350
7B8
  3
A7
350
7B9
  3
A8
350
7BA
  3
A9
350
7BB
  3
B0
350
7BC
  3
B1
350
7BD
  3
B2
350
7BE
  3
B3
350
7BF
  3
B4
350
7C0
  3
B5
350
7C1
  3
B6
350
7C2
  0
DICTIONARY
  5
7C5
102
{ACAD_REACTORS
330
C
102
}
330
C
100
AcDbDictionary
281
     1
  3
Imperial24
350
B35
  3
Metric50
350
7C6
  0
DICTIONARY
  5
7AF
102
{ACAD_REACTORS
330
C
102
}
330
C
100
AcDbDictionary
281
     1
  3
Standard
350
7B0
  0
DICTIONARY
  5
795
102
{ACAD_REACTORS
330
C
102
}
330
C
100
AcDbDictionary
281
     1
  3
2dWireframe
350
79B
  3
Basic
350
79A
  3
Brighten
350
7A1
  3
ColorChange
350
7A5
  3
Conceptual
350
79E
  3
Dim
350
7A0
  3
EdgeColorOff
350
7AD
  3
Facepattern
350
7A4
  3
Flat
350
796
  3
FlatWithEdges
350
797
  3
Gouraud
350
798
  3
GouraudWithEdges
350
799
  3
Hidden
350
79D
  3
JitterOff
350
7AB
  3
Linepattern
350
7A3
  3
OverhangOff
350
7AC
  3
Realistic
350
79F
  3
Shaded
350
7AA
  3
Shaded with edges
350
7A9
  3
Shades of Gray
350
7A6
  3
Sketchy
350
7A7
  3
Thicken
350
7A2
  3
Wireframe
350
79C
  3
X-Ray
350
7A8
  0
XRECORD
  5
1CC2
102
{ACAD_REACTORS
330
C
102
}
330
C
100
AcDbXrecord
280
     1
 90
        1
330
7B0
  0
DICTIONARY
  5
853
102
{ACAD_REACTORS
330
C
102
}
330
C
100
AcDbDictionary
281
     1
  3
CANNOSCALE
350
858
  3
CMLEADERSTYLE
350
855
  3
CTABLESTYLE
350
854
  3
CVIEWDETAILSTYLE
350
856
  3
CVIEWSECTIONSTYLE
350
857
  3
DIMASSOC
350
1488
  3
INDEXCTL
350
1487
  3
LAYEREVAL
350
8B2
  3
LAYERNOTIFY
350
8B3
  3
LIGHTINGUNITS
350
8B1
  3
MSLTSCALE
350
8B0
  3
SORTENTS
350
1486
  3
XCLIPFRAME
350
1C63
  0
XRECORD
  5
1CC3
102
{ACAD_REACTORS
330
C
102
}
330
C
100
AcDbXrecord
280
     1
  1
DWGPROPS COOKIE
  2

  3

  4

  6

  7

  8
AWTEC
  9

300
=
301
=
302
=
303
=
304
=
305
=
306
=
307
=
308
=
309
=
 40
0.2954388310185185
 41
2457862.459414479
 42
2457869.570232662
  1

 90
        0
  0
DICTIONARY
  5
540
102
{ACAD_REACTORS
330
C
102
}
330
C
100
AcDbDictionary
281
     1
  3
VERSION
350
560
  0
DICTIONARY
  5
971
102
{ACAD_REACTORS
330
970
102
}
330
970
100
AcDbDictionary
281
     1
  0
XRECORD
  5
8C0
102
{ACAD_REACTORS
330
7D2
102
}
330
7D2
100
AcDbXrecord
280
     1
290
     1
  0
XRECORD
  5
8C8
102
{ACAD_REACTORS
330
7E2
102
}
330
7E2
100
AcDbXrecord
280
     1
290
     1
  0
XRECORD
  5
8C9
102
{ACAD_REACTORS
330
7E4
102
}
330
7E4
100
AcDbXrecord
280
     1
290
     1
  0
XRECORD
  5
8CA
102
{ACAD_REACTORS
330
7E6
102
}
330
7E6
100
AcDbXrecord
280
     1
290
     1
  0
XRECORD
  5
8CB
102
{ACAD_REACTORS
330
7E8
102
}
330
7E8
100
AcDbXrecord
280
     1
290
     1
  0
XRECORD
  5
8CD
102
{ACAD_REACTORS
330
7EC
102
}
330
7EC
100
AcDbXrecord
280
     1
290
     1
  0
XRECORD
  5
8CF
102
{ACAD_REACTORS
330
7F0
102
}
330
7F0
100
AcDbXrecord
280
     1
290
     1
  0
XRECORD
  5
8D1
102
{ACAD_REACTORS
330
7F4
102
}
330
7F4
100
AcDbXrecord
280
     1
290
     1
  0
SORTENTSTABLE
  5
146D
102
{ACAD_REACTORS
330
146C
102
}
330
146C
100
AcDbSortentsTable
330
1A
331
195A
  5
195A
331
1956
  5
1956
331
1952
  5
1952
331
15B6
  5
15B6
331
1B06
  5
1B06
331
15B2
  5
15B2
331
1B02
  5
1B02
331
15AE
  5
15AE
331
194E
  5
194E
331
194A
  5
194A
331
1946
  5
1946
331
1582
  5
1582
331
17A0
  5
17A0
331
157E
  5
157E
331
15D9
  5
15D9
331
157A
  5
157A
331
1C61
  5
1C57
331
193A
  5
193A
331
1936
  5
1936
331
1932
  5
1932
331
19F7
  5
19F4
331
19F3
  5
197E
331
15D5
  5
15D5
331
1576
  5
1576
331
1572
  5
1572
331
15D1
  5
15D1
331
156E
  5
156E
331
15CD
  5
15CD
331
156A
  5
156A
331
15C9
  5
15C9
331
192E
  5
192E
331
192A
  5
192A
331
19FD
  5
19FB
331
19F9
  5
19F7
331
15C5
  5
15C5
331
15C1
  5
15C1
331
15BD
  5
15BD
331
15B9
  5
15B9
331
1959
  5
1959
331
1955
  5
1955
331
1951
  5
1951
331
15B5
  5
15B5
331
1B05
  5
1B05
331
15B1
  5
15B1
331
1B01
  5
1B01
331
15AD
  5
15AD
331
194D
  5
194D
331
1949
  5
1949
331
1945
  5
1945
331
1581
  5
1581
331
157D
  5
157D
331
15D8
  5
15D8
331
1579
  5
1579
331
1C60
  5
1C56
331
1939
  5
1939
331
1935
  5
1935
331
1931
  5
1931
331
179F
  5
179F
331
19F6
  5
19F3
331
19F2
  5
196F
331
1575
  5
1575
331
15D4
  5
15D4
331
1571
  5
1571
331
15D0
  5
15D0
331
156D
  5
156D
331
15CC
  5
15CC
331
15C8
  5
15C8
331
1569
  5
1569
331
192D
  5
192D
331
19FC
  5
19FA
331
19F8
  5
19F6
331
15C4
  5
15C4
331
15C0
  5
15C0
331
15BC
  5
15BC
331
15B8
  5
15B8
331
18A7
  5
18A7
331
195C
  5
195C
331
1958
  5
1958
331
1954
  5
1954
331
1950
  5
1950
331
15B4
  5
15B4
331
1B04
  5
1B04
331
165D
  5
165D
331
15B0
  5
15B0
331
194C
  5
194C
331
1948
  5
1948
331
1944
  5
1944
331
1824
  5
1824
331
1580
  5
1580
331
157C
  5
157C
331
1578
  5
1578
331
193C
  5
193C
331
1938
  5
1938
331
1934
  5
1934
331
1930
  5
1930
331
19F5
  5
19F2
331
15D7
  5
15D7
331
1574
  5
1574
331
15D3
  5
15D3
331
1570
  5
1570
331
15CF
  5
15CF
331
156C
  5
156C
331
15CB
  5
15CB
331
1C5F
  5
1C55
331
192C
  5
192C
331
19FB
  5
19F9
331
15C7
  5
15C7
331
F3C
  5
F4C
331
15C3
  5
15C3
331
15BF
  5
15BF
331
6E6
  5
6E6
331
15BB
  5
15BB
331
195B
  5
195B
331
1957
  5
1957
331
1953
  5
1953
331
15B7
  5
15B7
331
15B3
  5
15B3
331
1B03
  5
1B03
331
15AF
  5
15AF
331
194F
  5
194F
331
194B
  5
194B
331
1947
  5
1947
331
1943
  5
1943
331
17A1
  5
17A1
331
157F
  5
157F
331
157B
  5
157B
331
15DA
  5
15DA
331
1C62
  5
1C58
331
193B
  5
193B
331
1937
  5
1937
331
1933
  5
1933
331
19F4
  5
19B5
331
15D6
  5
15D6
331
1577
  5
1577
331
1573
  5
1573
331
15D2
  5
15D2
331
156F
  5
156F
331
15CE
  5
15CE
331
156B
  5
156B
331
15CA
  5
15CA
331
192F
  5
192F
331
192B
  5
192B
331
19FA
  5
19F8
331
15C6
  5
15C6
331
15C2
  5
15C2
331
15BE
  5
15BE
331
15BA
  5
15BA
  0
XRECORD
  5
1CC5
102
{ACAD_REACTORS
330
1CC4
102
}
330
1CC4
100
AcDbXrecord
280
     1
102
SHADEPLOT
 70
     0
  0
ACDBDETAILVIEWSTYLE
  5
B36
102
{ACAD_XDICTIONARY
360
1D13
102
}
102
{ACAD_REACTORS
330
7C7
102
}
330
7C7
100
AcDbModelDocViewStyle
 70
     0
  3
Imperial24
290
     0
100
AcDbDetailViewStyle
 70
     0
 71
     0
 90
        3
 71
     1
340
10
 40
0.24
340
0
 40
0.24
300

 40
0.36
280
     3
 71
     2
340
16
 90
       25
 71
     3
340
10
 40
0.24
 90
        1
 40
0.75
 90
        1
300
%<\AcVar ViewType \f "%tc1">% %<\AcVar ViewDetailId>%\PSCALE %<\AcVar ViewScale \f "%sn">%
 71
     4
340
16
 90
       25
340
16
 90
       25
280
     0
  0
ACDBDETAILVIEWSTYLE
  5
7C8
102
{ACAD_XDICTIONARY
360
1D0F
102
}
102
{ACAD_REACTORS
330
7C7
102
}
330
7C7
100
AcDbModelDocViewStyle
 70
     0
  3
Metric50
290
     0
100
AcDbDetailViewStyle
 70
     0
 71
     0
 90
        3
 71
     1
340
10
 40
5.0
340
0
 40
5.0
300

 40
0.0
280
     1
 71
     2
340
16
 90
       25
 71
     3
340
10
 40
5.0
 90
        0
 40
15.0
 90
        1
300
%<\AcVar ViewDetailId>% (%<\AcVar ViewScale \f "%sn">%)
 71
     4
340
16
 90
       25
340
16
 90
       25
280
     0
  0
LAYOUT
  5
567
102
{ACAD_XDICTIONARY
360
1CC6
102
}
102
{ACAD_REACTORS
330
565
102
}
330
565
100
AcDbPlotSettings
  1

  2
Canon LBP5610
  4
A4
  6

 40
5.789083003997802
 41
5.7890625
 42
5.789077758789062
 43
5.789093017578125
 44
209.9733276367187
 45
296.9259948730469
 46
36.6907552115074
 47
-2.536918597657859
 48
0.0
 49
0.0
140
0.0
141
0.0
142
1.0
143
1.0
 70
 11940
 72
     1
 73
     1
 74
     1
  7
big.ctb
 75
     0
147
0.9825294129020411
148
66.41108924179718
149
57.0081475717111
100
AcDbLayout
  1
Model
 70
     1
 71
     0
 10
0.0
 20
0.0
 11
12.0
 21
9.0
 12
0.0
 22
0.0
 32
0.0
 14
0.0
 24
0.0
 34
0.0
 15
0.0
 25
0.0
 35
0.0
146
0.0
 13
0.0
 23
0.0
 33
0.0
 16
1.0
 26
0.0
 36
0.0
 17
0.0
 27
1.0
 37
0.0
 76
     0
330
1A
331
77A
1001
ACAD_PSEXT
1000
Canon LBP5610
1000
Canon LBP5610
1000
IP_192.168.120.151
1000

1070
     0
  0
LAYOUT
  5
568
102
{ACAD_XDICTIONARY
360
1CC8
102
}
102
{ACAD_REACTORS
330
565
102
}
330
565
100
AcDbPlotSettings
  1

  2
\\ICHIRO\FX Able Model-PRII ART4-ADV
  4

  6

 40
0.0
 41
0.0
 42
0.0
 43
0.0
 44
0.0
 45
0.0
 46
0.0
 47
0.0
 48
0.0
 49
0.0
140
0.0
141
0.0
142
1.0
143
1.0
 70
   688
 72
     0
 73
     0
 74
     5
  7
big.ctb
 75
    16
147
1.0
148
0.0
149
0.0
100
AcDbLayout
  1
ﾚｲｱｳﾄ1
 70
     1
 71
     1
 10
0.0
 20
0.0
 11
420.0
 21
297.0
 12
0.0
 22
0.0
 32
0.0
 14
1.000000000000000E+20
 24
1.000000000000000E+20
 34
1.000000000000000E+20
 15
-1.000000000000000E+20
 25
-1.000000000000000E+20
 35
-1.000000000000000E+20
146
0.0
 13
0.0
 23
0.0
 33
0.0
 16
1.0
 26
0.0
 36
0.0
 17
0.0
 27
1.0
 37
0.0
 76
     0
330
17
331
22
  0
MATERIAL
  5
785
102
{ACAD_XDICTIONARY
360
786
102
}
102
{ACAD_REACTORS
330
77C
102
}
330
77C
100
AcDbMaterial
  1
ByBlock
 72
     0
 43
0.0208333333333333
 43
0.0
 43
0.0
 43
0.0
 43
0.0
 43
0.0208333333333333
 43
0.0
 43
0.0
 43
0.0
 43
0.0
 43
1.0
 43
0.0
 43
0.0
 43
0.0
 43
0.0
 43
1.0
 77
     0
 47
0.0208333333333333
 47
0.0
 47
0.0
 47
0.0
 47
0.0
 47
0.0208333333333333
 47
0.0
 47
0.0
 47
0.0
 47
0.0
 47
1.0
 47
0.0
 47
0.0
 47
0.0
 47
0.0
 47
1.0
171
     0
 49
0.0208333333333333
 49
0.0
 49
0.0
 49
0.0
 49
0.0
 49
0.0208333333333333
 49
0.0
 49
0.0
 49
0.0
 49
0.0
 49
1.0
 49
0.0
 49
0.0
 49
0.0
 49
0.0
 49
1.0
175
     0
142
0.0208333333333333
142
0.0
142
0.0
142
0.0
142
0.0
142
0.0208333333333333
142
0.0
142
0.0
142
0.0
142
0.0
142
1.0
142
0.0
142
0.0
142
0.0
142
0.0
142
1.0
179
     0
144
0.0208333333333333
144
0.0
144
0.0
144
0.0
144
0.0
144
0.0208333333333333
144
0.0
144
0.0
144
0.0
144
0.0
144
1.0
144
0.0
144
0.0
144
0.0
144
0.0
144
1.0
147
0.0208333333333333
147
0.0
147
0.0
147
0.0
147
0.0
147
0.0208333333333333
147
0.0
147
0.0
147
0.0
147
0.0
147
1.0
147
0.0
147
0.0
147
0.0
147
0.0
147
1.0
  0
MATERIAL
  5
77D
102
{ACAD_XDICTIONARY
360
77E
102
}
102
{ACAD_REACTORS
330
77C
102
}
330
77C
100
AcDbMaterial
  1
ByLayer
 72
     0
 43
0.0208333333333333
 43
0.0
 43
0.0
 43
0.0
 43
0.0
 43
0.0208333333333333
 43
0.0
 43
0.0
 43
0.0
 43
0.0
 43
1.0
 43
0.0
 43
0.0
 43
0.0
 43
0.0
 43
1.0
 77
     0
 47
0.0208333333333333
 47
0.0
 47
0.0
 47
0.0
 47
0.0
 47
0.0208333333333333
 47
0.0
 47
0.0
 47
0.0
 47
0.0
 47
1.0
 47
0.0
 47
0.0
 47
0.0
 47
0.0
 47
1.0
171
     0
 49
0.0208333333333333
 49
0.0
 49
0.0
 49
0.0
 49
0.0
 49
0.0208333333333333
 49
0.0
 49
0.0
 49
0.0
 49
0.0
 49
1.0
 49
0.0
 49
0.0
 49
0.0
 49
0.0
 49
1.0
175
     0
142
0.0208333333333333
142
0.0
142
0.0
142
0.0
142
0.0
142
0.0208333333333333
142
0.0
142
0.0
142
0.0
142
0.0
142
1.0
142
0.0
142
0.0
142
0.0
142
0.0
142
1.0
179
     0
144
0.0208333333333333
144
0.0
144
0.0
144
0.0
144
0.0
144
0.0208333333333333
144
0.0
144
0.0
144
0.0
144
0.0
144
1.0
144
0.0
144
0.0
144
0.0
144
0.0
144
1.0
147
0.0208333333333333
147
0.0
147
0.0
147
0.0
147
0.0
147
0.0208333333333333
147
0.0
147
0.0
147
0.0
147
0.0
147
1.0
147
0.0
147
0.0
147
0.0
147
0.0
147
1.0
  0
MATERIAL
  5
78D
102
{ACAD_XDICTIONARY
360
78E
102
}
102
{ACAD_REACTORS
330
77C
102
}
330
77C
100
AcDbMaterial
  1
Global
 72
     0
 43
0.0208333333333333
 43
0.0
 43
0.0
 43
0.0
 43
0.0
 43
0.0208333333333333
 43
0.0
 43
0.0
 43
0.0
 43
0.0
 43
1.0
 43
0.0
 43
0.0
 43
0.0
 43
0.0
 43
1.0
 77
     0
 47
0.0208333333333333
 47
0.0
 47
0.0
 47
0.0
 47
0.0
 47
0.0208333333333333
 47
0.0
 47
0.0
 47
0.0
 47
0.0
 47
1.0
 47
0.0
 47
0.0
 47
0.0
 47
0.0
 47
1.0
171
     0
 49
0.0208333333333333
 49
0.0
 49
0.0
 49
0.0
 49
0.0
 49
0.0208333333333333
 49
0.0
 49
0.0
 49
0.0
 49
0.0
 49
1.0
 49
0.0
 49
0.0
 49
0.0
 49
0.0
 49
1.0
175
     0
142
0.0208333333333333
142
0.0
142
0.0
142
0.0
142
0.0
142
0.0208333333333333
142
0.0
142
0.0
142
0.0
142
0.0
142
1.0
142
0.0
142
0.0
142
0.0
142
0.0
142
1.0
179
     0
144
0.0208333333333333
144
0.0
144
0.0
144
0.0
144
0.0
144
0.0208333333333333
144
0.0
144
0.0
144
0.0
144
0.0
144
1.0
144
0.0
144
0.0
144
0.0
144
0.0
144
1.0
147
0.0208333333333333
147
0.0
147
0.0
147
0.0
147
0.0
147
0.0208333333333333
147
0.0
147
0.0
147
0.0
147
0.0
147
1.0
147
0.0
147
0.0
147
0.0
147
0.0
147
1.0
  0
MLEADERSTYLE
  5
7C4
102
{ACAD_XDICTIONARY
360
1D0B
102
}
102
{ACAD_REACTORS
330
7C3
102
}
330
7C3
100
AcDbMLeaderStyle
170
     2
171
     1
172
     0
 90
        2
 40
0.0
 41
0.0
173
     1
 91
-1056964608
340
14
 92
       -2
290
     1
 42
2.0
291
     1
 43
0.36
  3
Standard
 44
4.0
300

342
10
174
     1
178
     6
175
     1
176
     0
 93
-1056964608
 45
4.0
292
     0
297
     0
 46
4.0
 94
-1056964608
 47
1.0
 49
1.0
140
1.0
293
     1
141
0.0
294
     1
177
     0
142
1.0
295
     0
296
     0
143
0.125
1001
ACAD_MLEADERVER
1070
     2
  0
MLINESTYLE
  5
13
102
{ACAD_REACTORS
330
E
102
}
330
E
100
AcDbMlineStyle
  2
STANDARD
 70
     0
  3

 62
     0
 51
90.0
 52
90.0
 71
     2
 49
0.5
 62
   256
  6
BYLAYER
 49
-0.5
 62
   256
  6
BYLAYER
  0
PLOTSETTINGS
  5
772
102
{ACAD_XDICTIONARY
360
1CCA
102
}
102
{ACAD_REACTORS
330
566
102
}
330
566
100
AcDbPlotSettings
  1
A3(0.5倍)
  2
Canon LBP5600.pc3
  4
A3
  6

 40
5.873749732971191
 41
5.873747825622557
 42
5.873748779296875
 43
5.873748779296875
 44
296.9259948730469
 45
419.9466552734373
 46
90.09
 47
129.85
 48
0.0
 49
0.0
140
0.0
141
0.0
142
1.0
143
2.0
 70
  1716
 72
     1
 73
     1
 74
     2
  7
big.ctb
 75
    17
147
0.5
148
0.0
149
0.0
  0
PLOTSETTINGS
  5
773
102
{ACAD_XDICTIONARY
360
1CCC
102
}
102
{ACAD_REACTORS
330
566
102
}
330
566
100
AcDbPlotSettings
  1
A3(1倍)
  2
Canon LBP5600.pc3
  4
A3
  6

 40
5.873749732971191
 41
5.873747825622557
 42
5.873748779296875
 43
5.873748779296875
 44
296.9259948730469
 45
419.9466552734373
 46
37.59
 47
55.6
 48
0.0
 49
0.0
140
0.0
141
0.0
142
1.0
143
1.0
 70
  1716
 72
     1
 73
     1
 74
     2
  7
big.ctb
 75
    16
147
1.0
148
0.0
149
0.0
  0
PLOTSETTINGS
  5
774
102
{ACAD_XDICTIONARY
360
1CCE
102
}
102
{ACAD_REACTORS
330
566
102
}
330
566
100
AcDbPlotSettings
  1
A3(1倍)(2000)
  2
Canon LBP5600.pc3
  4
A3
  6

 40
5.873749732971191
 41
5.873747825622557
 42
5.873748779296875
 43
5.873748779296875
 44
296.9259948730469
 45
419.9466552734373
 46
37.59
 47
55.6
 48
0.0
 49
0.0
140
0.0
141
0.0
142
1.0
143
1.0
 70
  1716
 72
     1
 73
     1
 74
     2
  7
big.ctb
 75
    16
147
1.0
148
0.0
149
0.0
  0
PLOTSETTINGS
  5
775
102
{ACAD_XDICTIONARY
360
1CD0
102
}
102
{ACAD_REACTORS
330
566
102
}
330
566
100
AcDbPlotSettings
  1
A3(2倍)
  2
Canon LBP5600.pc3
  4
A3
  6

 40
5.873749732971191
 41
5.873747825622557
 42
5.873748779296875
 43
5.873748779296875
 44
296.9259948730469
 45
419.9466552734373
 46
-67.40999999999999
 47
-92.9
 48
0.0
 49
0.0
140
0.0
141
0.0
142
1.0
143
0.5
 70
  1716
 72
     1
 73
     1
 74
     2
  7
big.ctb
 75
    27
147
2.0
148
0.0
149
0.0
  0
PLOTSETTINGS
  5
776
102
{ACAD_XDICTIONARY
360
1CD2
102
}
102
{ACAD_REACTORS
330
566
102
}
330
566
100
AcDbPlotSettings
  1
A4(0.5倍)
  2
Canon LBP5600.pc3
  4
A3
  6

 40
5.873749732971191
 41
5.873747825622557
 42
5.873748779296875
 43
5.873748779296875
 44
296.9259948730469
 45
419.9466552734373
 46
90.09
 47
129.85
 48
0.0
 49
0.0
140
0.0
141
0.0
142
1.0
143
2.0
 70
  1716
 72
     1
 73
     1
 74
     2
  7
big.ctb
 75
    17
147
0.5
148
0.0
149
0.0
  0
PLOTSETTINGS
  5
777
102
{ACAD_XDICTIONARY
360
1CD4
102
}
102
{ACAD_REACTORS
330
566
102
}
330
566
100
AcDbPlotSettings
  1
A4(1倍)
  2
Canon LBP5600.pc3
  4
A3
  6

 40
5.873749732971191
 41
5.873747825622557
 42
5.873748779296875
 43
5.873748779296875
 44
296.9259948730469
 45
419.9466552734373
 46
37.59
 47
55.6
 48
0.0
 49
0.0
140
0.0
141
0.0
142
1.0
143
1.0
 70
  1716
 72
     1
 73
     1
 74
     2
  7
big.ctb
 75
    16
147
1.0
148
0.0
149
0.0
  0
PLOTSETTINGS
  5
778
102
{ACAD_XDICTIONARY
360
1CD6
102
}
102
{ACAD_REACTORS
330
566
102
}
330
566
100
AcDbPlotSettings
  1
A4(1倍)(2000)
  2
Canon LBP5600.pc3
  4
A3
  6

 40
5.873749732971191
 41
5.873747825622557
 42
5.873748779296875
 43
5.873748779296875
 44
296.9259948730469
 45
419.9466552734373
 46
37.59
 47
55.6
 48
0.0
 49
0.0
140
0.0
141
0.0
142
1.0
143
1.0
 70
  1716
 72
     1
 73
     1
 74
     2
  7
big.ctb
 75
    16
147
1.0
148
0.0
149
0.0
  0
PLOTSETTINGS
  5
779
102
{ACAD_XDICTIONARY
360
1CD8
102
}
102
{ACAD_REACTORS
330
566
102
}
330
566
100
AcDbPlotSettings
  1
A4(2倍)
  2
Canon LBP5600.pc3
  4
A3
  6

 40
5.873749732971191
 41
5.873747825622557
 42
5.873748779296875
 43
5.873748779296875
 44
296.9259948730469
 45
419.9466552734373
 46
-67.40999999999999
 47
-92.9
 48
0.0
 49
0.0
140
0.0
141
0.0
142
1.0
143
0.5
 70
  1716
 72
     1
 73
     1
 74
     2
  7
big.ctb
 75
    27
147
2.0
148
0.0
149
0.0
  0
ACDBPLACEHOLDER
  5
564
102
{ACAD_REACTORS
330
563
102
}
330
563
  0
SCALE
  5
7B2
102
{ACAD_REACTORS
330
7B1
102
}
330
7B1
100
AcDbScale
 70
     0
300
1:1
140
1.0
141
1.0
290
     1
  0
SCALE
  5
7B3
102
{ACAD_REACTORS
330
7B1
102
}
330
7B1
100
AcDbScale
 70
     0
300
1:2
140
1.0
141
2.0
290
     0
  0
SCALE
  5
7B4
102
{ACAD_REACTORS
330
7B1
102
}
330
7B1
100
AcDbScale
 70
     0
300
1:4
140
1.0
141
4.0
290
     0
  0
SCALE
  5
7B5
102
{ACAD_REACTORS
330
7B1
102
}
330
7B1
100
AcDbScale
 70
     0
300
1:5
140
1.0
141
5.0
290
     0
  0
SCALE
  5
7B6
102
{ACAD_REACTORS
330
7B1
102
}
330
7B1
100
AcDbScale
 70
     0
300
1:8
140
1.0
141
8.0
290
     0
  0
SCALE
  5
7B7
102
{ACAD_REACTORS
330
7B1
102
}
330
7B1
100
AcDbScale
 70
     0
300
1:10
140
1.0
141
10.0
290
     0
  0
SCALE
  5
7B8
102
{ACAD_REACTORS
330
7B1
102
}
330
7B1
100
AcDbScale
 70
     0
300
1:16
140
1.0
141
16.0
290
     0
  0
SCALE
  5
7B9
102
{ACAD_REACTORS
330
7B1
102
}
330
7B1
100
AcDbScale
 70
     0
300
1:20
140
1.0
141
20.0
290
     0
  0
SCALE
  5
7BA
102
{ACAD_REACTORS
330
7B1
102
}
330
7B1
100
AcDbScale
 70
     0
300
1:30
140
1.0
141
30.0
290
     0
  0
SCALE
  5
7BB
102
{ACAD_REACTORS
330
7B1
102
}
330
7B1
100
AcDbScale
 70
     0
300
1:40
140
1.0
141
40.0
290
     0
  0
SCALE
  5
7BC
102
{ACAD_REACTORS
330
7B1
102
}
330
7B1
100
AcDbScale
 70
     0
300
1:50
140
1.0
141
50.0
290
     0
  0
SCALE
  5
7BD
102
{ACAD_REACTORS
330
7B1
102
}
330
7B1
100
AcDbScale
 70
     0
300
1:100
140
1.0
141
100.0
290
     0
  0
SCALE
  5
7BE
102
{ACAD_REACTORS
330
7B1
102
}
330
7B1
100
AcDbScale
 70
     0
300
2:1
140
2.0
141
1.0
290
     0
  0
SCALE
  5
7BF
102
{ACAD_REACTORS
330
7B1
102
}
330
7B1
100
AcDbScale
 70
     0
300
4:1
140
4.0
141
1.0
290
     0
  0
SCALE
  5
7C0
102
{ACAD_REACTORS
330
7B1
102
}
330
7B1
100
AcDbScale
 70
     0
300
8:1
140
8.0
141
1.0
290
     0
  0
SCALE
  5
7C1
102
{ACAD_REACTORS
330
7B1
102
}
330
7B1
100
AcDbScale
 70
     0
300
10:1
140
10.0
141
1.0
290
     0
  0
SCALE
  5
7C2
102
{ACAD_REACTORS
330
7B1
102
}
330
7B1
100
AcDbScale
 70
     0
300
100:1
140
100.0
141
1.0
290
     0
  0
ACDBSECTIONVIEWSTYLE
  5
B35
102
{ACAD_XDICTIONARY
360
1D11
102
}
102
{ACAD_REACTORS
330
7C5
102
}
330
7C5
100
AcDbModelDocViewStyle
 70
     0
  3
Imperial24
290
     0
100
AcDbSectionViewStyle
 70
     0
 71
     0
 90
       78
 71
     1
340
10
 40
0.24
340
0
340
0
 40
0.24
300
I, O, Q, S, X, Z
 40
0.48
 90
        3
 40
0.18
 90
        1
 71
     2
340
16
 90
       25
340
16
 90
       50
 40
0.24
 40
0.0
 40
0.24
 71
     3
340
10
 40
0.24
 90
        1
 40
0.75
 90
        1
300
%<\AcVar ViewType \f "%tc1">% %<\AcVar ViewSectionStartId>%-%<\AcVar ViewSectionEndId>%\PSCALE %<\AcVar ViewScale \f "%sn">%
 71
     4
300
ANSI31
 40
1.0
 90
        0
290
     0
290
     0
 90
        6
 40
0.0
 40
1.570796326794896
 40
0.2617993877991494
 40
1.308996938995747
 40
-0.2617993877991494
 40
1.832595714594044
  0
ACDBSECTIONVIEWSTYLE
  5
7C6
102
{ACAD_XDICTIONARY
360
1D0D
102
}
102
{ACAD_REACTORS
330
7C5
102
}
330
7C5
100
AcDbModelDocViewStyle
 70
     0
  3
Metric50
290
     0
100
AcDbSectionViewStyle
 70
     0
 71
     0
 90
      102
 71
     1
340
10
 40
5.0
340
0
340
0
 40
5.0
300
I, O, Q, S, X, Z
 40
10.0
 90
        0
 40
2.5
 90
        0
 71
     2
340
16
 90
       25
340
16
 90
       50
 40
5.0
 40
2.5
 40
5.0
 71
     3
340
10
 40
5.0
 90
        0
 40
15.0
 90
        1
300
%<\AcVar ViewSectionStartId>%-%<\AcVar ViewSectionEndId>% (%<\AcVar ViewScale \f "%sn">%)
 71
     4
300
ANSI31
 40
1.0
 90
        0
290
     0
290
     0
 90
        6
 40
0.0
 40
1.570796326794896
 40
0.2617993877991494
 40
1.308996938995747
 40
-0.2617993877991494
 40
1.832595714594044
  0
TABLESTYLE
  5
7B0
102
{ACAD_XDICTIONARY
360
811
102
}
102
{ACAD_REACTORS
330
7AF
102
}
330
7AF
100
AcDbTableStyle
  3
Standard
 70
     0
 71
     0
 40
1.5
 41
1.5
280
     0
281
     0
  7
STANDARD
140
4.5
170
     2
 62
     0
 63
     7
283
     0
274
    -2
284
     1
 64
     0
275
    -2
285
     1
 65
     0
276
    -2
286
     1
 66
     0
277
    -2
287
     1
 67
     0
278
    -2
288
     1
 68
     0
279
    -2
289
     1
 69
     0
  7
STANDARD
140
6.0
170
     5
 62
     0
 63
     7
283
     0
274
    -2
284
     1
 64
     0
275
    -2
285
     1
 65
     0
276
    -2
286
     1
 66
     0
277
    -2
287
     1
 67
     0
278
    -2
288
     1
 68
     0
279
    -2
289
     1
 69
     0
  7
STANDARD
140
4.5
170
     5
 62
     0
 63
     7
283
     0
274
    -2
284
     1
 64
     0
275
    -2
285
     1
 65
     0
276
    -2
286
     1
 66
     0
277
    -2
287
     1
 67
     0
278
    -2
288
     1
 68
     0
279
    -2
289
     1
 69
     0
  0
VISUALSTYLE
  5
79B
102
{ACAD_XDICTIONARY
360
1CE4
102
}
102
{ACAD_REACTORS
330
795
102
}
330
795
100
AcDbVisualStyle
  2

 70
     4
 71
     0
 72
     2
 73
     0
 90
        0
 40
-0.6
 41
-30.0
 62
     5
 63
     7
 74
     1
 91
        4
 64
     7
 65
   257
 75
     1
175
     1
 42
1.0
 92
        0
 66
   257
 43
1.0
 76
     1
 77
     6
 78
     2
 67
     7
 79
     5
170
     0
171
     0
290
     0
174
     0
 93
        1
 44
0.0
173
     0
291
     0
 45
0.0
1001
ACAD
1000
AcDbSavedByObjectVersion
1070
     0
  0
VISUALSTYLE
  5
79A
102
{ACAD_XDICTIONARY
360
1CE2
102
}
102
{ACAD_REACTORS
330
795
102
}
330
795
100
AcDbVisualStyle
  2

 70
     7
 71
     1
 72
     0
 73
     1
 90
        0
 40
-0.6
 41
-30.0
 62
     5
 63
     7
 74
     0
 91
        4
 64
     7
 65
   257
 75
     1
175
     1
 42
1.0
 92
        8
 66
     7
 43
1.0
 76
     1
 77
     6
 78
     2
 67
     7
 79
     5
170
     0
171
     0
290
     0
174
     0
 93
        1
 44
0.0
173
     0
291
     1
 45
0.0
1001
ACAD
1000
AcDbSavedByObjectVersion
1070
     0
  0
VISUALSTYLE
  5
7A1
102
{ACAD_XDICTIONARY
360
1CF0
102
}
102
{ACAD_REACTORS
330
795
102
}
330
795
100
AcDbVisualStyle
  2

 70
    12
 71
     2
 72
     2
 73
     0
 90
        0
 40
-0.6
 41
-30.0
 62
     5
 63
     7
 74
     1
 91
        4
 64
     7
 65
   257
 75
     1
175
     1
 42
1.0
 92
        8
 66
     7
 43
1.0
 76
     1
 77
     6
 78
     2
 67
     7
 79
     5
170
     0
171
     0
290
     0
174
     0
 93
        1
 44
50.0
173
     0
291
     1
 45
0.0
1001
ACAD
1000
AcDbSavedByObjectVersion
1070
     0
  0
VISUALSTYLE
  5
7A5
102
{ACAD_XDICTIONARY
360
1CF8
102
}
102
{ACAD_REACTORS
330
795
102
}
330
795
100
AcDbVisualStyle
  2

 70
    16
 71
     2
 72
     2
 73
     3
 90
        0
 40
-0.6
 41
-30.0
 62
     5
 63
     8
 74
     1
 91
        4
 64
     7
 65
   257
 75
     1
175
     1
 42
1.0
 92
        8
 66
     8
 43
1.0
 76
     1
 77
     6
 78
     2
 67
     7
 79
     5
170
     0
171
     0
290
     0
174
     0
 93
        1
 44
0.0
173
     0
291
     1
 45
0.0
1001
ACAD
1000
AcDbSavedByObjectVersion
1070
     0
  0
VISUALSTYLE
  5
79E
102
{ACAD_XDICTIONARY
360
1CEA
102
}
102
{ACAD_REACTORS
330
795
102
}
330
795
100
AcDbVisualStyle
  2

 70
     9
 71
     3
 72
     2
 73
     0
 90
        0
 40
-0.6
 41
-30.0
 62
     5
 63
     7
 74
     2
 91
        2
 64
     7
 65
   257
 75
     1
175
     1
 42
179.0
 92
        8
 66
     7
 43
1.0
 76
     1
 77
     6
 78
     2
 67
     7
 79
     3
170
     0
171
     0
290
     0
174
     0
 93
        1
 44
0.0
173
     0
291
     0
 45
0.0
1001
ACAD
1000
AcDbSavedByObjectVersion
1070
     0
  0
VISUALSTYLE
  5
7A0
102
{ACAD_XDICTIONARY
360
1CEE
102
}
102
{ACAD_REACTORS
330
795
102
}
330
795
100
AcDbVisualStyle
  2

 70
    11
 71
     2
 72
     2
 73
     0
 90
        0
 40
-0.6
 41
-30.0
 62
     5
 63
     7
 74
     1
 91
        4
 64
     7
 65
   257
 75
     1
175
     1
 42
1.0
 92
        8
 66
     7
 43
1.0
 76
     1
 77
     6
 78
     2
 67
     7
 79
     5
170
     0
171
     0
290
     0
174
     0
 93
        1
 44
-50.0
173
     0
291
     1
 45
0.0
1001
ACAD
1000
AcDbSavedByObjectVersion
1070
     0
  0
VISUALSTYLE
  5
7AD
102
{ACAD_XDICTIONARY
360
1D08
102
}
102
{ACAD_REACTORS
330
795
102
}
330
795
100
AcDbVisualStyle
  2

 70
    22
 71
     2
 72
     2
 73
     0
 90
        0
 40
-0.6
 41
-30.0
 62
     5
 63
     7
 74
     1
 91
        4
 64
     7
 65
   257
 75
     1
175
     1
 42
1.0
 92
        8
 66
     7
 43
1.0
 76
     1
 77
     6
 78
     2
 67
     7
 79
     5
170
     0
171
     0
290
     0
174
     0
 93
        1
 44
0.0
173
     0
291
     1
 45
0.0
1001
ACAD
1000
AcDbSavedByObjectVersion
1070
     0
  0
VISUALSTYLE
  5
7A4
102
{ACAD_XDICTIONARY
360
1CF6
102
}
102
{ACAD_REACTORS
330
795
102
}
330
795
100
AcDbVisualStyle
  2

 70
    15
 71
     2
 72
     2
 73
     0
 90
        0
 40
-0.6
 41
-30.0
 62
     5
 63
     7
 74
     1
 91
        4
 64
     7
 65
   257
 75
     1
175
     1
 42
1.0
 92
        8
 66
     7
 43
1.0
 76
     1
 77
     6
 78
     2
 67
     7
 79
     5
170
     0
171
     0
290
     0
174
     0
 93
        1
 44
0.0
173
     0
291
     1
 45
0.0
1001
ACAD
1000
AcDbSavedByObjectVersion
1070
     0
  0
VISUALSTYLE
  5
796
102
{ACAD_XDICTIONARY
360
1CDA
102
}
102
{ACAD_REACTORS
330
795
102
}
330
795
100
AcDbVisualStyle
  2

 70
     0
 71
     2
 72
     1
 73
     1
 90
        2
 40
-0.6
 41
30.0
 62
     5
 63
     7
 74
     0
 91
        0
 64
     7
 65
   257
 75
     1
175
     1
 42
1.0
 92
        8
 66
     7
 43
1.0
 76
     1
 77
     6
 78
     2
 67
     7
 79
     5
170
     0
171
     0
290
     0
174
     0
 93
       13
 44
0.0
173
     0
291
     1
 45
0.0
1001
ACAD
1000
AcDbSavedByObjectVersion
1070
     0
  0
VISUALSTYLE
  5
797
102
{ACAD_XDICTIONARY
360
1CDC
102
}
102
{ACAD_REACTORS
330
795
102
}
330
795
100
AcDbVisualStyle
  2

 70
     1
 71
     2
 72
     1
 73
     1
 90
        2
 40
-0.6
 41
30.0
 62
     5
 63
     7
 74
     1
 91
        0
 64
     7
 65
   257
 75
     1
175
     1
 42
1.0
 92
        0
 66
   257
 43
1.0
 76
     1
 77
     6
 78
     2
 67
     7
 79
     5
170
     0
171
     0
290
     0
174
     0
 93
       13
 44
0.0
173
     0
291
     1
 45
0.0
1001
ACAD
1000
AcDbSavedByObjectVersion
1070
     0
  0
VISUALSTYLE
  5
798
102
{ACAD_XDICTIONARY
360
1CDE
102
}
102
{ACAD_REACTORS
330
795
102
}
330
795
100
AcDbVisualStyle
  2

 70
     2
 71
     2
 72
     2
 73
     1
 90
        2
 40
-0.6
 41
30.0
 62
     5
 63
     7
 74
     0
 91
        0
 64
     7
 65
   257
 75
     1
175
     1
 42
1.0
 92
        0
 66
     7
 43
1.0
 76
     1
 77
     6
 78
     2
 67
     7
 79
     5
170
     0
171
     0
290
     0
174
     0
 93
       13
 44
0.0
173
     0
291
     1
 45
0.0
1001
ACAD
1000
AcDbSavedByObjectVersion
1070
     0
  0
VISUALSTYLE
  5
799
102
{ACAD_XDICTIONARY
360
1CE0
102
}
102
{ACAD_REACTORS
330
795
102
}
330
795
100
AcDbVisualStyle
  2

 70
     3
 71
     2
 72
     2
 73
     1
 90
        2
 40
-0.6
 41
30.0
 62
     5
 63
     7
 74
     1
 91
        0
 64
     7
 65
   257
 75
     1
175
     1
 42
1.0
 92
        0
 66
   257
 43
1.0
 76
     1
 77
     6
 78
     2
 67
     7
 79
     5
170
     0
171
     0
290
     0
174
     0
 93
       13
 44
0.0
173
     0
291
     1
 45
0.0
1001
ACAD
1000
AcDbSavedByObjectVersion
1070
     0
  0
VISUALSTYLE
  5
79D
102
{ACAD_XDICTIONARY
360
1CE8
102
}
102
{ACAD_REACTORS
330
795
102
}
330
795
100
AcDbVisualStyle
  2

 70
     6
 71
     1
 72
     2
 73
     2
 90
        0
 40
-0.6
 41
-30.0
 62
     5
 63
     7
 74
     2
 91
        2
 64
     7
 65
   257
 75
     2
175
     1
 42
40.0
 92
        0
 66
   257
 43
1.0
 76
     1
 77
     6
 78
     2
 67
     7
 79
     3
170
     0
171
     0
290
     0
174
     0
 93
        1
 44
0.0
173
     0
291
     0
 45
0.0
1001
ACAD
1000
AcDbSavedByObjectVersion
1070
     0
  0
VISUALSTYLE
  5
7AB
102
{ACAD_XDICTIONARY
360
1D04
102
}
102
{ACAD_REACTORS
330
795
102
}
330
795
100
AcDbVisualStyle
  2

 70
    20
 71
     2
 72
     2
 73
     0
 90
        0
 40
-0.6
 41
-30.0
 62
     5
 63
     7
 74
     1
 91
        4
 64
     7
 65
   257
 75
     1
175
     1
 42
1.0
 92
       10
 66
     7
 43
1.0
 76
     1
 77
     6
 78
     2
 67
     7
 79
     5
170
     0
171
     0
290
     0
174
     0
 93
        1
 44
0.0
173
     0
291
     1
 45
0.0
1001
ACAD
1000
AcDbSavedByObjectVersion
1070
     0
  0
VISUALSTYLE
  5
7A3
102
{ACAD_XDICTIONARY
360
1CF4
102
}
102
{ACAD_REACTORS
330
795
102
}
330
795
100
AcDbVisualStyle
  2

 70
    14
 71
     2
 72
     2
 73
     0
 90
        0
 40
-0.6
 41
-30.0
 62
     5
 63
     7
 74
     1
 91
        4
 64
     7
 65
   257
 75
     7
175
     7
 42
1.0
 92
        8
 66
     7
 43
1.0
 76
     1
 77
     6
 78
     2
 67
     7
 79
     5
170
     0
171
     0
290
     0
174
     0
 93
        1
 44
0.0
173
     0
291
     1
 45
0.0
1001
ACAD
1000
AcDbSavedByObjectVersion
1070
     0
  0
VISUALSTYLE
  5
7AC
102
{ACAD_XDICTIONARY
360
1D06
102
}
102
{ACAD_REACTORS
330
795
102
}
330
795
100
AcDbVisualStyle
  2

 70
    21
 71
     2
 72
     2
 73
     0
 90
        0
 40
-0.6
 41
-30.0
 62
     5
 63
     7
 74
     1
 91
        4
 64
     7
 65
   257
 75
     1
175
     1
 42
1.0
 92
        9
 66
     7
 43
1.0
 76
     1
 77
     6
 78
     2
 67
     7
 79
     5
170
     0
171
     0
290
     0
174
     0
 93
        1
 44
0.0
173
     0
291
     1
 45
0.0
1001
ACAD
1000
AcDbSavedByObjectVersion
1070
     0
  0
VISUALSTYLE
  5
79F
102
{ACAD_XDICTIONARY
360
1CEC
102
}
102
{ACAD_REACTORS
330
795
102
}
330
795
100
AcDbVisualStyle
  2

 70
     8
 71
     2
 72
     2
 73
     0
 90
        2
 40
-0.6
 41
30.0
 62
     5
 63
     7
 74
     0
 91
        0
 64
     7
 65
   257
 75
     1
175
     1
 42
1.0
 92
        8
 66
   257
 43
1.0
 76
     1
 77
     6
 78
     2
 67
     7
 79
     3
170
     0
171
     0
290
     0
174
     0
 93
       13
 44
0.0
173
     0
291
     0
 45
0.0
1001
ACAD
1000
AcDbSavedByObjectVersion
1070
     0
  0
VISUALSTYLE
  5
7AA
102
{ACAD_XDICTIONARY
360
1D02
102
}
102
{ACAD_REACTORS
330
795
102
}
330
795
100
AcDbVisualStyle
  2

 70
    27
 71
     2
 72
     2
 73
     1
 90
        2
 40
-0.6
 41
30.0
 62
     5
 63
     7
 74
     0
 91
        4
 64
     7
 65
   257
 75
     1
175
     1
 42
1.0
 92
        8
 66
   257
 43
1.0
 76
     1
 77
     6
 78
     2
 67
     8
 79
     3
170
     0
171
     0
290
     0
174
     0
 93
        5
 44
0.0
173
     0
291
     0
 45
0.0
1001
ACAD
1000
AcDbSavedByObjectVersion
1070
     0
  0
VISUALSTYLE
  5
7A9
102
{ACAD_XDICTIONARY
360
1D00
102
}
102
{ACAD_REACTORS
330
795
102
}
330
795
100
AcDbVisualStyle
  2

 70
    26
 71
     2
 72
     2
 73
     1
 90
        2
 40
-0.6
 41
30.0
 62
     5
 63
     7
 74
     1
 91
       10
 64
     7
 65
   257
 75
     2
175
     1
 42
1.0
 92
        8
 66
   257
 43
1.0
 76
     1
 77
     6
 78
     2
 67
     7
 79
     3
170
     0
171
     0
290
     0
174
     0
 93
        5
 44
0.0
173
     0
291
     0
 45
0.0
1001
ACAD
1000
AcDbSavedByObjectVersion
1070
     0
  0
VISUALSTYLE
  5
7A6
102
{ACAD_XDICTIONARY
360
1CFA
102
}
102
{ACAD_REACTORS
330
795
102
}
330
795
100
AcDbVisualStyle
  2

 70
    23
 71
     2
 72
     2
 73
     3
 90
        0
 40
-0.6
 41
-30.0
 62
     5
 63
     7
 74
     2
 91
        2
 64
     7
 65
     7
 75
     1
175
     1
 42
40.0
 92
        8
 66
     7
 43
1.0
 76
     1
 77
     6
 78
     2
 67
     7
 79
     3
170
     0
171
     0
290
     0
174
     0
 93
        1
 44
0.0
173
     0
291
     0
 45
0.0
1001
ACAD
1000
AcDbSavedByObjectVersion
1070
     0
  0
VISUALSTYLE
  5
7A7
102
{ACAD_XDICTIONARY
360
1CFC
102
}
102
{ACAD_REACTORS
330
795
102
}
330
795
100
AcDbVisualStyle
  2

 70
    24
 71
     1
 72
     2
 73
     2
 90
        0
 40
-0.6
 41
-30.0
 62
     5
 63
     7
 74
     2
 91
        2
 64
     7
 65
     7
 75
     1
175
     1
 42
40.0
 92
       11
 66
     7
 43
1.0
 76
     1
 77
     6
 78
     2
 67
     7
 79
     6
170
     0
171
     0
290
     0
174
     0
 93
        1
 44
0.0
173
     0
291
     0
 45
0.0
1001
ACAD
1000
AcDbSavedByObjectVersion
1070
     0
  0
VISUALSTYLE
  5
7A2
102
{ACAD_XDICTIONARY
360
1CF2
102
}
102
{ACAD_REACTORS
330
795
102
}
330
795
100
AcDbVisualStyle
  2

 70
    13
 71
     2
 72
     2
 73
     0
 90
        0
 40
-0.6
 41
-30.0
 62
     5
 63
     7
 74
     1
 91
        4
 64
     7
 65
   257
 75
     1
175
     1
 42
1.0
 92
       12
 66
     7
 43
1.0
 76
     1
 77
     6
 78
     2
 67
     7
 79
     5
170
     0
171
     0
290
     0
174
     0
 93
        1
 44
0.0
173
     0
291
     1
 45
0.0
1001
ACAD
1000
AcDbSavedByObjectVersion
1070
     0
  0
VISUALSTYLE
  5
79C
102
{ACAD_XDICTIONARY
360
1CE6
102
}
102
{ACAD_REACTORS
330
795
102
}
330
795
100
AcDbVisualStyle
  2

 70
     5
 71
     0
 72
     2
 73
     0
 90
        0
 40
-0.6
 41
-30.0
 62
     5
 63
     7
 74
     1
 91
        4
 64
     7
 65
   257
 75
     1
175
     1
 42
1.0
 92
        0
 66
   257
 43
1.0
 76
     1
 77
     6
 78
     2
 67
     7
 79
     3
170
     0
171
     0
290
     0
174
     0
 93
        1
 44
0.0
173
     0
291
     0
 45
0.0
1001
ACAD
1000
AcDbSavedByObjectVersion
1070
     0
  0
VISUALSTYLE
  5
7A8
102
{ACAD_XDICTIONARY
360
1CFE
102
}
102
{ACAD_REACTORS
330
795
102
}
330
795
100
AcDbVisualStyle
  2

 70
    25
 71
     2
 72
     2
 73
     1
 90
        1
 40
0.5
 41
-30.0
 62
     5
 63
     7
 74
     1
 91
        0
 64
     7
 65
   257
 75
     1
175
     1
 42
1.0
 92
        8
 66
     7
 43
1.0
 76
     1
 77
     6
 78
     2
 67
     7
 79
     3
170
     0
171
     0
290
     0
174
     0
 93
       13
 44
0.0
173
     0
291
     0
 45
0.0
1001
ACAD
1000
AcDbSavedByObjectVersion
1070
     0
  0
DICTIONARYVAR
  5
858
102
{ACAD_REACTORS
330
853
102
}
330
853
100
DictionaryVariables
280
     0
  1
1:1
  0
DICTIONARYVAR
  5
855
102
{ACAD_REACTORS
330
853
102
}
330
853
100
DictionaryVariables
280
     0
  1
STANDARD
  0
DICTIONARYVAR
  5
854
102
{ACAD_REACTORS
330
853
102
}
330
853
100
DictionaryVariables
280
     0
  1
STANDARD
  0
DICTIONARYVAR
  5
856
102
{ACAD_REACTORS
330
853
102
}
330
853
100
DictionaryVariables
280
     0
  1
Metric50
  0
DICTIONARYVAR
  5
857
102
{ACAD_REACTORS
330
853
102
}
330
853
100
DictionaryVariables
280
     0
  1
Metric50
  0
DICTIONARYVAR
  5
1488
102
{ACAD_REACTORS
330
853
102
}
330
853
100
DictionaryVariables
280
     0
  1
1
  0
DICTIONARYVAR
  5
1487
102
{ACAD_REACTORS
330
853
102
}
330
853
100
DictionaryVariables
280
     0
  1
0
  0
DICTIONARYVAR
  5
8B2
102
{ACAD_REACTORS
330
853
102
}
330
853
100
DictionaryVariables
280
     0
  1
1
  0
DICTIONARYVAR
  5
8B3
102
{ACAD_REACTORS
330
853
102
}
330
853
100
DictionaryVariables
280
     0
  1
15
  0
DICTIONARYVAR
  5
8B1
102
{ACAD_REACTORS
330
853
102
}
330
853
100
DictionaryVariables
280
     0
  1
0
  0
DICTIONARYVAR
  5
8B0
102
{ACAD_REACTORS
330
853
102
}
330
853
100
DictionaryVariables
280
     0
  1
0
  0
DICTIONARYVAR
  5
1486
102
{ACAD_REACTORS
330
853
102
}
330
853
100
DictionaryVariables
280
     0
  1
127
  0
DICTIONARYVAR
  5
1C63
102
{ACAD_REACTORS
330
853
102
}
330
853
100
DictionaryVariables
280
     0
  1
2
  0
XRECORD
  5
560
102
{ACAD_REACTORS
330
540
102
}
330
540
100
AcDbXrecord
280
     1
  1
2.0.0
  0
DICTIONARY
  5
1D13
330
B36
100
AcDbDictionary
280
     1
281
     1
  3
ACAD_XREC_ROUNDTRIP
360
1D14
  0
DICTIONARY
  5
1D0F
330
7C8
100
AcDbDictionary
280
     1
281
     1
  3
ACAD_XREC_ROUNDTRIP
360
1D10
  0
DICTIONARY
  5
1CC6
330
567
100
AcDbDictionary
280
     1
281
     1
  3
ACAD_XREC_ROUNDTRIP
360
1CC7
  0
DICTIONARY
  5
1CC8
330
568
100
AcDbDictionary
280
     1
281
     1
  3
ACAD_XREC_ROUNDTRIP
360
1CC9
  0
DICTIONARY
  5
786
330
785
100
AcDbDictionary
280
     1
281
     1
  3
ACAD_XREC_ROUNDTRIP
360
1A96
  3
BUMPTILE
360
788
  3
DIFFUSETILE
360
787
  3
OPACITYTILE
360
78B
  3
REFLECTIONTILE
360
78A
  3
REFRACTIONTILE
360
78C
  3
SPECULARTILE
360
789
  0
DICTIONARY
  5
77E
330
77D
100
AcDbDictionary
280
     1
281
     1
  3
ACAD_XREC_ROUNDTRIP
360
1A95
  3
BUMPTILE
360
780
  3
DIFFUSETILE
360
77F
  3
OPACITYTILE
360
783
  3
REFLECTIONTILE
360
782
  3
REFRACTIONTILE
360
784
  3
SPECULARTILE
360
781
  0
DICTIONARY
  5
78E
330
78D
100
AcDbDictionary
280
     1
281
     1
  3
ACAD_XREC_ROUNDTRIP
360
1A97
  3
BUMPTILE
360
790
  3
DIFFUSETILE
360
78F
  3
OPACITYTILE
360
793
  3
REFLECTIONTILE
360
792
  3
REFRACTIONTILE
360
794
  3
SPECULARTILE
360
791
  0
DICTIONARY
  5
1D0B
330
7C4
100
AcDbDictionary
280
     1
281
     1
  3
ACAD_XREC_ROUNDTRIP
360
1D0C
  0
DICTIONARY
  5
1CCA
330
772
100
AcDbDictionary
280
     1
281
     1
  3
ACAD_XREC_ROUNDTRIP
360
1CCB
  0
DICTIONARY
  5
1CCC
330
773
100
AcDbDictionary
280
     1
281
     1
  3
ACAD_XREC_ROUNDTRIP
360
1CCD
  0
DICTIONARY
  5
1CCE
330
774
100
AcDbDictionary
280
     1
281
     1
  3
ACAD_XREC_ROUNDTRIP
360
1CCF
  0
DICTIONARY
  5
1CD0
330
775
100
AcDbDictionary
280
     1
281
     1
  3
ACAD_XREC_ROUNDTRIP
360
1CD1
  0
DICTIONARY
  5
1CD2
330
776
100
AcDbDictionary
280
     1
281
     1
  3
ACAD_XREC_ROUNDTRIP
360
1CD3
  0
DICTIONARY
  5
1CD4
330
777
100
AcDbDictionary
280
     1
281
     1
  3
ACAD_XREC_ROUNDTRIP
360
1CD5
  0
DICTIONARY
  5
1CD6
330
778
100
AcDbDictionary
280
     1
281
     1
  3
ACAD_XREC_ROUNDTRIP
360
1CD7
  0
DICTIONARY
  5
1CD8
330
779
100
AcDbDictionary
280
     1
281
     1
  3
ACAD_XREC_ROUNDTRIP
360
1CD9
  0
DICTIONARY
  5
1D11
330
B35
100
AcDbDictionary
280
     1
281
     1
  3
ACAD_XREC_ROUNDTRIP
360
1D12
  0
DICTIONARY
  5
1D0D
330
7C6
100
AcDbDictionary
280
     1
281
     1
  3
ACAD_XREC_ROUNDTRIP
360
1D0E
  0
DICTIONARY
  5
811
330
7B0
100
AcDbDictionary
280
     1
281
     1
  3
ACAD_ROUNDTRIP_2008_TABLESTYLE_CELLSTYLEMAP
360
1CC1
  3
ACAD_XREC_ROUNDTRIP
360
1D0A
  0
DICTIONARY
  5
1CE4
330
79B
100
AcDbDictionary
280
     1
281
     1
  3
ACAD_XREC_ROUNDTRIP
360
1CE5
  0
DICTIONARY
  5
1CE2
330
79A
100
AcDbDictionary
280
     1
281
     1
  3
ACAD_XREC_ROUNDTRIP
360
1CE3
  0
DICTIONARY
  5
1CF0
330
7A1
100
AcDbDictionary
280
     1
281
     1
  3
ACAD_XREC_ROUNDTRIP
360
1CF1
  0
DICTIONARY
  5
1CF8
330
7A5
100
AcDbDictionary
280
     1
281
     1
  3
ACAD_XREC_ROUNDTRIP
360
1CF9
  0
DICTIONARY
  5
1CEA
330
79E
100
AcDbDictionary
280
     1
281
     1
  3
ACAD_XREC_ROUNDTRIP
360
1CEB
  0
DICTIONARY
  5
1CEE
330
7A0
100
AcDbDictionary
280
     1
281
     1
  3
ACAD_XREC_ROUNDTRIP
360
1CEF
  0
DICTIONARY
  5
1D08
330
7AD
100
AcDbDictionary
280
     1
281
     1
  3
ACAD_XREC_ROUNDTRIP
360
1D09
  0
DICTIONARY
  5
1CF6
330
7A4
100
AcDbDictionary
280
     1
281
     1
  3
ACAD_XREC_ROUNDTRIP
360
1CF7
  0
DICTIONARY
  5
1CDA
330
796
100
AcDbDictionary
280
     1
281
     1
  3
ACAD_XREC_ROUNDTRIP
360
1CDB
  0
DICTIONARY
  5
1CDC
330
797
100
AcDbDictionary
280
     1
281
     1
  3
ACAD_XREC_ROUNDTRIP
360
1CDD
  0
DICTIONARY
  5
1CDE
330
798
100
AcDbDictionary
280
     1
281
     1
  3
ACAD_XREC_ROUNDTRIP
360
1CDF
  0
DICTIONARY
  5
1CE0
330
799
100
AcDbDictionary
280
     1
281
     1
  3
ACAD_XREC_ROUNDTRIP
360
1CE1
  0
DICTIONARY
  5
1CE8
330
79D
100
AcDbDictionary
280
     1
281
     1
  3
ACAD_XREC_ROUNDTRIP
360
1CE9
  0
DICTIONARY
  5
1D04
330
7AB
100
AcDbDictionary
280
     1
281
     1
  3
ACAD_XREC_ROUNDTRIP
360
1D05
  0
DICTIONARY
  5
1CF4
330
7A3
100
AcDbDictionary
280
     1
281
     1
  3
ACAD_XREC_ROUNDTRIP
360
1CF5
  0
DICTIONARY
  5
1D06
330
7AC
100
AcDbDictionary
280
     1
281
     1
  3
ACAD_XREC_ROUNDTRIP
360
1D07
  0
DICTIONARY
  5
1CEC
330
79F
100
AcDbDictionary
280
     1
281
     1
  3
ACAD_XREC_ROUNDTRIP
360
1CED
  0
DICTIONARY
  5
1D02
330
7AA
100
AcDbDictionary
280
     1
281
     1
  3
ACAD_XREC_ROUNDTRIP
360
1D03
  0
DICTIONARY
  5
1D00
330
7A9
100
AcDbDictionary
280
     1
281
     1
  3
ACAD_XREC_ROUNDTRIP
360
1D01
  0
DICTIONARY
  5
1CFA
330
7A6
100
AcDbDictionary
280
     1
281
     1
  3
ACAD_XREC_ROUNDTRIP
360
1CFB
  0
DICTIONARY
  5
1CFC
330
7A7
100
AcDbDictionary
280
     1
281
     1
  3
ACAD_XREC_ROUNDTRIP
360
1CFD
  0
DICTIONARY
  5
1CF2
330
7A2
100
AcDbDictionary
280
     1
281
     1
  3
ACAD_XREC_ROUNDTRIP
360
1CF3
  0
DICTIONARY
  5
1CE6
330
79C
100
AcDbDictionary
280
     1
281
     1
  3
ACAD_XREC_ROUNDTRIP
360
1CE7
  0
DICTIONARY
  5
1CFE
330
7A8
100
AcDbDictionary
280
     1
281
     1
  3
ACAD_XREC_ROUNDTRIP
360
1CFF
  0
XRECORD
  5
1D14
102
{ACAD_REACTORS
330
1D13
102
}
330
1D13
100
AcDbXrecord
280
     1
102
DISPLAYNAME
  1
Imperial24
102
FLAGS
 90
        0
  0
XRECORD
  5
1D10
102
{ACAD_REACTORS
330
1D0F
102
}
330
1D0F
100
AcDbXrecord
280
     1
102
DISPLAYNAME
  1
Metric50
102
FLAGS
 90
        0
  0
XRECORD
  5
1CC7
102
{ACAD_REACTORS
330
1CC6
102
}
330
1CC6
100
AcDbXrecord
280
     1
102
SHADEPLOT
 70
     0
102
SHADEPLOTRESLEVEL
 70
     2
102
SHADEPLOTCUSTOMDPI
 70
   300
  0
XRECORD
  5
1CC9
102
{ACAD_REACTORS
330
1CC8
102
}
330
1CC8
100
AcDbXrecord
280
     1
102
SHADEPLOT
 70
     0
102
SHADEPLOTRESLEVEL
 70
     2
102
SHADEPLOTCUSTOMDPI
 70
   300
  0
XRECORD
  5
1A96
102
{ACAD_REACTORS
330
786
102
}
330
786
100
AcDbXrecord
280
     1
102
MATERIAL
148
0.0
149
0.0
149
0.0
 93
        0
 94
      127
282
     0
 72
     0
 77
     0
171
     0
175
     0
179
     0
273
     0
  0
XRECORD
  5
788
102
{ACAD_REACTORS
330
786
102
}
330
786
100
AcDbXrecord
280
     1
270
     1
271
     1
  0
XRECORD
  5
787
102
{ACAD_REACTORS
330
786
102
}
330
786
100
AcDbXrecord
280
     1
270
     1
271
     1
  0
XRECORD
  5
78B
102
{ACAD_REACTORS
330
786
102
}
330
786
100
AcDbXrecord
280
     1
270
     1
271
     1
  0
XRECORD
  5
78A
102
{ACAD_REACTORS
330
786
102
}
330
786
100
AcDbXrecord
280
     1
270
     1
271
     1
  0
XRECORD
  5
78C
102
{ACAD_REACTORS
330
786
102
}
330
786
100
AcDbXrecord
280
     1
270
     1
271
     1
  0
XRECORD
  5
789
102
{ACAD_REACTORS
330
786
102
}
330
786
100
AcDbXrecord
280
     1
270
     1
271
     1
  0
XRECORD
  5
1A95
102
{ACAD_REACTORS
330
77E
102
}
330
77E
100
AcDbXrecord
280
     1
102
MATERIAL
148
0.0
149
0.0
149
0.0
 93
        0
 94
      127
282
     0
 72
     0
 77
     0
171
     0
175
     0
179
     0
273
     0
  0
XRECORD
  5
780
102
{ACAD_REACTORS
330
77E
102
}
330
77E
100
AcDbXrecord
280
     1
270
     1
271
     1
  0
XRECORD
  5
77F
102
{ACAD_REACTORS
330
77E
102
}
330
77E
100
AcDbXrecord
280
     1
270
     1
271
     1
  0
XRECORD
  5
783
102
{ACAD_REACTORS
330
77E
102
}
330
77E
100
AcDbXrecord
280
     1
270
     1
271
     1
  0
XRECORD
  5
782
102
{ACAD_REACTORS
330
77E
102
}
330
77E
100
AcDbXrecord
280
     1
270
     1
271
     1
  0
XRECORD
  5
784
102
{ACAD_REACTORS
330
77E
102
}
330
77E
100
AcDbXrecord
280
     1
270
     1
271
     1
  0
XRECORD
  5
781
102
{ACAD_REACTORS
330
77E
102
}
330
77E
100
AcDbXrecord
280
     1
270
     1
271
     1
  0
XRECORD
  5
1A97
102
{ACAD_REACTORS
330
78E
102
}
330
78E
100
AcDbXrecord
280
     1
102
MATERIAL
148
0.0
149
0.0
149
0.0
 93
        0
 94
      127
282
     0
 72
     0
 77
     0
171
     0
175
     0
179
     0
273
     0
  0
XRECORD
  5
790
102
{ACAD_REACTORS
330
78E
102
}
330
78E
100
AcDbXrecord
280
     1
270
     1
271
     1
  0
XRECORD
  5
78F
102
{ACAD_REACTORS
330
78E
102
}
330
78E
100
AcDbXrecord
280
     1
270
     1
271
     1
  0
XRECORD
  5
793
102
{ACAD_REACTORS
330
78E
102
}
330
78E
100
AcDbXrecord
280
     1
270
     1
271
     1
  0
XRECORD
  5
792
102
{ACAD_REACTORS
330
78E
102
}
330
78E
100
AcDbXrecord
280
     1
270
     1
271
     1
  0
XRECORD
  5
794
102
{ACAD_REACTORS
330
78E
102
}
330
78E
100
AcDbXrecord
280
     1
270
     1
271
     1
  0
XRECORD
  5
791
102
{ACAD_REACTORS
330
78E
102
}
330
78E
100
AcDbXrecord
280
     1
270
     1
271
     1
  0
XRECORD
  5
1D0C
102
{ACAD_REACTORS
330
1D0B
102
}
330
1D0B
100
AcDbXrecord
280
     1
102
ACAD_ROUNDTRIP_2012_MLEADER_STYLE
298
     1
  0
XRECORD
  5
1CCB
102
{ACAD_REACTORS
330
1CCA
102
}
330
1CCA
100
AcDbXrecord
280
     1
102
SHADEPLOT
 70
     0
102
SHADEPLOTRESLEVEL
 70
     2
102
SHADEPLOTCUSTOMDPI
 70
   300
  0
XRECORD
  5
1CCD
102
{ACAD_REACTORS
330
1CCC
102
}
330
1CCC
100
AcDbXrecord
280
     1
102
SHADEPLOT
 70
     0
102
SHADEPLOTRESLEVEL
 70
     2
102
SHADEPLOTCUSTOMDPI
 70
   300
  0
XRECORD
  5
1CCF
102
{ACAD_REACTORS
330
1CCE
102
}
330
1CCE
100
AcDbXrecord
280
     1
102
SHADEPLOT
 70
     0
102
SHADEPLOTRESLEVEL
 70
     2
102
SHADEPLOTCUSTOMDPI
 70
   300
  0
XRECORD
  5
1CD1
102
{ACAD_REACTORS
330
1CD0
102
}
330
1CD0
100
AcDbXrecord
280
     1
102
SHADEPLOT
 70
     0
102
SHADEPLOTRESLEVEL
 70
     2
102
SHADEPLOTCUSTOMDPI
 70
   300
  0
XRECORD
  5
1CD3
102
{ACAD_REACTORS
330
1CD2
102
}
330
1CD2
100
AcDbXrecord
280
     1
102
SHADEPLOT
 70
     0
102
SHADEPLOTRESLEVEL
 70
     2
102
SHADEPLOTCUSTOMDPI
 70
   300
  0
XRECORD
  5
1CD5
102
{ACAD_REACTORS
330
1CD4
102
}
330
1CD4
100
AcDbXrecord
280
     1
102
SHADEPLOT
 70
     0
102
SHADEPLOTRESLEVEL
 70
     2
102
SHADEPLOTCUSTOMDPI
 70
   300
  0
XRECORD
  5
1CD7
102
{ACAD_REACTORS
330
1CD6
102
}
330
1CD6
100
AcDbXrecord
280
     1
102
SHADEPLOT
 70
     0
102
SHADEPLOTRESLEVEL
 70
     2
102
SHADEPLOTCUSTOMDPI
 70
   300
  0
XRECORD
  5
1CD9
102
{ACAD_REACTORS
330
1CD8
102
}
330
1CD8
100
AcDbXrecord
280
     1
102
SHADEPLOT
 70
     0
102
SHADEPLOTRESLEVEL
 70
     2
102
SHADEPLOTCUSTOMDPI
 70
   300
  0
XRECORD
  5
1D12
102
{ACAD_REACTORS
330
1D11
102
}
330
1D11
100
AcDbXrecord
280
     1
102
DISPLAYNAME
  1
Imperial24
102
FLAGS
 90
        0
  0
XRECORD
  5
1D0E
102
{ACAD_REACTORS
330
1D0D
102
}
330
1D0D
100
AcDbXrecord
280
     1
102
DISPLAYNAME
  1
Metric50
102
FLAGS
 90
        0
  0
CELLSTYLEMAP
  5
1CC1
102
{ACAD_REACTORS
330
811
102
}
330
811
100
AcDbCellStyleMap
 90
        3
300
CELLSTYLE
  1
TABLEFORMAT_BEGIN
 90
        5
170
     1
 91
        0
 92
    32768
 62
   257
 93
        1
300
CONTENTFORMAT
  1
CONTENTFORMAT_BEGIN
 90
        0
 91
        0
 92
      512
 93
        0
300

 40
0.0
140
1.0
 94
        5
 62
     0
340
10
144
6.0
309
CONTENTFORMAT_END
171
     1
301
MARGIN
  1
CELLMARGIN_BEGIN
 40
1.5
 40
1.5
 40
1.5
 40
1.5
 40
0.18
 40
0.18
309
CELLMARGIN_END
 94
        6
 95
        1
302
GRIDFORMAT
  1
GRIDFORMAT_BEGIN
 90
        0
 91
        1
 62
     0
 92
       -2
340
0
 93
        0
 40
1.125
309
GRIDFORMAT_END
 95
        2
302
GRIDFORMAT
  1
GRIDFORMAT_BEGIN
 90
        0
 91
        1
 62
     0
 92
       -2
340
0
 93
        0
 40
1.125
309
GRIDFORMAT_END
 95
        4
302
GRIDFORMAT
  1
GRIDFORMAT_BEGIN
 90
        0
 91
        1
 62
     0
 92
       -2
340
0
 93
        0
 40
1.125
309
GRIDFORMAT_END
 95
        8
302
GRIDFORMAT
  1
GRIDFORMAT_BEGIN
 90
        0
 91
        1
 62
     0
 92
       -2
340
0
 93
        0
 40
1.125
309
GRIDFORMAT_END
 95
       16
302
GRIDFORMAT
  1
GRIDFORMAT_BEGIN
 90
        0
 91
        1
 62
     0
 92
       -2
340
0
 93
        0
 40
1.125
309
GRIDFORMAT_END
 95
       32
302
GRIDFORMAT
  1
GRIDFORMAT_BEGIN
 90
        0
 91
        1
 62
     0
 92
       -2
340
0
 93
        0
 40
1.125
309
GRIDFORMAT_END
309
TABLEFORMAT_END
  1
CELLSTYLE_BEGIN
 90
        1
 91
        1
300
_TITLE
309
CELLSTYLE_END
300
CELLSTYLE
  1
TABLEFORMAT_BEGIN
 90
        5
170
     1
 91
        0
 92
        0
 62
   257
 93
        1
300
CONTENTFORMAT
  1
CONTENTFORMAT_BEGIN
 90
        0
 91
        0
 92
      512
 93
        0
300

 40
0.0
140
1.0
 94
        5
 62
     0
340
10
144
4.5
309
CONTENTFORMAT_END
171
     1
301
MARGIN
  1
CELLMARGIN_BEGIN
 40
1.5
 40
1.5
 40
1.5
 40
1.5
 40
0.18
 40
0.18
309
CELLMARGIN_END
 94
        6
 95
        1
302
GRIDFORMAT
  1
GRIDFORMAT_BEGIN
 90
        0
 91
        1
 62
     0
 92
       -2
340
0
 93
        0
 40
1.125
309
GRIDFORMAT_END
 95
        2
302
GRIDFORMAT
  1
GRIDFORMAT_BEGIN
 90
        0
 91
        1
 62
     0
 92
       -2
340
0
 93
        0
 40
1.125
309
GRIDFORMAT_END
 95
        4
302
GRIDFORMAT
  1
GRIDFORMAT_BEGIN
 90
        0
 91
        1
 62
     0
 92
       -2
340
0
 93
        0
 40
1.125
309
GRIDFORMAT_END
 95
        8
302
GRIDFORMAT
  1
GRIDFORMAT_BEGIN
 90
        0
 91
        1
 62
     0
 92
       -2
340
0
 93
        0
 40
1.125
309
GRIDFORMAT_END
 95
       16
302
GRIDFORMAT
  1
GRIDFORMAT_BEGIN
 90
        0
 91
        1
 62
     0
 92
       -2
340
0
 93
        0
 40
1.125
309
GRIDFORMAT_END
 95
       32
302
GRIDFORMAT
  1
GRIDFORMAT_BEGIN
 90
        0
 91
        1
 62
     0
 92
       -2
340
0
 93
        0
 40
1.125
309
GRIDFORMAT_END
309
TABLEFORMAT_END
  1
CELLSTYLE_BEGIN
 90
        2
 91
        1
300
_HEADER
309
CELLSTYLE_END
300
CELLSTYLE
  1
TABLEFORMAT_BEGIN
 90
        5
170
     1
 91
        0
 92
        0
 62
   257
 93
        1
300
CONTENTFORMAT
  1
CONTENTFORMAT_BEGIN
 90
        0
 91
        0
 92
      512
 93
        0
300

 40
0.0
140
1.0
 94
        2
 62
     0
340
10
144
4.5
309
CONTENTFORMAT_END
171
     1
301
MARGIN
  1
CELLMARGIN_BEGIN
 40
1.5
 40
1.5
 40
1.5
 40
1.5
 40
0.18
 40
0.18
309
CELLMARGIN_END
 94
        6
 95
        1
302
GRIDFORMAT
  1
GRIDFORMAT_BEGIN
 90
        0
 91
        1
 62
     0
 92
       -2
340
0
 93
        0
 40
1.125
309
GRIDFORMAT_END
 95
        2
302
GRIDFORMAT
  1
GRIDFORMAT_BEGIN
 90
        0
 91
        1
 62
     0
 92
       -2
340
0
 93
        0
 40
1.125
309
GRIDFORMAT_END
 95
        4
302
GRIDFORMAT
  1
GRIDFORMAT_BEGIN
 90
        0
 91
        1
 62
     0
 92
       -2
340
0
 93
        0
 40
1.125
309
GRIDFORMAT_END
 95
        8
302
GRIDFORMAT
  1
GRIDFORMAT_BEGIN
 90
        0
 91
        1
 62
     0
 92
       -2
340
0
 93
        0
 40
1.125
309
GRIDFORMAT_END
 95
       16
302
GRIDFORMAT
  1
GRIDFORMAT_BEGIN
 90
        0
 91
        1
 62
     0
 92
       -2
340
0
 93
        0
 40
1.125
309
GRIDFORMAT_END
 95
       32
302
GRIDFORMAT
  1
GRIDFORMAT_BEGIN
 90
        0
 91
        1
 62
     0
 92
       -2
340
0
 93
        0
 40
1.125
309
GRIDFORMAT_END
309
TABLEFORMAT_END
  1
CELLSTYLE_BEGIN
 90
        3
 91
        2
300
_DATA
309
CELLSTYLE_END
  0
XRECORD
  5
1D0A
102
{ACAD_REACTORS
330
811
102
}
330
811
100
AcDbXrecord
280
     1
102
ACAD_ROUNDTRIP_PRE2007_TABLESTYLE
 90
      512
 91
        0
  1

 92
      512
 93
        0
  2

 94
      512
 95
        0
  3

  0
XRECORD
  5
1CE5
102
{ACAD_REACTORS
330
1CE4
102
}
330
1CE4
100
AcDbXrecord
280
     1
102
RTVSPost2010Prop28
280
     1
102
RTVSPost2010PropOp28
 70
     1
102
RTVSPost2010Prop29
280
     1
102
RTVSPost2010PropOp29
 70
     1
102
RTVSPost2010Prop30
280
     0
102
RTVSPost2010PropOp30
 70
     1
102
RTVSPost2010Prop31
280
     0
102
RTVSPost2010PropOp31
 70
     1
102
RTVSPost2010Prop32
280
     0
102
RTVSPost2010PropOp32
 70
     1
102
RTVSPost2010Prop33
280
     0
102
RTVSPost2010PropOp33
 70
     1
102
RTVSPost2010Prop34
280
     0
102
RTVSPost2010PropOp34
 70
     1
102
RTVSPost2010Prop35
280
     0
102
RTVSPost2010PropOp35
 70
     1
102
RTVSPost2010Prop36
280
     0
102
RTVSPost2010PropOp36
 70
     1
102
RTVSPost2010Prop37
 90
       50
102
RTVSPost2010PropOp37
 70
     1
102
RTVSPost2010Prop38
140
0.0
102
RTVSPost2010PropOp38
 70
     1
102
RTVSPost2010Prop39
140
1.0
102
RTVSPost2010PropOp39
 70
     1
102
RTVSPost2010Prop40
 90
        0
102
RTVSPost2010PropOp40
 70
     1
102
RTVSPost2010Prop41ColorIndex
 90
       18
102
RTVSPost2010Prop41ColorRGB
 90
        0
102
RTVSPost2010PropOp41
 70
     1
102
RTVSPost2010Prop42
 90
       50
102
RTVSPost2010PropOp42
 70
     1
102
RTVSPost2010Prop43
 90
        3
102
RTVSPost2010PropOp43
 70
     1
102
RTVSPost2010Prop44ColorIndex
 90
        5
102
RTVSPost2010Prop44ColorRGB
 90
      255
102
RTVSPost2010PropOp44
 70
     1
102
RTVSPost2010Prop45
280
     0
102
RTVSPost2010PropOp45
 70
     1
102
RTVSPost2010Prop46
 90
       50
102
RTVSPost2010PropOp46
 70
     1
102
RTVSPost2010Prop47
 90
       50
102
RTVSPost2010PropOp47
 70
     1
102
RTVSPost2010Prop48
 90
       50
102
RTVSPost2010PropOp48
 70
     1
102
RTVSPost2010Prop49
280
     0
102
RTVSPost2010PropOp49
 70
     1
102
RTVSPost2010Prop50
 90
       50
102
RTVSPost2010PropOp50
 70
     1
102
RTVSPost2010Prop51ColorIndex
 90
      256
102
RTVSPost2010Prop51ColorRGB
 90
-16777216
102
RTVSPost2010PropOp51
 70
     0
102
RTVSPost2010Prop52
140
1.0
102
RTVSPost2010PropOp52
 70
     0
102
RTVSPost2010Prop53
 90
        2
102
RTVSPost2010PropOp53
 70
     1
102
RTVSPost2010Prop54
  1
strokes_ogs.tif
102
RTVSPost2010PropOp54
 70
     1
102
RTVSPost2010Prop55
280
     0
102
RTVSPost2010PropOp55
 70
     1
102
RTVSPost2010Prop56
140
1.0
102
RTVSPost2010PropOp56
 70
     1
102
RTVSPost2010Prop57
140
1.0
102
RTVSPost2010PropOp57
 70
     1
102
RTVSPropertyOp0
 70
     1
102
RTVSPropertyOp1
 70
     1
102
RTVSPropertyOp2
 70
     1
102
RTVSPropertyOp3
 70
     1
102
RTVSPropertyOp4
 70
     1
102
RTVSPropertyOp5
 70
     1
102
RTVSPropertyOp6
 70
     1
102
RTVSPropertyOp7
 70
     1
102
RTVSPropertyOp8
 70
     1
102
RTVSPropertyOp9
 70
     1
102
RTVSPropertyOp10
 70
     1
102
RTVSPropertyOp11
 70
     1
102
RTVSPropertyOp12
 70
     1
102
RTVSPropertyOp13
 70
     1
102
RTVSPropertyOp14
 70
     1
102
RTVSPropertyOp15
 70
     1
102
RTVSPropertyOp16
 70
     1
102
RTVSPropertyOp17
 70
     1
102
RTVSPropertyOp18
 70
     1
102
RTVSPropertyOp19
 70
     1
102
RTVSPropertyOp20
 70
     1
102
RTVSPropertyOp21
 70
     1
102
RTVSPropertyOp22
 70
     1
102
RTVSPropertyOp23
 70
     1
102
RTVSPropertyOp24
 70
     1
102
RTVSPropertyOp25
 70
     1
102
RTVSPropertyOp26
 70
     1
102
RTVSPropertyOp27
 70
     1
102
RTVSPropertyOp28
 70
     1
102
RTVSPropertyOp29
 70
     1
102
RTVSPropertyOp30
 70
     1
102
RTVSPropertyOp31
 70
     1
102
RTVSPropertyOp32
 70
     1
102
RTVSPropertyOp33
 70
     1
102
RTVSPropertyOp34
 70
     1
102
RTVSPropertyOp35
 70
     1
102
RTVSPropertyOp36
 70
     1
102
RTVSPropertyOp37
 70
     1
102
RTVSPropertyOp38
 70
     1
102
RTVSPropertyOp39
 70
     1
102
RTVSPropertyOp40
 70
     1
102
RTVSPropertyOp41
 70
     1
102
RTVSPropertyOp42
 70
     1
102
RTVSPropertyOp43
 70
     1
102
RTVSPropertyOp44
 70
     1
102
RTVSPropertyOp45
 70
     1
102
RTVSPropertyOp46
 70
     1
102
RTVSPropertyOp47
 70
     1
102
RTVSPropertyOp48
 70
     1
102
RTVSPropertyOp49
 70
     1
102
RTVSPropertyOp50
 70
     1
102
RTVSPropertyOp51
 70
     0
102
RTVSPropertyOp52
 70
     0
102
RTVSPropertyOp53
 70
     1
102
RTVSPropertyOp54
 70
     1
102
RTVSPropertyOp55
 70
     1
102
RTVSPropertyOp56
 70
     1
102
RTVSPropertyOp57
 70
     1
102
RTVSPropertyOp58
 70
     1
102
RTVSPropertyOp59
 70
     1
102
RTVSPropertyOp60
 70
     1
102
RTVSPropertyOp61
 70
     1
102
RTVSPropertyOp62
 70
     1
  0
XRECORD
  5
1CE3
102
{ACAD_REACTORS
330
1CE2
102
}
330
1CE2
100
AcDbXrecord
280
     1
102
RTVSPost2010Prop28
280
     0
102
RTVSPost2010PropOp28
 70
     1
102
RTVSPost2010Prop29
280
     1
102
RTVSPost2010PropOp29
 70
     1
102
RTVSPost2010Prop30
280
     1
102
RTVSPost2010PropOp30
 70
     1
102
RTVSPost2010Prop31
280
     0
102
RTVSPost2010PropOp31
 70
     1
102
RTVSPost2010Prop32
280
     0
102
RTVSPost2010PropOp32
 70
     1
102
RTVSPost2010Prop33
280
     0
102
RTVSPost2010PropOp33
 70
     1
102
RTVSPost2010Prop34
280
     0
102
RTVSPost2010PropOp34
 70
     1
102
RTVSPost2010Prop35
280
     0
102
RTVSPost2010PropOp35
 70
     1
102
RTVSPost2010Prop36
280
     0
102
RTVSPost2010PropOp36
 70
     1
102
RTVSPost2010Prop37
 90
       50
102
RTVSPost2010PropOp37
 70
     1
102
RTVSPost2010Prop38
140
0.0
102
RTVSPost2010PropOp38
 70
     1
102
RTVSPost2010Prop39
140
1.0
102
RTVSPost2010PropOp39
 70
     1
102
RTVSPost2010Prop40
 90
        0
102
RTVSPost2010PropOp40
 70
     1
102
RTVSPost2010Prop41ColorIndex
 90
       18
102
RTVSPost2010Prop41ColorRGB
 90
        0
102
RTVSPost2010PropOp41
 70
     1
102
RTVSPost2010Prop42
 90
       50
102
RTVSPost2010PropOp42
 70
     1
102
RTVSPost2010Prop43
 90
        3
102
RTVSPost2010PropOp43
 70
     1
102
RTVSPost2010Prop44ColorIndex
 90
        5
102
RTVSPost2010Prop44ColorRGB
 90
      255
102
RTVSPost2010PropOp44
 70
     1
102
RTVSPost2010Prop45
280
     0
102
RTVSPost2010PropOp45
 70
     1
102
RTVSPost2010Prop46
 90
       50
102
RTVSPost2010PropOp46
 70
     1
102
RTVSPost2010Prop47
 90
       50
102
RTVSPost2010PropOp47
 70
     1
102
RTVSPost2010Prop48
 90
       50
102
RTVSPost2010PropOp48
 70
     1
102
RTVSPost2010Prop49
280
     0
102
RTVSPost2010PropOp49
 70
     1
102
RTVSPost2010Prop50
 90
       50
102
RTVSPost2010PropOp50
 70
     1
102
RTVSPost2010Prop51ColorIndex
 90
      256
102
RTVSPost2010Prop51ColorRGB
 90
-16777216
102
RTVSPost2010PropOp51
 70
     0
102
RTVSPost2010Prop52
140
1.0
102
RTVSPost2010PropOp52
 70
     0
102
RTVSPost2010Prop53
 90
        2
102
RTVSPost2010PropOp53
 70
     1
102
RTVSPost2010Prop54
  1
strokes_ogs.tif
102
RTVSPost2010PropOp54
 70
     1
102
RTVSPost2010Prop55
280
     0
102
RTVSPost2010PropOp55
 70
     1
102
RTVSPost2010Prop56
140
1.0
102
RTVSPost2010PropOp56
 70
     1
102
RTVSPost2010Prop57
140
1.0
102
RTVSPost2010PropOp57
 70
     1
102
RTVSPropertyOp0
 70
     1
102
RTVSPropertyOp1
 70
     1
102
RTVSPropertyOp2
 70
     1
102
RTVSPropertyOp3
 70
     1
102
RTVSPropertyOp4
 70
     1
102
RTVSPropertyOp5
 70
     1
102
RTVSPropertyOp6
 70
     1
102
RTVSPropertyOp7
 70
     1
102
RTVSPropertyOp8
 70
     1
102
RTVSPropertyOp9
 70
     1
102
RTVSPropertyOp10
 70
     1
102
RTVSPropertyOp11
 70
     1
102
RTVSPropertyOp12
 70
     1
102
RTVSPropertyOp13
 70
     1
102
RTVSPropertyOp14
 70
     1
102
RTVSPropertyOp15
 70
     1
102
RTVSPropertyOp16
 70
     1
102
RTVSPropertyOp17
 70
     1
102
RTVSPropertyOp18
 70
     1
102
RTVSPropertyOp19
 70
     1
102
RTVSPropertyOp20
 70
     1
102
RTVSPropertyOp21
 70
     1
102
RTVSPropertyOp22
 70
     1
102
RTVSPropertyOp23
 70
     1
102
RTVSPropertyOp24
 70
     1
102
RTVSPropertyOp25
 70
     1
102
RTVSPropertyOp26
 70
     1
102
RTVSPropertyOp27
 70
     1
102
RTVSPropertyOp28
 70
     1
102
RTVSPropertyOp29
 70
     1
102
RTVSPropertyOp30
 70
     1
102
RTVSPropertyOp31
 70
     1
102
RTVSPropertyOp32
 70
     1
102
RTVSPropertyOp33
 70
     1
102
RTVSPropertyOp34
 70
     1
102
RTVSPropertyOp35
 70
     1
102
RTVSPropertyOp36
 70
     1
102
RTVSPropertyOp37
 70
     1
102
RTVSPropertyOp38
 70
     1
102
RTVSPropertyOp39
 70
     1
102
RTVSPropertyOp40
 70
     1
102
RTVSPropertyOp41
 70
     1
102
RTVSPropertyOp42
 70
     1
102
RTVSPropertyOp43
 70
     1
102
RTVSPropertyOp44
 70
     1
102
RTVSPropertyOp45
 70
     1
102
RTVSPropertyOp46
 70
     1
102
RTVSPropertyOp47
 70
     1
102
RTVSPropertyOp48
 70
     1
102
RTVSPropertyOp49
 70
     1
102
RTVSPropertyOp50
 70
     1
102
RTVSPropertyOp51
 70
     0
102
RTVSPropertyOp52
 70
     0
102
RTVSPropertyOp53
 70
     1
102
RTVSPropertyOp54
 70
     1
102
RTVSPropertyOp55
 70
     1
102
RTVSPropertyOp56
 70
     1
102
RTVSPropertyOp57
 70
     1
102
RTVSPropertyOp58
 70
     1
102
RTVSPropertyOp59
 70
     1
102
RTVSPropertyOp60
 70
     1
102
RTVSPropertyOp61
 70
     1
102
RTVSPropertyOp62
 70
     1
  0
XRECORD
  5
1CF1
102
{ACAD_REACTORS
330
1CF0
102
}
330
1CF0
100
AcDbXrecord
280
     1
102
RTVSPost2010Prop28
280
     0
102
RTVSPost2010PropOp28
 70
     1
102
RTVSPost2010Prop29
280
     1
102
RTVSPost2010PropOp29
 70
     1
102
RTVSPost2010Prop30
280
     1
102
RTVSPost2010PropOp30
 70
     1
102
RTVSPost2010Prop31
280
     0
102
RTVSPost2010PropOp31
 70
     1
102
RTVSPost2010Prop32
280
     0
102
RTVSPost2010PropOp32
 70
     1
102
RTVSPost2010Prop33
280
     0
102
RTVSPost2010PropOp33
 70
     1
102
RTVSPost2010Prop34
280
     0
102
RTVSPost2010PropOp34
 70
     1
102
RTVSPost2010Prop35
280
     0
102
RTVSPost2010PropOp35
 70
     1
102
RTVSPost2010Prop36
280
     0
102
RTVSPost2010PropOp36
 70
     1
102
RTVSPost2010Prop37
 90
       50
102
RTVSPost2010PropOp37
 70
     1
102
RTVSPost2010Prop38
140
0.0
102
RTVSPost2010PropOp38
 70
     1
102
RTVSPost2010Prop39
140
1.0
102
RTVSPost2010PropOp39
 70
     1
102
RTVSPost2010Prop40
 90
        0
102
RTVSPost2010PropOp40
 70
     1
102
RTVSPost2010Prop41ColorIndex
 90
       18
102
RTVSPost2010Prop41ColorRGB
 90
        0
102
RTVSPost2010PropOp41
 70
     1
102
RTVSPost2010Prop42
 90
       50
102
RTVSPost2010PropOp42
 70
     1
102
RTVSPost2010Prop43
 90
        3
102
RTVSPost2010PropOp43
 70
     1
102
RTVSPost2010Prop44ColorIndex
 90
        5
102
RTVSPost2010Prop44ColorRGB
 90
      255
102
RTVSPost2010PropOp44
 70
     1
102
RTVSPost2010Prop45
280
     0
102
RTVSPost2010PropOp45
 70
     1
102
RTVSPost2010Prop46
 90
       50
102
RTVSPost2010PropOp46
 70
     1
102
RTVSPost2010Prop47
 90
       50
102
RTVSPost2010PropOp47
 70
     1
102
RTVSPost2010Prop48
 90
       50
102
RTVSPost2010PropOp48
 70
     1
102
RTVSPost2010Prop49
280
     0
102
RTVSPost2010PropOp49
 70
     1
102
RTVSPost2010Prop50
 90
       50
102
RTVSPost2010PropOp50
 70
     1
102
RTVSPost2010Prop51ColorIndex
 90
      256
102
RTVSPost2010Prop51ColorRGB
 90
-16777216
102
RTVSPost2010PropOp51
 70
     0
102
RTVSPost2010Prop52
140
1.0
102
RTVSPost2010PropOp52
 70
     0
102
RTVSPost2010Prop53
 90
        2
102
RTVSPost2010PropOp53
 70
     1
102
RTVSPost2010Prop54
  1
strokes_ogs.tif
102
RTVSPost2010PropOp54
 70
     1
102
RTVSPost2010Prop55
280
     0
102
RTVSPost2010PropOp55
 70
     1
102
RTVSPost2010Prop56
140
1.0
102
RTVSPost2010PropOp56
 70
     1
102
RTVSPost2010Prop57
140
1.0
102
RTVSPost2010PropOp57
 70
     1
102
RTVSPropertyOp0
 70
     1
102
RTVSPropertyOp1
 70
     1
102
RTVSPropertyOp2
 70
     1
102
RTVSPropertyOp3
 70
     1
102
RTVSPropertyOp4
 70
     1
102
RTVSPropertyOp5
 70
     1
102
RTVSPropertyOp6
 70
     1
102
RTVSPropertyOp7
 70
     1
102
RTVSPropertyOp8
 70
     1
102
RTVSPropertyOp9
 70
     1
102
RTVSPropertyOp10
 70
     1
102
RTVSPropertyOp11
 70
     1
102
RTVSPropertyOp12
 70
     1
102
RTVSPropertyOp13
 70
     1
102
RTVSPropertyOp14
 70
     1
102
RTVSPropertyOp15
 70
     1
102
RTVSPropertyOp16
 70
     1
102
RTVSPropertyOp17
 70
     1
102
RTVSPropertyOp18
 70
     1
102
RTVSPropertyOp19
 70
     1
102
RTVSPropertyOp20
 70
     1
102
RTVSPropertyOp21
 70
     1
102
RTVSPropertyOp22
 70
     1
102
RTVSPropertyOp23
 70
     1
102
RTVSPropertyOp24
 70
     1
102
RTVSPropertyOp25
 70
     1
102
RTVSPropertyOp26
 70
     1
102
RTVSPropertyOp27
 70
     1
102
RTVSPropertyOp28
 70
     1
102
RTVSPropertyOp29
 70
     1
102
RTVSPropertyOp30
 70
     1
102
RTVSPropertyOp31
 70
     1
102
RTVSPropertyOp32
 70
     1
102
RTVSPropertyOp33
 70
     1
102
RTVSPropertyOp34
 70
     1
102
RTVSPropertyOp35
 70
     1
102
RTVSPropertyOp36
 70
     1
102
RTVSPropertyOp37
 70
     1
102
RTVSPropertyOp38
 70
     1
102
RTVSPropertyOp39
 70
     1
102
RTVSPropertyOp40
 70
     1
102
RTVSPropertyOp41
 70
     1
102
RTVSPropertyOp42
 70
     1
102
RTVSPropertyOp43
 70
     1
102
RTVSPropertyOp44
 70
     1
102
RTVSPropertyOp45
 70
     1
102
RTVSPropertyOp46
 70
     1
102
RTVSPropertyOp47
 70
     1
102
RTVSPropertyOp48
 70
     1
102
RTVSPropertyOp49
 70
     1
102
RTVSPropertyOp50
 70
     1
102
RTVSPropertyOp51
 70
     0
102
RTVSPropertyOp52
 70
     0
102
RTVSPropertyOp53
 70
     1
102
RTVSPropertyOp54
 70
     1
102
RTVSPropertyOp55
 70
     1
102
RTVSPropertyOp56
 70
     1
102
RTVSPropertyOp57
 70
     1
102
RTVSPropertyOp58
 70
     1
102
RTVSPropertyOp59
 70
     1
102
RTVSPropertyOp60
 70
     1
102
RTVSPropertyOp61
 70
     1
102
RTVSPropertyOp62
 70
     1
  0
XRECORD
  5
1CF9
102
{ACAD_REACTORS
330
1CF8
102
}
330
1CF8
100
AcDbXrecord
280
     1
102
RTVSPost2010Prop28
280
     0
102
RTVSPost2010PropOp28
 70
     1
102
RTVSPost2010Prop29
280
     1
102
RTVSPost2010PropOp29
 70
     1
102
RTVSPost2010Prop30
280
     1
102
RTVSPost2010PropOp30
 70
     1
102
RTVSPost2010Prop31
280
     0
102
RTVSPost2010PropOp31
 70
     1
102
RTVSPost2010Prop32
280
     0
102
RTVSPost2010PropOp32
 70
     1
102
RTVSPost2010Prop33
280
     0
102
RTVSPost2010PropOp33
 70
     1
102
RTVSPost2010Prop34
280
     0
102
RTVSPost2010PropOp34
 70
     1
102
RTVSPost2010Prop35
280
     0
102
RTVSPost2010PropOp35
 70
     1
102
RTVSPost2010Prop36
280
     0
102
RTVSPost2010PropOp36
 70
     1
102
RTVSPost2010Prop37
 90
       50
102
RTVSPost2010PropOp37
 70
     1
102
RTVSPost2010Prop38
140
0.0
102
RTVSPost2010PropOp38
 70
     1
102
RTVSPost2010Prop39
140
1.0
102
RTVSPost2010PropOp39
 70
     1
102
RTVSPost2010Prop40
 90
        0
102
RTVSPost2010PropOp40
 70
     1
102
RTVSPost2010Prop41ColorIndex
 90
       18
102
RTVSPost2010Prop41ColorRGB
 90
        0
102
RTVSPost2010PropOp41
 70
     1
102
RTVSPost2010Prop42
 90
       50
102
RTVSPost2010PropOp42
 70
     1
102
RTVSPost2010Prop43
 90
        3
102
RTVSPost2010PropOp43
 70
     1
102
RTVSPost2010Prop44ColorIndex
 90
        5
102
RTVSPost2010Prop44ColorRGB
 90
      255
102
RTVSPost2010PropOp44
 70
     1
102
RTVSPost2010Prop45
280
     0
102
RTVSPost2010PropOp45
 70
     1
102
RTVSPost2010Prop46
 90
       50
102
RTVSPost2010PropOp46
 70
     1
102
RTVSPost2010Prop47
 90
       50
102
RTVSPost2010PropOp47
 70
     1
102
RTVSPost2010Prop48
 90
       50
102
RTVSPost2010PropOp48
 70
     1
102
RTVSPost2010Prop49
280
     0
102
RTVSPost2010PropOp49
 70
     1
102
RTVSPost2010Prop50
 90
       50
102
RTVSPost2010PropOp50
 70
     1
102
RTVSPost2010Prop51ColorIndex
 90
      256
102
RTVSPost2010Prop51ColorRGB
 90
-16777216
102
RTVSPost2010PropOp51
 70
     0
102
RTVSPost2010Prop52
140
1.0
102
RTVSPost2010PropOp52
 70
     0
102
RTVSPost2010Prop53
 90
        2
102
RTVSPost2010PropOp53
 70
     1
102
RTVSPost2010Prop54
  1
strokes_ogs.tif
102
RTVSPost2010PropOp54
 70
     1
102
RTVSPost2010Prop55
280
     0
102
RTVSPost2010PropOp55
 70
     1
102
RTVSPost2010Prop56
140
1.0
102
RTVSPost2010PropOp56
 70
     1
102
RTVSPost2010Prop57
140
1.0
102
RTVSPost2010PropOp57
 70
     1
102
RTVSPropertyOp0
 70
     1
102
RTVSPropertyOp1
 70
     1
102
RTVSPropertyOp2
 70
     1
102
RTVSPropertyOp3
 70
     1
102
RTVSPropertyOp4
 70
     1
102
RTVSPropertyOp5
 70
     1
102
RTVSPropertyOp6
 70
     1
102
RTVSPropertyOp7
 70
     1
102
RTVSPropertyOp8
 70
     1
102
RTVSPropertyOp9
 70
     1
102
RTVSPropertyOp10
 70
     1
102
RTVSPropertyOp11
 70
     1
102
RTVSPropertyOp12
 70
     1
102
RTVSPropertyOp13
 70
     1
102
RTVSPropertyOp14
 70
     1
102
RTVSPropertyOp15
 70
     1
102
RTVSPropertyOp16
 70
     1
102
RTVSPropertyOp17
 70
     1
102
RTVSPropertyOp18
 70
     1
102
RTVSPropertyOp19
 70
     1
102
RTVSPropertyOp20
 70
     1
102
RTVSPropertyOp21
 70
     1
102
RTVSPropertyOp22
 70
     1
102
RTVSPropertyOp23
 70
     1
102
RTVSPropertyOp24
 70
     1
102
RTVSPropertyOp25
 70
     1
102
RTVSPropertyOp26
 70
     1
102
RTVSPropertyOp27
 70
     1
102
RTVSPropertyOp28
 70
     1
102
RTVSPropertyOp29
 70
     1
102
RTVSPropertyOp30
 70
     1
102
RTVSPropertyOp31
 70
     1
102
RTVSPropertyOp32
 70
     1
102
RTVSPropertyOp33
 70
     1
102
RTVSPropertyOp34
 70
     1
102
RTVSPropertyOp35
 70
     1
102
RTVSPropertyOp36
 70
     1
102
RTVSPropertyOp37
 70
     1
102
RTVSPropertyOp38
 70
     1
102
RTVSPropertyOp39
 70
     1
102
RTVSPropertyOp40
 70
     1
102
RTVSPropertyOp41
 70
     1
102
RTVSPropertyOp42
 70
     1
102
RTVSPropertyOp43
 70
     1
102
RTVSPropertyOp44
 70
     1
102
RTVSPropertyOp45
 70
     1
102
RTVSPropertyOp46
 70
     1
102
RTVSPropertyOp47
 70
     1
102
RTVSPropertyOp48
 70
     1
102
RTVSPropertyOp49
 70
     1
102
RTVSPropertyOp50
 70
     1
102
RTVSPropertyOp51
 70
     0
102
RTVSPropertyOp52
 70
     0
102
RTVSPropertyOp53
 70
     1
102
RTVSPropertyOp54
 70
     1
102
RTVSPropertyOp55
 70
     1
102
RTVSPropertyOp56
 70
     1
102
RTVSPropertyOp57
 70
     1
102
RTVSPropertyOp58
 70
     1
102
RTVSPropertyOp59
 70
     1
102
RTVSPropertyOp60
 70
     1
102
RTVSPropertyOp61
 70
     1
102
RTVSPropertyOp62
 70
     1
  0
XRECORD
  5
1CEB
102
{ACAD_REACTORS
330
1CEA
102
}
330
1CEA
100
AcDbXrecord
280
     1
102
RTVSPost2010Prop28
280
     0
102
RTVSPost2010PropOp28
 70
     1
102
RTVSPost2010Prop29
280
     1
102
RTVSPost2010PropOp29
 70
     1
102
RTVSPost2010Prop30
280
     1
102
RTVSPost2010PropOp30
 70
     1
102
RTVSPost2010Prop31
280
     0
102
RTVSPost2010PropOp31
 70
     1
102
RTVSPost2010Prop32
280
     0
102
RTVSPost2010PropOp32
 70
     1
102
RTVSPost2010Prop33
280
     0
102
RTVSPost2010PropOp33
 70
     1
102
RTVSPost2010Prop34
280
     0
102
RTVSPost2010PropOp34
 70
     1
102
RTVSPost2010Prop35
280
     0
102
RTVSPost2010PropOp35
 70
     1
102
RTVSPost2010Prop36
280
     0
102
RTVSPost2010PropOp36
 70
     1
102
RTVSPost2010Prop37
 90
       50
102
RTVSPost2010PropOp37
 70
     1
102
RTVSPost2010Prop38
140
0.0
102
RTVSPost2010PropOp38
 70
     1
102
RTVSPost2010Prop39
140
1.0
102
RTVSPost2010PropOp39
 70
     1
102
RTVSPost2010Prop40
 90
        0
102
RTVSPost2010PropOp40
 70
     1
102
RTVSPost2010Prop41ColorIndex
 90
       18
102
RTVSPost2010Prop41ColorRGB
 90
        0
102
RTVSPost2010PropOp41
 70
     1
102
RTVSPost2010Prop42
 90
       50
102
RTVSPost2010PropOp42
 70
     1
102
RTVSPost2010Prop43
 90
        3
102
RTVSPost2010PropOp43
 70
     1
102
RTVSPost2010Prop44ColorIndex
 90
        5
102
RTVSPost2010Prop44ColorRGB
 90
      255
102
RTVSPost2010PropOp44
 70
     1
102
RTVSPost2010Prop45
280
     0
102
RTVSPost2010PropOp45
 70
     1
102
RTVSPost2010Prop46
 90
       50
102
RTVSPost2010PropOp46
 70
     1
102
RTVSPost2010Prop47
 90
       50
102
RTVSPost2010PropOp47
 70
     1
102
RTVSPost2010Prop48
 90
       50
102
RTVSPost2010PropOp48
 70
     1
102
RTVSPost2010Prop49
280
     0
102
RTVSPost2010PropOp49
 70
     1
102
RTVSPost2010Prop50
 90
       50
102
RTVSPost2010PropOp50
 70
     1
102
RTVSPost2010Prop51ColorIndex
 90
      256
102
RTVSPost2010Prop51ColorRGB
 90
-16777216
102
RTVSPost2010PropOp51
 70
     0
102
RTVSPost2010Prop52
140
1.0
102
RTVSPost2010PropOp52
 70
     0
102
RTVSPost2010Prop53
 90
        2
102
RTVSPost2010PropOp53
 70
     1
102
RTVSPost2010Prop54
  1
strokes_ogs.tif
102
RTVSPost2010PropOp54
 70
     1
102
RTVSPost2010Prop55
280
     0
102
RTVSPost2010PropOp55
 70
     1
102
RTVSPost2010Prop56
140
1.0
102
RTVSPost2010PropOp56
 70
     1
102
RTVSPost2010Prop57
140
1.0
102
RTVSPost2010PropOp57
 70
     1
102
RTVSPropertyOp0
 70
     1
102
RTVSPropertyOp1
 70
     1
102
RTVSPropertyOp2
 70
     1
102
RTVSPropertyOp3
 70
     1
102
RTVSPropertyOp4
 70
     1
102
RTVSPropertyOp5
 70
     1
102
RTVSPropertyOp6
 70
     1
102
RTVSPropertyOp7
 70
     1
102
RTVSPropertyOp8
 70
     1
102
RTVSPropertyOp9
 70
     1
102
RTVSPropertyOp10
 70
     1
102
RTVSPropertyOp11
 70
     1
102
RTVSPropertyOp12
 70
     1
102
RTVSPropertyOp13
 70
     1
102
RTVSPropertyOp14
 70
     1
102
RTVSPropertyOp15
 70
     1
102
RTVSPropertyOp16
 70
     1
102
RTVSPropertyOp17
 70
     1
102
RTVSPropertyOp18
 70
     1
102
RTVSPropertyOp19
 70
     1
102
RTVSPropertyOp20
 70
     1
102
RTVSPropertyOp21
 70
     1
102
RTVSPropertyOp22
 70
     1
102
RTVSPropertyOp23
 70
     1
102
RTVSPropertyOp24
 70
     1
102
RTVSPropertyOp25
 70
     1
102
RTVSPropertyOp26
 70
     1
102
RTVSPropertyOp27
 70
     1
102
RTVSPropertyOp28
 70
     1
102
RTVSPropertyOp29
 70
     1
102
RTVSPropertyOp30
 70
     1
102
RTVSPropertyOp31
 70
     1
102
RTVSPropertyOp32
 70
     1
102
RTVSPropertyOp33
 70
     1
102
RTVSPropertyOp34
 70
     1
102
RTVSPropertyOp35
 70
     1
102
RTVSPropertyOp36
 70
     1
102
RTVSPropertyOp37
 70
     1
102
RTVSPropertyOp38
 70
     1
102
RTVSPropertyOp39
 70
     1
102
RTVSPropertyOp40
 70
     1
102
RTVSPropertyOp41
 70
     1
102
RTVSPropertyOp42
 70
     1
102
RTVSPropertyOp43
 70
     1
102
RTVSPropertyOp44
 70
     1
102
RTVSPropertyOp45
 70
     1
102
RTVSPropertyOp46
 70
     1
102
RTVSPropertyOp47
 70
     1
102
RTVSPropertyOp48
 70
     1
102
RTVSPropertyOp49
 70
     1
102
RTVSPropertyOp50
 70
     1
102
RTVSPropertyOp51
 70
     0
102
RTVSPropertyOp52
 70
     0
102
RTVSPropertyOp53
 70
     1
102
RTVSPropertyOp54
 70
     1
102
RTVSPropertyOp55
 70
     1
102
RTVSPropertyOp56
 70
     1
102
RTVSPropertyOp57
 70
     1
102
RTVSPropertyOp58
 70
     1
102
RTVSPropertyOp59
 70
     1
102
RTVSPropertyOp60
 70
     1
102
RTVSPropertyOp61
 70
     1
102
RTVSPropertyOp62
 70
     1
  0
XRECORD
  5
1CEF
102
{ACAD_REACTORS
330
1CEE
102
}
330
1CEE
100
AcDbXrecord
280
     1
102
RTVSPost2010Prop28
280
     0
102
RTVSPost2010PropOp28
 70
     1
102
RTVSPost2010Prop29
280
     1
102
RTVSPost2010PropOp29
 70
     1
102
RTVSPost2010Prop30
280
     1
102
RTVSPost2010PropOp30
 70
     1
102
RTVSPost2010Prop31
280
     0
102
RTVSPost2010PropOp31
 70
     1
102
RTVSPost2010Prop32
280
     0
102
RTVSPost2010PropOp32
 70
     1
102
RTVSPost2010Prop33
280
     0
102
RTVSPost2010PropOp33
 70
     1
102
RTVSPost2010Prop34
280
     0
102
RTVSPost2010PropOp34
 70
     1
102
RTVSPost2010Prop35
280
     0
102
RTVSPost2010PropOp35
 70
     1
102
RTVSPost2010Prop36
280
     0
102
RTVSPost2010PropOp36
 70
     1
102
RTVSPost2010Prop37
 90
       50
102
RTVSPost2010PropOp37
 70
     1
102
RTVSPost2010Prop38
140
0.0
102
RTVSPost2010PropOp38
 70
     1
102
RTVSPost2010Prop39
140
1.0
102
RTVSPost2010PropOp39
 70
     1
102
RTVSPost2010Prop40
 90
        0
102
RTVSPost2010PropOp40
 70
     1
102
RTVSPost2010Prop41ColorIndex
 90
       18
102
RTVSPost2010Prop41ColorRGB
 90
        0
102
RTVSPost2010PropOp41
 70
     1
102
RTVSPost2010Prop42
 90
       50
102
RTVSPost2010PropOp42
 70
     1
102
RTVSPost2010Prop43
 90
        3
102
RTVSPost2010PropOp43
 70
     1
102
RTVSPost2010Prop44ColorIndex
 90
        5
102
RTVSPost2010Prop44ColorRGB
 90
      255
102
RTVSPost2010PropOp44
 70
     1
102
RTVSPost2010Prop45
280
     0
102
RTVSPost2010PropOp45
 70
     1
102
RTVSPost2010Prop46
 90
       50
102
RTVSPost2010PropOp46
 70
     1
102
RTVSPost2010Prop47
 90
       50
102
RTVSPost2010PropOp47
 70
     1
102
RTVSPost2010Prop48
 90
       50
102
RTVSPost2010PropOp48
 70
     1
102
RTVSPost2010Prop49
280
     0
102
RTVSPost2010PropOp49
 70
     1
102
RTVSPost2010Prop50
 90
       50
102
RTVSPost2010PropOp50
 70
     1
102
RTVSPost2010Prop51ColorIndex
 90
      256
102
RTVSPost2010Prop51ColorRGB
 90
-16777216
102
RTVSPost2010PropOp51
 70
     0
102
RTVSPost2010Prop52
140
1.0
102
RTVSPost2010PropOp52
 70
     0
102
RTVSPost2010Prop53
 90
        2
102
RTVSPost2010PropOp53
 70
     1
102
RTVSPost2010Prop54
  1
strokes_ogs.tif
102
RTVSPost2010PropOp54
 70
     1
102
RTVSPost2010Prop55
280
     0
102
RTVSPost2010PropOp55
 70
     1
102
RTVSPost2010Prop56
140
1.0
102
RTVSPost2010PropOp56
 70
     1
102
RTVSPost2010Prop57
140
1.0
102
RTVSPost2010PropOp57
 70
     1
102
RTVSPropertyOp0
 70
     1
102
RTVSPropertyOp1
 70
     1
102
RTVSPropertyOp2
 70
     1
102
RTVSPropertyOp3
 70
     1
102
RTVSPropertyOp4
 70
     1
102
RTVSPropertyOp5
 70
     1
102
RTVSPropertyOp6
 70
     1
102
RTVSPropertyOp7
 70
     1
102
RTVSPropertyOp8
 70
     1
102
RTVSPropertyOp9
 70
     1
102
RTVSPropertyOp10
 70
     1
102
RTVSPropertyOp11
 70
     1
102
RTVSPropertyOp12
 70
     1
102
RTVSPropertyOp13
 70
     1
102
RTVSPropertyOp14
 70
     1
102
RTVSPropertyOp15
 70
     1
102
RTVSPropertyOp16
 70
     1
102
RTVSPropertyOp17
 70
     1
102
RTVSPropertyOp18
 70
     1
102
RTVSPropertyOp19
 70
     1
102
RTVSPropertyOp20
 70
     1
102
RTVSPropertyOp21
 70
     1
102
RTVSPropertyOp22
 70
     1
102
RTVSPropertyOp23
 70
     1
102
RTVSPropertyOp24
 70
     1
102
RTVSPropertyOp25
 70
     1
102
RTVSPropertyOp26
 70
     1
102
RTVSPropertyOp27
 70
     1
102
RTVSPropertyOp28
 70
     1
102
RTVSPropertyOp29
 70
     1
102
RTVSPropertyOp30
 70
     1
102
RTVSPropertyOp31
 70
     1
102
RTVSPropertyOp32
 70
     1
102
RTVSPropertyOp33
 70
     1
102
RTVSPropertyOp34
 70
     1
102
RTVSPropertyOp35
 70
     1
102
RTVSPropertyOp36
 70
     1
102
RTVSPropertyOp37
 70
     1
102
RTVSPropertyOp38
 70
     1
102
RTVSPropertyOp39
 70
     1
102
RTVSPropertyOp40
 70
     1
102
RTVSPropertyOp41
 70
     1
102
RTVSPropertyOp42
 70
     1
102
RTVSPropertyOp43
 70
     1
102
RTVSPropertyOp44
 70
     1
102
RTVSPropertyOp45
 70
     1
102
RTVSPropertyOp46
 70
     1
102
RTVSPropertyOp47
 70
     1
102
RTVSPropertyOp48
 70
     1
102
RTVSPropertyOp49
 70
     1
102
RTVSPropertyOp50
 70
     1
102
RTVSPropertyOp51
 70
     0
102
RTVSPropertyOp52
 70
     0
102
RTVSPropertyOp53
 70
     1
102
RTVSPropertyOp54
 70
     1
102
RTVSPropertyOp55
 70
     1
102
RTVSPropertyOp56
 70
     1
102
RTVSPropertyOp57
 70
     1
102
RTVSPropertyOp58
 70
     1
102
RTVSPropertyOp59
 70
     1
102
RTVSPropertyOp60
 70
     1
102
RTVSPropertyOp61
 70
     1
102
RTVSPropertyOp62
 70
     1
  0
XRECORD
  5
1D09
102
{ACAD_REACTORS
330
1D08
102
}
330
1D08
100
AcDbXrecord
280
     1
102
RTVSPost2010Prop28
280
     0
102
RTVSPost2010PropOp28
 70
     0
102
RTVSPost2010Prop29
280
     1
102
RTVSPost2010PropOp29
 70
     0
102
RTVSPost2010Prop30
280
     1
102
RTVSPost2010PropOp30
 70
     0
102
RTVSPost2010Prop31
280
     0
102
RTVSPost2010PropOp31
 70
     0
102
RTVSPost2010Prop32
280
     0
102
RTVSPost2010PropOp32
 70
     0
102
RTVSPost2010Prop33
280
     0
102
RTVSPost2010PropOp33
 70
     0
102
RTVSPost2010Prop34
280
     0
102
RTVSPost2010PropOp34
 70
     0
102
RTVSPost2010Prop35
280
     0
102
RTVSPost2010PropOp35
 70
     0
102
RTVSPost2010Prop36
280
     0
102
RTVSPost2010PropOp36
 70
     0
102
RTVSPost2010Prop37
 90
       50
102
RTVSPost2010PropOp37
 70
     0
102
RTVSPost2010Prop38
140
0.0
102
RTVSPost2010PropOp38
 70
     0
102
RTVSPost2010Prop39
140
1.0
102
RTVSPost2010PropOp39
 70
     0
102
RTVSPost2010Prop40
 90
        0
102
RTVSPost2010PropOp40
 70
     0
102
RTVSPost2010Prop41ColorIndex
 90
       18
102
RTVSPost2010Prop41ColorRGB
 90
        0
102
RTVSPost2010PropOp41
 70
     0
102
RTVSPost2010Prop42
 90
       50
102
RTVSPost2010PropOp42
 70
     0
102
RTVSPost2010Prop43
 90
        3
102
RTVSPost2010PropOp43
 70
     0
102
RTVSPost2010Prop44ColorIndex
 90
        5
102
RTVSPost2010Prop44ColorRGB
 90
      255
102
RTVSPost2010PropOp44
 70
     0
102
RTVSPost2010Prop45
280
     0
102
RTVSPost2010PropOp45
 70
     0
102
RTVSPost2010Prop46
 90
       50
102
RTVSPost2010PropOp46
 70
     0
102
RTVSPost2010Prop47
 90
       50
102
RTVSPost2010PropOp47
 70
     0
102
RTVSPost2010Prop48
 90
       50
102
RTVSPost2010PropOp48
 70
     0
102
RTVSPost2010Prop49
280
     0
102
RTVSPost2010PropOp49
 70
     0
102
RTVSPost2010Prop50
 90
       50
102
RTVSPost2010PropOp50
 70
     0
102
RTVSPost2010Prop51ColorIndex
 90
      256
102
RTVSPost2010Prop51ColorRGB
 90
-16777216
102
RTVSPost2010PropOp51
 70
     0
102
RTVSPost2010Prop52
140
1.0
102
RTVSPost2010PropOp52
 70
     0
102
RTVSPost2010Prop53
 90
        2
102
RTVSPost2010PropOp53
 70
     0
102
RTVSPost2010Prop54
  1
strokes_ogs.tif
102
RTVSPost2010PropOp54
 70
     0
102
RTVSPost2010Prop55
280
     0
102
RTVSPost2010PropOp55
 70
     0
102
RTVSPost2010Prop56
140
1.0
102
RTVSPost2010PropOp56
 70
     0
102
RTVSPost2010Prop57
140
1.0
102
RTVSPost2010PropOp57
 70
     0
102
RTVSPropertyOp0
 70
     0
102
RTVSPropertyOp1
 70
     0
102
RTVSPropertyOp2
 70
     0
102
RTVSPropertyOp3
 70
     0
102
RTVSPropertyOp4
 70
     0
102
RTVSPropertyOp5
 70
     0
102
RTVSPropertyOp6
 70
     0
102
RTVSPropertyOp7
 70
     0
102
RTVSPropertyOp8
 70
     0
102
RTVSPropertyOp9
 70
     0
102
RTVSPropertyOp10
 70
     0
102
RTVSPropertyOp11
 70
     0
102
RTVSPropertyOp12
 70
     0
102
RTVSPropertyOp13
 70
     0
102
RTVSPropertyOp14
 70
     2
102
RTVSPropertyOp15
 70
     0
102
RTVSPropertyOp16
 70
     0
102
RTVSPropertyOp17
 70
     0
102
RTVSPropertyOp18
 70
     0
102
RTVSPropertyOp19
 70
     0
102
RTVSPropertyOp20
 70
     0
102
RTVSPropertyOp21
 70
     0
102
RTVSPropertyOp22
 70
     0
102
RTVSPropertyOp23
 70
     0
102
RTVSPropertyOp24
 70
     0
102
RTVSPropertyOp25
 70
     0
102
RTVSPropertyOp26
 70
     0
102
RTVSPropertyOp27
 70
     0
102
RTVSPropertyOp28
 70
     0
102
RTVSPropertyOp29
 70
     0
102
RTVSPropertyOp30
 70
     0
102
RTVSPropertyOp31
 70
     0
102
RTVSPropertyOp32
 70
     0
102
RTVSPropertyOp33
 70
     0
102
RTVSPropertyOp34
 70
     0
102
RTVSPropertyOp35
 70
     0
102
RTVSPropertyOp36
 70
     0
102
RTVSPropertyOp37
 70
     0
102
RTVSPropertyOp38
 70
     0
102
RTVSPropertyOp39
 70
     0
102
RTVSPropertyOp40
 70
     0
102
RTVSPropertyOp41
 70
     0
102
RTVSPropertyOp42
 70
     0
102
RTVSPropertyOp43
 70
     0
102
RTVSPropertyOp44
 70
     0
102
RTVSPropertyOp45
 70
     0
102
RTVSPropertyOp46
 70
     0
102
RTVSPropertyOp47
 70
     0
102
RTVSPropertyOp48
 70
     0
102
RTVSPropertyOp49
 70
     0
102
RTVSPropertyOp50
 70
     0
102
RTVSPropertyOp51
 70
     0
102
RTVSPropertyOp52
 70
     0
102
RTVSPropertyOp53
 70
     0
102
RTVSPropertyOp54
 70
     0
102
RTVSPropertyOp55
 70
     0
102
RTVSPropertyOp56
 70
     0
102
RTVSPropertyOp57
 70
     0
102
RTVSPropertyOp58
 70
     1
102
RTVSPropertyOp59
 70
     1
102
RTVSPropertyOp60
 70
     1
102
RTVSPropertyOp61
 70
     1
102
RTVSPropertyOp62
 70
     1
  0
XRECORD
  5
1CF7
102
{ACAD_REACTORS
330
1CF6
102
}
330
1CF6
100
AcDbXrecord
280
     1
102
RTVSPost2010Prop28
280
     0
102
RTVSPost2010PropOp28
 70
     1
102
RTVSPost2010Prop29
280
     1
102
RTVSPost2010PropOp29
 70
     1
102
RTVSPost2010Prop30
280
     1
102
RTVSPost2010PropOp30
 70
     1
102
RTVSPost2010Prop31
280
     0
102
RTVSPost2010PropOp31
 70
     1
102
RTVSPost2010Prop32
280
     0
102
RTVSPost2010PropOp32
 70
     1
102
RTVSPost2010Prop33
280
     0
102
RTVSPost2010PropOp33
 70
     1
102
RTVSPost2010Prop34
280
     0
102
RTVSPost2010PropOp34
 70
     1
102
RTVSPost2010Prop35
280
     0
102
RTVSPost2010PropOp35
 70
     1
102
RTVSPost2010Prop36
280
     0
102
RTVSPost2010PropOp36
 70
     1
102
RTVSPost2010Prop37
 90
       50
102
RTVSPost2010PropOp37
 70
     1
102
RTVSPost2010Prop38
140
0.0
102
RTVSPost2010PropOp38
 70
     1
102
RTVSPost2010Prop39
140
1.0
102
RTVSPost2010PropOp39
 70
     1
102
RTVSPost2010Prop40
 90
        0
102
RTVSPost2010PropOp40
 70
     1
102
RTVSPost2010Prop41ColorIndex
 90
       18
102
RTVSPost2010Prop41ColorRGB
 90
        0
102
RTVSPost2010PropOp41
 70
     1
102
RTVSPost2010Prop42
 90
       50
102
RTVSPost2010PropOp42
 70
     1
102
RTVSPost2010Prop43
 90
        3
102
RTVSPost2010PropOp43
 70
     1
102
RTVSPost2010Prop44ColorIndex
 90
        5
102
RTVSPost2010Prop44ColorRGB
 90
      255
102
RTVSPost2010PropOp44
 70
     1
102
RTVSPost2010Prop45
280
     0
102
RTVSPost2010PropOp45
 70
     1
102
RTVSPost2010Prop46
 90
       50
102
RTVSPost2010PropOp46
 70
     1
102
RTVSPost2010Prop47
 90
       50
102
RTVSPost2010PropOp47
 70
     1
102
RTVSPost2010Prop48
 90
       50
102
RTVSPost2010PropOp48
 70
     1
102
RTVSPost2010Prop49
280
     0
102
RTVSPost2010PropOp49
 70
     1
102
RTVSPost2010Prop50
 90
       50
102
RTVSPost2010PropOp50
 70
     1
102
RTVSPost2010Prop51ColorIndex
 90
      256
102
RTVSPost2010Prop51ColorRGB
 90
-16777216
102
RTVSPost2010PropOp51
 70
     0
102
RTVSPost2010Prop52
140
1.0
102
RTVSPost2010PropOp52
 70
     0
102
RTVSPost2010Prop53
 90
        2
102
RTVSPost2010PropOp53
 70
     1
102
RTVSPost2010Prop54
  1
strokes_ogs.tif
102
RTVSPost2010PropOp54
 70
     1
102
RTVSPost2010Prop55
280
     0
102
RTVSPost2010PropOp55
 70
     1
102
RTVSPost2010Prop56
140
1.0
102
RTVSPost2010PropOp56
 70
     1
102
RTVSPost2010Prop57
140
1.0
102
RTVSPost2010PropOp57
 70
     1
102
RTVSPropertyOp0
 70
     1
102
RTVSPropertyOp1
 70
     1
102
RTVSPropertyOp2
 70
     1
102
RTVSPropertyOp3
 70
     1
102
RTVSPropertyOp4
 70
     1
102
RTVSPropertyOp5
 70
     1
102
RTVSPropertyOp6
 70
     1
102
RTVSPropertyOp7
 70
     1
102
RTVSPropertyOp8
 70
     1
102
RTVSPropertyOp9
 70
     1
102
RTVSPropertyOp10
 70
     1
102
RTVSPropertyOp11
 70
     1
102
RTVSPropertyOp12
 70
     1
102
RTVSPropertyOp13
 70
     1
102
RTVSPropertyOp14
 70
     1
102
RTVSPropertyOp15
 70
     1
102
RTVSPropertyOp16
 70
     1
102
RTVSPropertyOp17
 70
     1
102
RTVSPropertyOp18
 70
     1
102
RTVSPropertyOp19
 70
     1
102
RTVSPropertyOp20
 70
     1
102
RTVSPropertyOp21
 70
     1
102
RTVSPropertyOp22
 70
     1
102
RTVSPropertyOp23
 70
     1
102
RTVSPropertyOp24
 70
     1
102
RTVSPropertyOp25
 70
     1
102
RTVSPropertyOp26
 70
     1
102
RTVSPropertyOp27
 70
     1
102
RTVSPropertyOp28
 70
     1
102
RTVSPropertyOp29
 70
     1
102
RTVSPropertyOp30
 70
     1
102
RTVSPropertyOp31
 70
     1
102
RTVSPropertyOp32
 70
     1
102
RTVSPropertyOp33
 70
     1
102
RTVSPropertyOp34
 70
     1
102
RTVSPropertyOp35
 70
     1
102
RTVSPropertyOp36
 70
     1
102
RTVSPropertyOp37
 70
     1
102
RTVSPropertyOp38
 70
     1
102
RTVSPropertyOp39
 70
     1
102
RTVSPropertyOp40
 70
     1
102
RTVSPropertyOp41
 70
     1
102
RTVSPropertyOp42
 70
     1
102
RTVSPropertyOp43
 70
     1
102
RTVSPropertyOp44
 70
     1
102
RTVSPropertyOp45
 70
     1
102
RTVSPropertyOp46
 70
     1
102
RTVSPropertyOp47
 70
     1
102
RTVSPropertyOp48
 70
     1
102
RTVSPropertyOp49
 70
     1
102
RTVSPropertyOp50
 70
     1
102
RTVSPropertyOp51
 70
     0
102
RTVSPropertyOp52
 70
     0
102
RTVSPropertyOp53
 70
     1
102
RTVSPropertyOp54
 70
     1
102
RTVSPropertyOp55
 70
     1
102
RTVSPropertyOp56
 70
     1
102
RTVSPropertyOp57
 70
     1
102
RTVSPropertyOp58
 70
     1
102
RTVSPropertyOp59
 70
     1
102
RTVSPropertyOp60
 70
     1
102
RTVSPropertyOp61
 70
     1
102
RTVSPropertyOp62
 70
     1
  0
XRECORD
  5
1CDB
102
{ACAD_REACTORS
330
1CDA
102
}
330
1CDA
100
AcDbXrecord
280
     1
102
RTVSPost2010Prop28
280
     0
102
RTVSPost2010PropOp28
 70
     1
102
RTVSPost2010Prop29
280
     1
102
RTVSPost2010PropOp29
 70
     1
102
RTVSPost2010Prop30
280
     1
102
RTVSPost2010PropOp30
 70
     1
102
RTVSPost2010Prop31
280
     0
102
RTVSPost2010PropOp31
 70
     1
102
RTVSPost2010Prop32
280
     0
102
RTVSPost2010PropOp32
 70
     1
102
RTVSPost2010Prop33
280
     0
102
RTVSPost2010PropOp33
 70
     1
102
RTVSPost2010Prop34
280
     0
102
RTVSPost2010PropOp34
 70
     1
102
RTVSPost2010Prop35
280
     0
102
RTVSPost2010PropOp35
 70
     1
102
RTVSPost2010Prop36
280
     0
102
RTVSPost2010PropOp36
 70
     1
102
RTVSPost2010Prop37
 90
       50
102
RTVSPost2010PropOp37
 70
     1
102
RTVSPost2010Prop38
140
0.0
102
RTVSPost2010PropOp38
 70
     1
102
RTVSPost2010Prop39
140
1.0
102
RTVSPost2010PropOp39
 70
     1
102
RTVSPost2010Prop40
 90
        0
102
RTVSPost2010PropOp40
 70
     1
102
RTVSPost2010Prop41ColorIndex
 90
       18
102
RTVSPost2010Prop41ColorRGB
 90
        0
102
RTVSPost2010PropOp41
 70
     1
102
RTVSPost2010Prop42
 90
       50
102
RTVSPost2010PropOp42
 70
     1
102
RTVSPost2010Prop43
 90
        3
102
RTVSPost2010PropOp43
 70
     1
102
RTVSPost2010Prop44ColorIndex
 90
        5
102
RTVSPost2010Prop44ColorRGB
 90
      255
102
RTVSPost2010PropOp44
 70
     1
102
RTVSPost2010Prop45
280
     0
102
RTVSPost2010PropOp45
 70
     1
102
RTVSPost2010Prop46
 90
       50
102
RTVSPost2010PropOp46
 70
     1
102
RTVSPost2010Prop47
 90
       50
102
RTVSPost2010PropOp47
 70
     1
102
RTVSPost2010Prop48
 90
       50
102
RTVSPost2010PropOp48
 70
     1
102
RTVSPost2010Prop49
280
     0
102
RTVSPost2010PropOp49
 70
     1
102
RTVSPost2010Prop50
 90
       50
102
RTVSPost2010PropOp50
 70
     1
102
RTVSPost2010Prop51ColorIndex
 90
      256
102
RTVSPost2010Prop51ColorRGB
 90
-16777216
102
RTVSPost2010PropOp51
 70
     0
102
RTVSPost2010Prop52
140
1.0
102
RTVSPost2010PropOp52
 70
     0
102
RTVSPost2010Prop53
 90
        2
102
RTVSPost2010PropOp53
 70
     1
102
RTVSPost2010Prop54
  1
strokes_ogs.tif
102
RTVSPost2010PropOp54
 70
     1
102
RTVSPost2010Prop55
280
     0
102
RTVSPost2010PropOp55
 70
     1
102
RTVSPost2010Prop56
140
1.0
102
RTVSPost2010PropOp56
 70
     1
102
RTVSPost2010Prop57
140
1.0
102
RTVSPost2010PropOp57
 70
     1
102
RTVSPropertyOp0
 70
     1
102
RTVSPropertyOp1
 70
     1
102
RTVSPropertyOp2
 70
     1
102
RTVSPropertyOp3
 70
     1
102
RTVSPropertyOp4
 70
     1
102
RTVSPropertyOp5
 70
     1
102
RTVSPropertyOp6
 70
     1
102
RTVSPropertyOp7
 70
     1
102
RTVSPropertyOp8
 70
     1
102
RTVSPropertyOp9
 70
     1
102
RTVSPropertyOp10
 70
     1
102
RTVSPropertyOp11
 70
     1
102
RTVSPropertyOp12
 70
     1
102
RTVSPropertyOp13
 70
     1
102
RTVSPropertyOp14
 70
     1
102
RTVSPropertyOp15
 70
     1
102
RTVSPropertyOp16
 70
     1
102
RTVSPropertyOp17
 70
     1
102
RTVSPropertyOp18
 70
     1
102
RTVSPropertyOp19
 70
     1
102
RTVSPropertyOp20
 70
     1
102
RTVSPropertyOp21
 70
     1
102
RTVSPropertyOp22
 70
     1
102
RTVSPropertyOp23
 70
     1
102
RTVSPropertyOp24
 70
     1
102
RTVSPropertyOp25
 70
     1
102
RTVSPropertyOp26
 70
     1
102
RTVSPropertyOp27
 70
     1
102
RTVSPropertyOp28
 70
     1
102
RTVSPropertyOp29
 70
     1
102
RTVSPropertyOp30
 70
     1
102
RTVSPropertyOp31
 70
     1
102
RTVSPropertyOp32
 70
     1
102
RTVSPropertyOp33
 70
     1
102
RTVSPropertyOp34
 70
     1
102
RTVSPropertyOp35
 70
     1
102
RTVSPropertyOp36
 70
     1
102
RTVSPropertyOp37
 70
     1
102
RTVSPropertyOp38
 70
     1
102
RTVSPropertyOp39
 70
     1
102
RTVSPropertyOp40
 70
     1
102
RTVSPropertyOp41
 70
     1
102
RTVSPropertyOp42
 70
     1
102
RTVSPropertyOp43
 70
     1
102
RTVSPropertyOp44
 70
     1
102
RTVSPropertyOp45
 70
     1
102
RTVSPropertyOp46
 70
     1
102
RTVSPropertyOp47
 70
     1
102
RTVSPropertyOp48
 70
     1
102
RTVSPropertyOp49
 70
     1
102
RTVSPropertyOp50
 70
     1
102
RTVSPropertyOp51
 70
     0
102
RTVSPropertyOp52
 70
     0
102
RTVSPropertyOp53
 70
     1
102
RTVSPropertyOp54
 70
     1
102
RTVSPropertyOp55
 70
     1
102
RTVSPropertyOp56
 70
     1
102
RTVSPropertyOp57
 70
     1
102
RTVSPropertyOp58
 70
     1
102
RTVSPropertyOp59
 70
     1
102
RTVSPropertyOp60
 70
     1
102
RTVSPropertyOp61
 70
     1
102
RTVSPropertyOp62
 70
     1
  0
XRECORD
  5
1CDD
102
{ACAD_REACTORS
330
1CDC
102
}
330
1CDC
100
AcDbXrecord
280
     1
102
RTVSPost2010Prop28
280
     0
102
RTVSPost2010PropOp28
 70
     1
102
RTVSPost2010Prop29
280
     1
102
RTVSPost2010PropOp29
 70
     1
102
RTVSPost2010Prop30
280
     1
102
RTVSPost2010PropOp30
 70
     1
102
RTVSPost2010Prop31
280
     0
102
RTVSPost2010PropOp31
 70
     1
102
RTVSPost2010Prop32
280
     0
102
RTVSPost2010PropOp32
 70
     1
102
RTVSPost2010Prop33
280
     0
102
RTVSPost2010PropOp33
 70
     1
102
RTVSPost2010Prop34
280
     0
102
RTVSPost2010PropOp34
 70
     1
102
RTVSPost2010Prop35
280
     0
102
RTVSPost2010PropOp35
 70
     1
102
RTVSPost2010Prop36
280
     0
102
RTVSPost2010PropOp36
 70
     1
102
RTVSPost2010Prop37
 90
       50
102
RTVSPost2010PropOp37
 70
     1
102
RTVSPost2010Prop38
140
0.0
102
RTVSPost2010PropOp38
 70
     1
102
RTVSPost2010Prop39
140
1.0
102
RTVSPost2010PropOp39
 70
     1
102
RTVSPost2010Prop40
 90
        0
102
RTVSPost2010PropOp40
 70
     1
102
RTVSPost2010Prop41ColorIndex
 90
       18
102
RTVSPost2010Prop41ColorRGB
 90
        0
102
RTVSPost2010PropOp41
 70
     1
102
RTVSPost2010Prop42
 90
       50
102
RTVSPost2010PropOp42
 70
     1
102
RTVSPost2010Prop43
 90
        3
102
RTVSPost2010PropOp43
 70
     1
102
RTVSPost2010Prop44ColorIndex
 90
        5
102
RTVSPost2010Prop44ColorRGB
 90
      255
102
RTVSPost2010PropOp44
 70
     1
102
RTVSPost2010Prop45
280
     0
102
RTVSPost2010PropOp45
 70
     1
102
RTVSPost2010Prop46
 90
       50
102
RTVSPost2010PropOp46
 70
     1
102
RTVSPost2010Prop47
 90
       50
102
RTVSPost2010PropOp47
 70
     1
102
RTVSPost2010Prop48
 90
       50
102
RTVSPost2010PropOp48
 70
     1
102
RTVSPost2010Prop49
280
     0
102
RTVSPost2010PropOp49
 70
     1
102
RTVSPost2010Prop50
 90
       50
102
RTVSPost2010PropOp50
 70
     1
102
RTVSPost2010Prop51ColorIndex
 90
      256
102
RTVSPost2010Prop51ColorRGB
 90
-16777216
102
RTVSPost2010PropOp51
 70
     0
102
RTVSPost2010Prop52
140
1.0
102
RTVSPost2010PropOp52
 70
     0
102
RTVSPost2010Prop53
 90
        2
102
RTVSPost2010PropOp53
 70
     1
102
RTVSPost2010Prop54
  1
strokes_ogs.tif
102
RTVSPost2010PropOp54
 70
     1
102
RTVSPost2010Prop55
280
     0
102
RTVSPost2010PropOp55
 70
     1
102
RTVSPost2010Prop56
140
1.0
102
RTVSPost2010PropOp56
 70
     1
102
RTVSPost2010Prop57
140
1.0
102
RTVSPost2010PropOp57
 70
     1
102
RTVSPropertyOp0
 70
     1
102
RTVSPropertyOp1
 70
     1
102
RTVSPropertyOp2
 70
     1
102
RTVSPropertyOp3
 70
     1
102
RTVSPropertyOp4
 70
     1
102
RTVSPropertyOp5
 70
     1
102
RTVSPropertyOp6
 70
     1
102
RTVSPropertyOp7
 70
     1
102
RTVSPropertyOp8
 70
     1
102
RTVSPropertyOp9
 70
     1
102
RTVSPropertyOp10
 70
     1
102
RTVSPropertyOp11
 70
     1
102
RTVSPropertyOp12
 70
     1
102
RTVSPropertyOp13
 70
     1
102
RTVSPropertyOp14
 70
     1
102
RTVSPropertyOp15
 70
     1
102
RTVSPropertyOp16
 70
     1
102
RTVSPropertyOp17
 70
     1
102
RTVSPropertyOp18
 70
     1
102
RTVSPropertyOp19
 70
     1
102
RTVSPropertyOp20
 70
     1
102
RTVSPropertyOp21
 70
     1
102
RTVSPropertyOp22
 70
     1
102
RTVSPropertyOp23
 70
     1
102
RTVSPropertyOp24
 70
     1
102
RTVSPropertyOp25
 70
     1
102
RTVSPropertyOp26
 70
     1
102
RTVSPropertyOp27
 70
     1
102
RTVSPropertyOp28
 70
     1
102
RTVSPropertyOp29
 70
     1
102
RTVSPropertyOp30
 70
     1
102
RTVSPropertyOp31
 70
     1
102
RTVSPropertyOp32
 70
     1
102
RTVSPropertyOp33
 70
     1
102
RTVSPropertyOp34
 70
     1
102
RTVSPropertyOp35
 70
     1
102
RTVSPropertyOp36
 70
     1
102
RTVSPropertyOp37
 70
     1
102
RTVSPropertyOp38
 70
     1
102
RTVSPropertyOp39
 70
     1
102
RTVSPropertyOp40
 70
     1
102
RTVSPropertyOp41
 70
     1
102
RTVSPropertyOp42
 70
     1
102
RTVSPropertyOp43
 70
     1
102
RTVSPropertyOp44
 70
     1
102
RTVSPropertyOp45
 70
     1
102
RTVSPropertyOp46
 70
     1
102
RTVSPropertyOp47
 70
     1
102
RTVSPropertyOp48
 70
     1
102
RTVSPropertyOp49
 70
     1
102
RTVSPropertyOp50
 70
     1
102
RTVSPropertyOp51
 70
     0
102
RTVSPropertyOp52
 70
     0
102
RTVSPropertyOp53
 70
     1
102
RTVSPropertyOp54
 70
     1
102
RTVSPropertyOp55
 70
     1
102
RTVSPropertyOp56
 70
     1
102
RTVSPropertyOp57
 70
     1
102
RTVSPropertyOp58
 70
     1
102
RTVSPropertyOp59
 70
     1
102
RTVSPropertyOp60
 70
     1
102
RTVSPropertyOp61
 70
     1
102
RTVSPropertyOp62
 70
     1
  0
XRECORD
  5
1CDF
102
{ACAD_REACTORS
330
1CDE
102
}
330
1CDE
100
AcDbXrecord
280
     1
102
RTVSPost2010Prop28
280
     0
102
RTVSPost2010PropOp28
 70
     1
102
RTVSPost2010Prop29
280
     1
102
RTVSPost2010PropOp29
 70
     1
102
RTVSPost2010Prop30
280
     1
102
RTVSPost2010PropOp30
 70
     1
102
RTVSPost2010Prop31
280
     0
102
RTVSPost2010PropOp31
 70
     1
102
RTVSPost2010Prop32
280
     0
102
RTVSPost2010PropOp32
 70
     1
102
RTVSPost2010Prop33
280
     0
102
RTVSPost2010PropOp33
 70
     1
102
RTVSPost2010Prop34
280
     0
102
RTVSPost2010PropOp34
 70
     1
102
RTVSPost2010Prop35
280
     0
102
RTVSPost2010PropOp35
 70
     1
102
RTVSPost2010Prop36
280
     0
102
RTVSPost2010PropOp36
 70
     1
102
RTVSPost2010Prop37
 90
       50
102
RTVSPost2010PropOp37
 70
     1
102
RTVSPost2010Prop38
140
0.0
102
RTVSPost2010PropOp38
 70
     1
102
RTVSPost2010Prop39
140
1.0
102
RTVSPost2010PropOp39
 70
     1
102
RTVSPost2010Prop40
 90
        0
102
RTVSPost2010PropOp40
 70
     1
102
RTVSPost2010Prop41ColorIndex
 90
       18
102
RTVSPost2010Prop41ColorRGB
 90
        0
102
RTVSPost2010PropOp41
 70
     1
102
RTVSPost2010Prop42
 90
       50
102
RTVSPost2010PropOp42
 70
     1
102
RTVSPost2010Prop43
 90
        3
102
RTVSPost2010PropOp43
 70
     1
102
RTVSPost2010Prop44ColorIndex
 90
        5
102
RTVSPost2010Prop44ColorRGB
 90
      255
102
RTVSPost2010PropOp44
 70
     1
102
RTVSPost2010Prop45
280
     0
102
RTVSPost2010PropOp45
 70
     1
102
RTVSPost2010Prop46
 90
       50
102
RTVSPost2010PropOp46
 70
     1
102
RTVSPost2010Prop47
 90
       50
102
RTVSPost2010PropOp47
 70
     1
102
RTVSPost2010Prop48
 90
       50
102
RTVSPost2010PropOp48
 70
     1
102
RTVSPost2010Prop49
280
     0
102
RTVSPost2010PropOp49
 70
     1
102
RTVSPost2010Prop50
 90
       50
102
RTVSPost2010PropOp50
 70
     1
102
RTVSPost2010Prop51ColorIndex
 90
      256
102
RTVSPost2010Prop51ColorRGB
 90
-16777216
102
RTVSPost2010PropOp51
 70
     0
102
RTVSPost2010Prop52
140
1.0
102
RTVSPost2010PropOp52
 70
     0
102
RTVSPost2010Prop53
 90
        2
102
RTVSPost2010PropOp53
 70
     1
102
RTVSPost2010Prop54
  1
strokes_ogs.tif
102
RTVSPost2010PropOp54
 70
     1
102
RTVSPost2010Prop55
280
     0
102
RTVSPost2010PropOp55
 70
     1
102
RTVSPost2010Prop56
140
1.0
102
RTVSPost2010PropOp56
 70
     1
102
RTVSPost2010Prop57
140
1.0
102
RTVSPost2010PropOp57
 70
     1
102
RTVSPropertyOp0
 70
     1
102
RTVSPropertyOp1
 70
     1
102
RTVSPropertyOp2
 70
     1
102
RTVSPropertyOp3
 70
     1
102
RTVSPropertyOp4
 70
     1
102
RTVSPropertyOp5
 70
     1
102
RTVSPropertyOp6
 70
     1
102
RTVSPropertyOp7
 70
     1
102
RTVSPropertyOp8
 70
     1
102
RTVSPropertyOp9
 70
     1
102
RTVSPropertyOp10
 70
     1
102
RTVSPropertyOp11
 70
     1
102
RTVSPropertyOp12
 70
     1
102
RTVSPropertyOp13
 70
     1
102
RTVSPropertyOp14
 70
     1
102
RTVSPropertyOp15
 70
     1
102
RTVSPropertyOp16
 70
     1
102
RTVSPropertyOp17
 70
     1
102
RTVSPropertyOp18
 70
     1
102
RTVSPropertyOp19
 70
     1
102
RTVSPropertyOp20
 70
     1
102
RTVSPropertyOp21
 70
     1
102
RTVSPropertyOp22
 70
     1
102
RTVSPropertyOp23
 70
     1
102
RTVSPropertyOp24
 70
     1
102
RTVSPropertyOp25
 70
     1
102
RTVSPropertyOp26
 70
     1
102
RTVSPropertyOp27
 70
     1
102
RTVSPropertyOp28
 70
     1
102
RTVSPropertyOp29
 70
     1
102
RTVSPropertyOp30
 70
     1
102
RTVSPropertyOp31
 70
     1
102
RTVSPropertyOp32
 70
     1
102
RTVSPropertyOp33
 70
     1
102
RTVSPropertyOp34
 70
     1
102
RTVSPropertyOp35
 70
     1
102
RTVSPropertyOp36
 70
     1
102
RTVSPropertyOp37
 70
     1
102
RTVSPropertyOp38
 70
     1
102
RTVSPropertyOp39
 70
     1
102
RTVSPropertyOp40
 70
     1
102
RTVSPropertyOp41
 70
     1
102
RTVSPropertyOp42
 70
     1
102
RTVSPropertyOp43
 70
     1
102
RTVSPropertyOp44
 70
     1
102
RTVSPropertyOp45
 70
     1
102
RTVSPropertyOp46
 70
     1
102
RTVSPropertyOp47
 70
     1
102
RTVSPropertyOp48
 70
     1
102
RTVSPropertyOp49
 70
     1
102
RTVSPropertyOp50
 70
     1
102
RTVSPropertyOp51
 70
     0
102
RTVSPropertyOp52
 70
     0
102
RTVSPropertyOp53
 70
     1
102
RTVSPropertyOp54
 70
     1
102
RTVSPropertyOp55
 70
     1
102
RTVSPropertyOp56
 70
     1
102
RTVSPropertyOp57
 70
     1
102
RTVSPropertyOp58
 70
     1
102
RTVSPropertyOp59
 70
     1
102
RTVSPropertyOp60
 70
     1
102
RTVSPropertyOp61
 70
     1
102
RTVSPropertyOp62
 70
     1
  0
XRECORD
  5
1CE1
102
{ACAD_REACTORS
330
1CE0
102
}
330
1CE0
100
AcDbXrecord
280
     1
102
RTVSPost2010Prop28
280
     0
102
RTVSPost2010PropOp28
 70
     1
102
RTVSPost2010Prop29
280
     1
102
RTVSPost2010PropOp29
 70
     1
102
RTVSPost2010Prop30
280
     1
102
RTVSPost2010PropOp30
 70
     1
102
RTVSPost2010Prop31
280
     0
102
RTVSPost2010PropOp31
 70
     1
102
RTVSPost2010Prop32
280
     0
102
RTVSPost2010PropOp32
 70
     1
102
RTVSPost2010Prop33
280
     0
102
RTVSPost2010PropOp33
 70
     1
102
RTVSPost2010Prop34
280
     0
102
RTVSPost2010PropOp34
 70
     1
102
RTVSPost2010Prop35
280
     0
102
RTVSPost2010PropOp35
 70
     1
102
RTVSPost2010Prop36
280
     0
102
RTVSPost2010PropOp36
 70
     1
102
RTVSPost2010Prop37
 90
       50
102
RTVSPost2010PropOp37
 70
     1
102
RTVSPost2010Prop38
140
0.0
102
RTVSPost2010PropOp38
 70
     1
102
RTVSPost2010Prop39
140
1.0
102
RTVSPost2010PropOp39
 70
     1
102
RTVSPost2010Prop40
 90
        0
102
RTVSPost2010PropOp40
 70
     1
102
RTVSPost2010Prop41ColorIndex
 90
       18
102
RTVSPost2010Prop41ColorRGB
 90
        0
102
RTVSPost2010PropOp41
 70
     1
102
RTVSPost2010Prop42
 90
       50
102
RTVSPost2010PropOp42
 70
     1
102
RTVSPost2010Prop43
 90
        3
102
RTVSPost2010PropOp43
 70
     1
102
RTVSPost2010Prop44ColorIndex
 90
        5
102
RTVSPost2010Prop44ColorRGB
 90
      255
102
RTVSPost2010PropOp44
 70
     1
102
RTVSPost2010Prop45
280
     0
102
RTVSPost2010PropOp45
 70
     1
102
RTVSPost2010Prop46
 90
       50
102
RTVSPost2010PropOp46
 70
     1
102
RTVSPost2010Prop47
 90
       50
102
RTVSPost2010PropOp47
 70
     1
102
RTVSPost2010Prop48
 90
       50
102
RTVSPost2010PropOp48
 70
     1
102
RTVSPost2010Prop49
280
     0
102
RTVSPost2010PropOp49
 70
     1
102
RTVSPost2010Prop50
 90
       50
102
RTVSPost2010PropOp50
 70
     1
102
RTVSPost2010Prop51ColorIndex
 90
      256
102
RTVSPost2010Prop51ColorRGB
 90
-16777216
102
RTVSPost2010PropOp51
 70
     0
102
RTVSPost2010Prop52
140
1.0
102
RTVSPost2010PropOp52
 70
     0
102
RTVSPost2010Prop53
 90
        2
102
RTVSPost2010PropOp53
 70
     1
102
RTVSPost2010Prop54
  1
strokes_ogs.tif
102
RTVSPost2010PropOp54
 70
     1
102
RTVSPost2010Prop55
280
     0
102
RTVSPost2010PropOp55
 70
     1
102
RTVSPost2010Prop56
140
1.0
102
RTVSPost2010PropOp56
 70
     1
102
RTVSPost2010Prop57
140
1.0
102
RTVSPost2010PropOp57
 70
     1
102
RTVSPropertyOp0
 70
     1
102
RTVSPropertyOp1
 70
     1
102
RTVSPropertyOp2
 70
     1
102
RTVSPropertyOp3
 70
     1
102
RTVSPropertyOp4
 70
     1
102
RTVSPropertyOp5
 70
     1
102
RTVSPropertyOp6
 70
     1
102
RTVSPropertyOp7
 70
     1
102
RTVSPropertyOp8
 70
     1
102
RTVSPropertyOp9
 70
     1
102
RTVSPropertyOp10
 70
     1
102
RTVSPropertyOp11
 70
     1
102
RTVSPropertyOp12
 70
     1
102
RTVSPropertyOp13
 70
     1
102
RTVSPropertyOp14
 70
     1
102
RTVSPropertyOp15
 70
     1
102
RTVSPropertyOp16
 70
     1
102
RTVSPropertyOp17
 70
     1
102
RTVSPropertyOp18
 70
     1
102
RTVSPropertyOp19
 70
     1
102
RTVSPropertyOp20
 70
     1
102
RTVSPropertyOp21
 70
     1
102
RTVSPropertyOp22
 70
     1
102
RTVSPropertyOp23
 70
     1
102
RTVSPropertyOp24
 70
     1
102
RTVSPropertyOp25
 70
     1
102
RTVSPropertyOp26
 70
     1
102
RTVSPropertyOp27
 70
     1
102
RTVSPropertyOp28
 70
     1
102
RTVSPropertyOp29
 70
     1
102
RTVSPropertyOp30
 70
     1
102
RTVSPropertyOp31
 70
     1
102
RTVSPropertyOp32
 70
     1
102
RTVSPropertyOp33
 70
     1
102
RTVSPropertyOp34
 70
     1
102
RTVSPropertyOp35
 70
     1
102
RTVSPropertyOp36
 70
     1
102
RTVSPropertyOp37
 70
     1
102
RTVSPropertyOp38
 70
     1
102
RTVSPropertyOp39
 70
     1
102
RTVSPropertyOp40
 70
     1
102
RTVSPropertyOp41
 70
     1
102
RTVSPropertyOp42
 70
     1
102
RTVSPropertyOp43
 70
     1
102
RTVSPropertyOp44
 70
     1
102
RTVSPropertyOp45
 70
     1
102
RTVSPropertyOp46
 70
     1
102
RTVSPropertyOp47
 70
     1
102
RTVSPropertyOp48
 70
     1
102
RTVSPropertyOp49
 70
     1
102
RTVSPropertyOp50
 70
     1
102
RTVSPropertyOp51
 70
     0
102
RTVSPropertyOp52
 70
     0
102
RTVSPropertyOp53
 70
     1
102
RTVSPropertyOp54
 70
     1
102
RTVSPropertyOp55
 70
     1
102
RTVSPropertyOp56
 70
     1
102
RTVSPropertyOp57
 70
     1
102
RTVSPropertyOp58
 70
     1
102
RTVSPropertyOp59
 70
     1
102
RTVSPropertyOp60
 70
     1
102
RTVSPropertyOp61
 70
     1
102
RTVSPropertyOp62
 70
     1
  0
XRECORD
  5
1CE9
102
{ACAD_REACTORS
330
1CE8
102
}
330
1CE8
100
AcDbXrecord
280
     1
102
RTVSPost2010Prop28
280
     0
102
RTVSPost2010PropOp28
 70
     1
102
RTVSPost2010Prop29
280
     1
102
RTVSPost2010PropOp29
 70
     1
102
RTVSPost2010Prop30
280
     1
102
RTVSPost2010PropOp30
 70
     1
102
RTVSPost2010Prop31
280
     0
102
RTVSPost2010PropOp31
 70
     1
102
RTVSPost2010Prop32
280
     0
102
RTVSPost2010PropOp32
 70
     1
102
RTVSPost2010Prop33
280
     0
102
RTVSPost2010PropOp33
 70
     1
102
RTVSPost2010Prop34
280
     0
102
RTVSPost2010PropOp34
 70
     1
102
RTVSPost2010Prop35
280
     0
102
RTVSPost2010PropOp35
 70
     1
102
RTVSPost2010Prop36
280
     0
102
RTVSPost2010PropOp36
 70
     1
102
RTVSPost2010Prop37
 90
       50
102
RTVSPost2010PropOp37
 70
     1
102
RTVSPost2010Prop38
140
0.0
102
RTVSPost2010PropOp38
 70
     1
102
RTVSPost2010Prop39
140
1.0
102
RTVSPost2010PropOp39
 70
     1
102
RTVSPost2010Prop40
 90
        0
102
RTVSPost2010PropOp40
 70
     1
102
RTVSPost2010Prop41ColorIndex
 90
       18
102
RTVSPost2010Prop41ColorRGB
 90
        0
102
RTVSPost2010PropOp41
 70
     1
102
RTVSPost2010Prop42
 90
       50
102
RTVSPost2010PropOp42
 70
     1
102
RTVSPost2010Prop43
 90
        3
102
RTVSPost2010PropOp43
 70
     1
102
RTVSPost2010Prop44ColorIndex
 90
        5
102
RTVSPost2010Prop44ColorRGB
 90
      255
102
RTVSPost2010PropOp44
 70
     1
102
RTVSPost2010Prop45
280
     0
102
RTVSPost2010PropOp45
 70
     1
102
RTVSPost2010Prop46
 90
       50
102
RTVSPost2010PropOp46
 70
     1
102
RTVSPost2010Prop47
 90
       50
102
RTVSPost2010PropOp47
 70
     1
102
RTVSPost2010Prop48
 90
       50
102
RTVSPost2010PropOp48
 70
     1
102
RTVSPost2010Prop49
280
     0
102
RTVSPost2010PropOp49
 70
     1
102
RTVSPost2010Prop50
 90
       50
102
RTVSPost2010PropOp50
 70
     1
102
RTVSPost2010Prop51ColorIndex
 90
      256
102
RTVSPost2010Prop51ColorRGB
 90
-16777216
102
RTVSPost2010PropOp51
 70
     0
102
RTVSPost2010Prop52
140
1.0
102
RTVSPost2010PropOp52
 70
     0
102
RTVSPost2010Prop53
 90
        2
102
RTVSPost2010PropOp53
 70
     1
102
RTVSPost2010Prop54
  1
strokes_ogs.tif
102
RTVSPost2010PropOp54
 70
     1
102
RTVSPost2010Prop55
280
     0
102
RTVSPost2010PropOp55
 70
     1
102
RTVSPost2010Prop56
140
1.0
102
RTVSPost2010PropOp56
 70
     1
102
RTVSPost2010Prop57
140
1.0
102
RTVSPost2010PropOp57
 70
     1
102
RTVSPropertyOp0
 70
     1
102
RTVSPropertyOp1
 70
     1
102
RTVSPropertyOp2
 70
     1
102
RTVSPropertyOp3
 70
     1
102
RTVSPropertyOp4
 70
     1
102
RTVSPropertyOp5
 70
     1
102
RTVSPropertyOp6
 70
     1
102
RTVSPropertyOp7
 70
     1
102
RTVSPropertyOp8
 70
     1
102
RTVSPropertyOp9
 70
     1
102
RTVSPropertyOp10
 70
     1
102
RTVSPropertyOp11
 70
     1
102
RTVSPropertyOp12
 70
     1
102
RTVSPropertyOp13
 70
     1
102
RTVSPropertyOp14
 70
     1
102
RTVSPropertyOp15
 70
     1
102
RTVSPropertyOp16
 70
     1
102
RTVSPropertyOp17
 70
     1
102
RTVSPropertyOp18
 70
     1
102
RTVSPropertyOp19
 70
     1
102
RTVSPropertyOp20
 70
     1
102
RTVSPropertyOp21
 70
     1
102
RTVSPropertyOp22
 70
     1
102
RTVSPropertyOp23
 70
     1
102
RTVSPropertyOp24
 70
     1
102
RTVSPropertyOp25
 70
     1
102
RTVSPropertyOp26
 70
     1
102
RTVSPropertyOp27
 70
     1
102
RTVSPropertyOp28
 70
     1
102
RTVSPropertyOp29
 70
     1
102
RTVSPropertyOp30
 70
     1
102
RTVSPropertyOp31
 70
     1
102
RTVSPropertyOp32
 70
     1
102
RTVSPropertyOp33
 70
     1
102
RTVSPropertyOp34
 70
     1
102
RTVSPropertyOp35
 70
     1
102
RTVSPropertyOp36
 70
     1
102
RTVSPropertyOp37
 70
     1
102
RTVSPropertyOp38
 70
     1
102
RTVSPropertyOp39
 70
     1
102
RTVSPropertyOp40
 70
     1
102
RTVSPropertyOp41
 70
     1
102
RTVSPropertyOp42
 70
     1
102
RTVSPropertyOp43
 70
     1
102
RTVSPropertyOp44
 70
     1
102
RTVSPropertyOp45
 70
     1
102
RTVSPropertyOp46
 70
     1
102
RTVSPropertyOp47
 70
     1
102
RTVSPropertyOp48
 70
     1
102
RTVSPropertyOp49
 70
     1
102
RTVSPropertyOp50
 70
     1
102
RTVSPropertyOp51
 70
     0
102
RTVSPropertyOp52
 70
     0
102
RTVSPropertyOp53
 70
     1
102
RTVSPropertyOp54
 70
     1
102
RTVSPropertyOp55
 70
     1
102
RTVSPropertyOp56
 70
     1
102
RTVSPropertyOp57
 70
     1
102
RTVSPropertyOp58
 70
     1
102
RTVSPropertyOp59
 70
     1
102
RTVSPropertyOp60
 70
     1
102
RTVSPropertyOp61
 70
     1
102
RTVSPropertyOp62
 70
     1
  0
XRECORD
  5
1D05
102
{ACAD_REACTORS
330
1D04
102
}
330
1D04
100
AcDbXrecord
280
     1
102
RTVSPost2010Prop28
280
     0
102
RTVSPost2010PropOp28
 70
     0
102
RTVSPost2010Prop29
280
     1
102
RTVSPost2010PropOp29
 70
     0
102
RTVSPost2010Prop30
280
     1
102
RTVSPost2010PropOp30
 70
     0
102
RTVSPost2010Prop31
280
     0
102
RTVSPost2010PropOp31
 70
     0
102
RTVSPost2010Prop32
280
     0
102
RTVSPost2010PropOp32
 70
     0
102
RTVSPost2010Prop33
280
     0
102
RTVSPost2010PropOp33
 70
     0
102
RTVSPost2010Prop34
280
     0
102
RTVSPost2010PropOp34
 70
     0
102
RTVSPost2010Prop35
280
     0
102
RTVSPost2010PropOp35
 70
     0
102
RTVSPost2010Prop36
280
     0
102
RTVSPost2010PropOp36
 70
     0
102
RTVSPost2010Prop37
 90
       50
102
RTVSPost2010PropOp37
 70
     0
102
RTVSPost2010Prop38
140
0.0
102
RTVSPost2010PropOp38
 70
     0
102
RTVSPost2010Prop39
140
1.0
102
RTVSPost2010PropOp39
 70
     0
102
RTVSPost2010Prop40
 90
        0
102
RTVSPost2010PropOp40
 70
     0
102
RTVSPost2010Prop41ColorIndex
 90
       18
102
RTVSPost2010Prop41ColorRGB
 90
        0
102
RTVSPost2010PropOp41
 70
     0
102
RTVSPost2010Prop42
 90
       50
102
RTVSPost2010PropOp42
 70
     0
102
RTVSPost2010Prop43
 90
        3
102
RTVSPost2010PropOp43
 70
     0
102
RTVSPost2010Prop44ColorIndex
 90
        5
102
RTVSPost2010Prop44ColorRGB
 90
      255
102
RTVSPost2010PropOp44
 70
     0
102
RTVSPost2010Prop45
280
     0
102
RTVSPost2010PropOp45
 70
     0
102
RTVSPost2010Prop46
 90
       50
102
RTVSPost2010PropOp46
 70
     0
102
RTVSPost2010Prop47
 90
       50
102
RTVSPost2010PropOp47
 70
     0
102
RTVSPost2010Prop48
 90
       50
102
RTVSPost2010PropOp48
 70
     0
102
RTVSPost2010Prop49
280
     0
102
RTVSPost2010PropOp49
 70
     0
102
RTVSPost2010Prop50
 90
       50
102
RTVSPost2010PropOp50
 70
     0
102
RTVSPost2010Prop51ColorIndex
 90
      256
102
RTVSPost2010Prop51ColorRGB
 90
-16777216
102
RTVSPost2010PropOp51
 70
     0
102
RTVSPost2010Prop52
140
1.0
102
RTVSPost2010PropOp52
 70
     0
102
RTVSPost2010Prop53
 90
        2
102
RTVSPost2010PropOp53
 70
     0
102
RTVSPost2010Prop54
  1
strokes_ogs.tif
102
RTVSPost2010PropOp54
 70
     0
102
RTVSPost2010Prop55
280
     0
102
RTVSPost2010PropOp55
 70
     0
102
RTVSPost2010Prop56
140
1.0
102
RTVSPost2010PropOp56
 70
     0
102
RTVSPost2010Prop57
140
1.0
102
RTVSPost2010PropOp57
 70
     0
102
RTVSPropertyOp0
 70
     0
102
RTVSPropertyOp1
 70
     0
102
RTVSPropertyOp2
 70
     0
102
RTVSPropertyOp3
 70
     0
102
RTVSPropertyOp4
 70
     0
102
RTVSPropertyOp5
 70
     0
102
RTVSPropertyOp6
 70
     0
102
RTVSPropertyOp7
 70
     0
102
RTVSPropertyOp8
 70
     0
102
RTVSPropertyOp9
 70
     0
102
RTVSPropertyOp10
 70
     0
102
RTVSPropertyOp11
 70
     0
102
RTVSPropertyOp12
 70
     0
102
RTVSPropertyOp13
 70
     0
102
RTVSPropertyOp14
 70
     2
102
RTVSPropertyOp15
 70
     0
102
RTVSPropertyOp16
 70
     0
102
RTVSPropertyOp17
 70
     0
102
RTVSPropertyOp18
 70
     0
102
RTVSPropertyOp19
 70
     0
102
RTVSPropertyOp20
 70
     0
102
RTVSPropertyOp21
 70
     0
102
RTVSPropertyOp22
 70
     0
102
RTVSPropertyOp23
 70
     0
102
RTVSPropertyOp24
 70
     0
102
RTVSPropertyOp25
 70
     0
102
RTVSPropertyOp26
 70
     0
102
RTVSPropertyOp27
 70
     0
102
RTVSPropertyOp28
 70
     0
102
RTVSPropertyOp29
 70
     0
102
RTVSPropertyOp30
 70
     0
102
RTVSPropertyOp31
 70
     0
102
RTVSPropertyOp32
 70
     0
102
RTVSPropertyOp33
 70
     0
102
RTVSPropertyOp34
 70
     0
102
RTVSPropertyOp35
 70
     0
102
RTVSPropertyOp36
 70
     0
102
RTVSPropertyOp37
 70
     0
102
RTVSPropertyOp38
 70
     0
102
RTVSPropertyOp39
 70
     0
102
RTVSPropertyOp40
 70
     0
102
RTVSPropertyOp41
 70
     0
102
RTVSPropertyOp42
 70
     0
102
RTVSPropertyOp43
 70
     0
102
RTVSPropertyOp44
 70
     0
102
RTVSPropertyOp45
 70
     0
102
RTVSPropertyOp46
 70
     0
102
RTVSPropertyOp47
 70
     0
102
RTVSPropertyOp48
 70
     0
102
RTVSPropertyOp49
 70
     0
102
RTVSPropertyOp50
 70
     0
102
RTVSPropertyOp51
 70
     0
102
RTVSPropertyOp52
 70
     0
102
RTVSPropertyOp53
 70
     0
102
RTVSPropertyOp54
 70
     0
102
RTVSPropertyOp55
 70
     0
102
RTVSPropertyOp56
 70
     0
102
RTVSPropertyOp57
 70
     0
102
RTVSPropertyOp58
 70
     1
102
RTVSPropertyOp59
 70
     1
102
RTVSPropertyOp60
 70
     1
102
RTVSPropertyOp61
 70
     1
102
RTVSPropertyOp62
 70
     1
  0
XRECORD
  5
1CF5
102
{ACAD_REACTORS
330
1CF4
102
}
330
1CF4
100
AcDbXrecord
280
     1
102
RTVSPost2010Prop28
280
     0
102
RTVSPost2010PropOp28
 70
     1
102
RTVSPost2010Prop29
280
     1
102
RTVSPost2010PropOp29
 70
     1
102
RTVSPost2010Prop30
280
     1
102
RTVSPost2010PropOp30
 70
     1
102
RTVSPost2010Prop31
280
     0
102
RTVSPost2010PropOp31
 70
     1
102
RTVSPost2010Prop32
280
     0
102
RTVSPost2010PropOp32
 70
     1
102
RTVSPost2010Prop33
280
     0
102
RTVSPost2010PropOp33
 70
     1
102
RTVSPost2010Prop34
280
     0
102
RTVSPost2010PropOp34
 70
     1
102
RTVSPost2010Prop35
280
     0
102
RTVSPost2010PropOp35
 70
     1
102
RTVSPost2010Prop36
280
     0
102
RTVSPost2010PropOp36
 70
     1
102
RTVSPost2010Prop37
 90
       50
102
RTVSPost2010PropOp37
 70
     1
102
RTVSPost2010Prop38
140
0.0
102
RTVSPost2010PropOp38
 70
     1
102
RTVSPost2010Prop39
140
1.0
102
RTVSPost2010PropOp39
 70
     1
102
RTVSPost2010Prop40
 90
        0
102
RTVSPost2010PropOp40
 70
     1
102
RTVSPost2010Prop41ColorIndex
 90
       18
102
RTVSPost2010Prop41ColorRGB
 90
        0
102
RTVSPost2010PropOp41
 70
     1
102
RTVSPost2010Prop42
 90
       50
102
RTVSPost2010PropOp42
 70
     1
102
RTVSPost2010Prop43
 90
        3
102
RTVSPost2010PropOp43
 70
     1
102
RTVSPost2010Prop44ColorIndex
 90
        5
102
RTVSPost2010Prop44ColorRGB
 90
      255
102
RTVSPost2010PropOp44
 70
     1
102
RTVSPost2010Prop45
280
     0
102
RTVSPost2010PropOp45
 70
     1
102
RTVSPost2010Prop46
 90
       50
102
RTVSPost2010PropOp46
 70
     1
102
RTVSPost2010Prop47
 90
       50
102
RTVSPost2010PropOp47
 70
     1
102
RTVSPost2010Prop48
 90
       50
102
RTVSPost2010PropOp48
 70
     1
102
RTVSPost2010Prop49
280
     0
102
RTVSPost2010PropOp49
 70
     1
102
RTVSPost2010Prop50
 90
       50
102
RTVSPost2010PropOp50
 70
     1
102
RTVSPost2010Prop51ColorIndex
 90
      256
102
RTVSPost2010Prop51ColorRGB
 90
-16777216
102
RTVSPost2010PropOp51
 70
     0
102
RTVSPost2010Prop52
140
1.0
102
RTVSPost2010PropOp52
 70
     0
102
RTVSPost2010Prop53
 90
        2
102
RTVSPost2010PropOp53
 70
     1
102
RTVSPost2010Prop54
  1
strokes_ogs.tif
102
RTVSPost2010PropOp54
 70
     1
102
RTVSPost2010Prop55
280
     0
102
RTVSPost2010PropOp55
 70
     1
102
RTVSPost2010Prop56
140
1.0
102
RTVSPost2010PropOp56
 70
     1
102
RTVSPost2010Prop57
140
1.0
102
RTVSPost2010PropOp57
 70
     1
102
RTVSPropertyOp0
 70
     1
102
RTVSPropertyOp1
 70
     1
102
RTVSPropertyOp2
 70
     1
102
RTVSPropertyOp3
 70
     1
102
RTVSPropertyOp4
 70
     1
102
RTVSPropertyOp5
 70
     1
102
RTVSPropertyOp6
 70
     1
102
RTVSPropertyOp7
 70
     1
102
RTVSPropertyOp8
 70
     1
102
RTVSPropertyOp9
 70
     1
102
RTVSPropertyOp10
 70
     1
102
RTVSPropertyOp11
 70
     1
102
RTVSPropertyOp12
 70
     1
102
RTVSPropertyOp13
 70
     1
102
RTVSPropertyOp14
 70
     1
102
RTVSPropertyOp15
 70
     1
102
RTVSPropertyOp16
 70
     1
102
RTVSPropertyOp17
 70
     1
102
RTVSPropertyOp18
 70
     1
102
RTVSPropertyOp19
 70
     1
102
RTVSPropertyOp20
 70
     1
102
RTVSPropertyOp21
 70
     1
102
RTVSPropertyOp22
 70
     1
102
RTVSPropertyOp23
 70
     1
102
RTVSPropertyOp24
 70
     1
102
RTVSPropertyOp25
 70
     1
102
RTVSPropertyOp26
 70
     1
102
RTVSPropertyOp27
 70
     1
102
RTVSPropertyOp28
 70
     1
102
RTVSPropertyOp29
 70
     1
102
RTVSPropertyOp30
 70
     1
102
RTVSPropertyOp31
 70
     1
102
RTVSPropertyOp32
 70
     1
102
RTVSPropertyOp33
 70
     1
102
RTVSPropertyOp34
 70
     1
102
RTVSPropertyOp35
 70
     1
102
RTVSPropertyOp36
 70
     1
102
RTVSPropertyOp37
 70
     1
102
RTVSPropertyOp38
 70
     1
102
RTVSPropertyOp39
 70
     1
102
RTVSPropertyOp40
 70
     1
102
RTVSPropertyOp41
 70
     1
102
RTVSPropertyOp42
 70
     1
102
RTVSPropertyOp43
 70
     1
102
RTVSPropertyOp44
 70
     1
102
RTVSPropertyOp45
 70
     1
102
RTVSPropertyOp46
 70
     1
102
RTVSPropertyOp47
 70
     1
102
RTVSPropertyOp48
 70
     1
102
RTVSPropertyOp49
 70
     1
102
RTVSPropertyOp50
 70
     1
102
RTVSPropertyOp51
 70
     0
102
RTVSPropertyOp52
 70
     0
102
RTVSPropertyOp53
 70
     1
102
RTVSPropertyOp54
 70
     1
102
RTVSPropertyOp55
 70
     1
102
RTVSPropertyOp56
 70
     1
102
RTVSPropertyOp57
 70
     1
102
RTVSPropertyOp58
 70
     1
102
RTVSPropertyOp59
 70
     1
102
RTVSPropertyOp60
 70
     1
102
RTVSPropertyOp61
 70
     1
102
RTVSPropertyOp62
 70
     1
  0
XRECORD
  5
1D07
102
{ACAD_REACTORS
330
1D06
102
}
330
1D06
100
AcDbXrecord
280
     1
102
RTVSPost2010Prop28
280
     0
102
RTVSPost2010PropOp28
 70
     0
102
RTVSPost2010Prop29
280
     1
102
RTVSPost2010PropOp29
 70
     0
102
RTVSPost2010Prop30
280
     1
102
RTVSPost2010PropOp30
 70
     0
102
RTVSPost2010Prop31
280
     0
102
RTVSPost2010PropOp31
 70
     0
102
RTVSPost2010Prop32
280
     0
102
RTVSPost2010PropOp32
 70
     0
102
RTVSPost2010Prop33
280
     0
102
RTVSPost2010PropOp33
 70
     0
102
RTVSPost2010Prop34
280
     0
102
RTVSPost2010PropOp34
 70
     0
102
RTVSPost2010Prop35
280
     0
102
RTVSPost2010PropOp35
 70
     0
102
RTVSPost2010Prop36
280
     0
102
RTVSPost2010PropOp36
 70
     0
102
RTVSPost2010Prop37
 90
       50
102
RTVSPost2010PropOp37
 70
     0
102
RTVSPost2010Prop38
140
0.0
102
RTVSPost2010PropOp38
 70
     0
102
RTVSPost2010Prop39
140
1.0
102
RTVSPost2010PropOp39
 70
     0
102
RTVSPost2010Prop40
 90
        0
102
RTVSPost2010PropOp40
 70
     0
102
RTVSPost2010Prop41ColorIndex
 90
       18
102
RTVSPost2010Prop41ColorRGB
 90
        0
102
RTVSPost2010PropOp41
 70
     0
102
RTVSPost2010Prop42
 90
       50
102
RTVSPost2010PropOp42
 70
     0
102
RTVSPost2010Prop43
 90
        3
102
RTVSPost2010PropOp43
 70
     0
102
RTVSPost2010Prop44ColorIndex
 90
        5
102
RTVSPost2010Prop44ColorRGB
 90
      255
102
RTVSPost2010PropOp44
 70
     0
102
RTVSPost2010Prop45
280
     0
102
RTVSPost2010PropOp45
 70
     0
102
RTVSPost2010Prop46
 90
       50
102
RTVSPost2010PropOp46
 70
     0
102
RTVSPost2010Prop47
 90
       50
102
RTVSPost2010PropOp47
 70
     0
102
RTVSPost2010Prop48
 90
       50
102
RTVSPost2010PropOp48
 70
     0
102
RTVSPost2010Prop49
280
     0
102
RTVSPost2010PropOp49
 70
     0
102
RTVSPost2010Prop50
 90
       50
102
RTVSPost2010PropOp50
 70
     0
102
RTVSPost2010Prop51ColorIndex
 90
      256
102
RTVSPost2010Prop51ColorRGB
 90
-16777216
102
RTVSPost2010PropOp51
 70
     0
102
RTVSPost2010Prop52
140
1.0
102
RTVSPost2010PropOp52
 70
     0
102
RTVSPost2010Prop53
 90
        2
102
RTVSPost2010PropOp53
 70
     0
102
RTVSPost2010Prop54
  1
strokes_ogs.tif
102
RTVSPost2010PropOp54
 70
     0
102
RTVSPost2010Prop55
280
     0
102
RTVSPost2010PropOp55
 70
     0
102
RTVSPost2010Prop56
140
1.0
102
RTVSPost2010PropOp56
 70
     0
102
RTVSPost2010Prop57
140
1.0
102
RTVSPost2010PropOp57
 70
     0
102
RTVSPropertyOp0
 70
     0
102
RTVSPropertyOp1
 70
     0
102
RTVSPropertyOp2
 70
     0
102
RTVSPropertyOp3
 70
     0
102
RTVSPropertyOp4
 70
     0
102
RTVSPropertyOp5
 70
     0
102
RTVSPropertyOp6
 70
     0
102
RTVSPropertyOp7
 70
     0
102
RTVSPropertyOp8
 70
     0
102
RTVSPropertyOp9
 70
     0
102
RTVSPropertyOp10
 70
     0
102
RTVSPropertyOp11
 70
     0
102
RTVSPropertyOp12
 70
     0
102
RTVSPropertyOp13
 70
     0
102
RTVSPropertyOp14
 70
     2
102
RTVSPropertyOp15
 70
     0
102
RTVSPropertyOp16
 70
     0
102
RTVSPropertyOp17
 70
     0
102
RTVSPropertyOp18
 70
     0
102
RTVSPropertyOp19
 70
     0
102
RTVSPropertyOp20
 70
     0
102
RTVSPropertyOp21
 70
     0
102
RTVSPropertyOp22
 70
     0
102
RTVSPropertyOp23
 70
     0
102
RTVSPropertyOp24
 70
     0
102
RTVSPropertyOp25
 70
     0
102
RTVSPropertyOp26
 70
     0
102
RTVSPropertyOp27
 70
     0
102
RTVSPropertyOp28
 70
     0
102
RTVSPropertyOp29
 70
     0
102
RTVSPropertyOp30
 70
     0
102
RTVSPropertyOp31
 70
     0
102
RTVSPropertyOp32
 70
     0
102
RTVSPropertyOp33
 70
     0
102
RTVSPropertyOp34
 70
     0
102
RTVSPropertyOp35
 70
     0
102
RTVSPropertyOp36
 70
     0
102
RTVSPropertyOp37
 70
     0
102
RTVSPropertyOp38
 70
     0
102
RTVSPropertyOp39
 70
     0
102
RTVSPropertyOp40
 70
     0
102
RTVSPropertyOp41
 70
     0
102
RTVSPropertyOp42
 70
     0
102
RTVSPropertyOp43
 70
     0
102
RTVSPropertyOp44
 70
     0
102
RTVSPropertyOp45
 70
     0
102
RTVSPropertyOp46
 70
     0
102
RTVSPropertyOp47
 70
     0
102
RTVSPropertyOp48
 70
     0
102
RTVSPropertyOp49
 70
     0
102
RTVSPropertyOp50
 70
     0
102
RTVSPropertyOp51
 70
     0
102
RTVSPropertyOp52
 70
     0
102
RTVSPropertyOp53
 70
     0
102
RTVSPropertyOp54
 70
     0
102
RTVSPropertyOp55
 70
     0
102
RTVSPropertyOp56
 70
     0
102
RTVSPropertyOp57
 70
     0
102
RTVSPropertyOp58
 70
     1
102
RTVSPropertyOp59
 70
     1
102
RTVSPropertyOp60
 70
     1
102
RTVSPropertyOp61
 70
     1
102
RTVSPropertyOp62
 70
     1
  0
XRECORD
  5
1CED
102
{ACAD_REACTORS
330
1CEC
102
}
330
1CEC
100
AcDbXrecord
280
     1
102
RTVSPost2010Prop28
280
     0
102
RTVSPost2010PropOp28
 70
     1
102
RTVSPost2010Prop29
280
     1
102
RTVSPost2010PropOp29
 70
     1
102
RTVSPost2010Prop30
280
     1
102
RTVSPost2010PropOp30
 70
     1
102
RTVSPost2010Prop31
280
     0
102
RTVSPost2010PropOp31
 70
     1
102
RTVSPost2010Prop32
280
     0
102
RTVSPost2010PropOp32
 70
     1
102
RTVSPost2010Prop33
280
     0
102
RTVSPost2010PropOp33
 70
     1
102
RTVSPost2010Prop34
280
     0
102
RTVSPost2010PropOp34
 70
     1
102
RTVSPost2010Prop35
280
     0
102
RTVSPost2010PropOp35
 70
     1
102
RTVSPost2010Prop36
280
     0
102
RTVSPost2010PropOp36
 70
     1
102
RTVSPost2010Prop37
 90
       50
102
RTVSPost2010PropOp37
 70
     1
102
RTVSPost2010Prop38
140
0.0
102
RTVSPost2010PropOp38
 70
     1
102
RTVSPost2010Prop39
140
1.0
102
RTVSPost2010PropOp39
 70
     1
102
RTVSPost2010Prop40
 90
        0
102
RTVSPost2010PropOp40
 70
     1
102
RTVSPost2010Prop41ColorIndex
 90
       18
102
RTVSPost2010Prop41ColorRGB
 90
        0
102
RTVSPost2010PropOp41
 70
     1
102
RTVSPost2010Prop42
 90
       50
102
RTVSPost2010PropOp42
 70
     1
102
RTVSPost2010Prop43
 90
        3
102
RTVSPost2010PropOp43
 70
     1
102
RTVSPost2010Prop44ColorIndex
 90
        5
102
RTVSPost2010Prop44ColorRGB
 90
      255
102
RTVSPost2010PropOp44
 70
     1
102
RTVSPost2010Prop45
280
     0
102
RTVSPost2010PropOp45
 70
     1
102
RTVSPost2010Prop46
 90
       50
102
RTVSPost2010PropOp46
 70
     1
102
RTVSPost2010Prop47
 90
       50
102
RTVSPost2010PropOp47
 70
     1
102
RTVSPost2010Prop48
 90
       50
102
RTVSPost2010PropOp48
 70
     1
102
RTVSPost2010Prop49
280
     0
102
RTVSPost2010PropOp49
 70
     1
102
RTVSPost2010Prop50
 90
       50
102
RTVSPost2010PropOp50
 70
     1
102
RTVSPost2010Prop51ColorIndex
 90
      256
102
RTVSPost2010Prop51ColorRGB
 90
-16777216
102
RTVSPost2010PropOp51
 70
     0
102
RTVSPost2010Prop52
140
1.0
102
RTVSPost2010PropOp52
 70
     0
102
RTVSPost2010Prop53
 90
        2
102
RTVSPost2010PropOp53
 70
     1
102
RTVSPost2010Prop54
  1
strokes_ogs.tif
102
RTVSPost2010PropOp54
 70
     1
102
RTVSPost2010Prop55
280
     0
102
RTVSPost2010PropOp55
 70
     1
102
RTVSPost2010Prop56
140
1.0
102
RTVSPost2010PropOp56
 70
     1
102
RTVSPost2010Prop57
140
1.0
102
RTVSPost2010PropOp57
 70
     1
102
RTVSPropertyOp0
 70
     1
102
RTVSPropertyOp1
 70
     1
102
RTVSPropertyOp2
 70
     1
102
RTVSPropertyOp3
 70
     1
102
RTVSPropertyOp4
 70
     1
102
RTVSPropertyOp5
 70
     1
102
RTVSPropertyOp6
 70
     1
102
RTVSPropertyOp7
 70
     1
102
RTVSPropertyOp8
 70
     1
102
RTVSPropertyOp9
 70
     1
102
RTVSPropertyOp10
 70
     1
102
RTVSPropertyOp11
 70
     1
102
RTVSPropertyOp12
 70
     1
102
RTVSPropertyOp13
 70
     1
102
RTVSPropertyOp14
 70
     1
102
RTVSPropertyOp15
 70
     1
102
RTVSPropertyOp16
 70
     1
102
RTVSPropertyOp17
 70
     1
102
RTVSPropertyOp18
 70
     1
102
RTVSPropertyOp19
 70
     1
102
RTVSPropertyOp20
 70
     1
102
RTVSPropertyOp21
 70
     1
102
RTVSPropertyOp22
 70
     1
102
RTVSPropertyOp23
 70
     1
102
RTVSPropertyOp24
 70
     1
102
RTVSPropertyOp25
 70
     1
102
RTVSPropertyOp26
 70
     1
102
RTVSPropertyOp27
 70
     1
102
RTVSPropertyOp28
 70
     1
102
RTVSPropertyOp29
 70
     1
102
RTVSPropertyOp30
 70
     1
102
RTVSPropertyOp31
 70
     1
102
RTVSPropertyOp32
 70
     1
102
RTVSPropertyOp33
 70
     1
102
RTVSPropertyOp34
 70
     1
102
RTVSPropertyOp35
 70
     1
102
RTVSPropertyOp36
 70
     1
102
RTVSPropertyOp37
 70
     1
102
RTVSPropertyOp38
 70
     1
102
RTVSPropertyOp39
 70
     1
102
RTVSPropertyOp40
 70
     1
102
RTVSPropertyOp41
 70
     1
102
RTVSPropertyOp42
 70
     1
102
RTVSPropertyOp43
 70
     1
102
RTVSPropertyOp44
 70
     1
102
RTVSPropertyOp45
 70
     1
102
RTVSPropertyOp46
 70
     1
102
RTVSPropertyOp47
 70
     1
102
RTVSPropertyOp48
 70
     1
102
RTVSPropertyOp49
 70
     1
102
RTVSPropertyOp50
 70
     1
102
RTVSPropertyOp51
 70
     0
102
RTVSPropertyOp52
 70
     0
102
RTVSPropertyOp53
 70
     1
102
RTVSPropertyOp54
 70
     1
102
RTVSPropertyOp55
 70
     1
102
RTVSPropertyOp56
 70
     1
102
RTVSPropertyOp57
 70
     1
102
RTVSPropertyOp58
 70
     1
102
RTVSPropertyOp59
 70
     1
102
RTVSPropertyOp60
 70
     1
102
RTVSPropertyOp61
 70
     1
102
RTVSPropertyOp62
 70
     1
  0
XRECORD
  5
1D03
102
{ACAD_REACTORS
330
1D02
102
}
330
1D02
100
AcDbXrecord
280
     1
102
RTVSPost2010Prop28
280
     0
102
RTVSPost2010PropOp28
 70
     1
102
RTVSPost2010Prop29
280
     1
102
RTVSPost2010PropOp29
 70
     1
102
RTVSPost2010Prop30
280
     1
102
RTVSPost2010PropOp30
 70
     1
102
RTVSPost2010Prop31
280
     0
102
RTVSPost2010PropOp31
 70
     1
102
RTVSPost2010Prop32
280
     0
102
RTVSPost2010PropOp32
 70
     1
102
RTVSPost2010Prop33
280
     0
102
RTVSPost2010PropOp33
 70
     1
102
RTVSPost2010Prop34
280
     0
102
RTVSPost2010PropOp34
 70
     1
102
RTVSPost2010Prop35
280
     0
102
RTVSPost2010PropOp35
 70
     1
102
RTVSPost2010Prop36
280
     0
102
RTVSPost2010PropOp36
 70
     1
102
RTVSPost2010Prop37
 90
       50
102
RTVSPost2010PropOp37
 70
     1
102
RTVSPost2010Prop38
140
0.0
102
RTVSPost2010PropOp38
 70
     1
102
RTVSPost2010Prop39
140
1.0
102
RTVSPost2010PropOp39
 70
     1
102
RTVSPost2010Prop40
 90
        0
102
RTVSPost2010PropOp40
 70
     1
102
RTVSPost2010Prop41ColorIndex
 90
       18
102
RTVSPost2010Prop41ColorRGB
 90
        0
102
RTVSPost2010PropOp41
 70
     1
102
RTVSPost2010Prop42
 90
       50
102
RTVSPost2010PropOp42
 70
     1
102
RTVSPost2010Prop43
 90
        3
102
RTVSPost2010PropOp43
 70
     1
102
RTVSPost2010Prop44ColorIndex
 90
        5
102
RTVSPost2010Prop44ColorRGB
 90
      255
102
RTVSPost2010PropOp44
 70
     1
102
RTVSPost2010Prop45
280
     0
102
RTVSPost2010PropOp45
 70
     1
102
RTVSPost2010Prop46
 90
       50
102
RTVSPost2010PropOp46
 70
     1
102
RTVSPost2010Prop47
 90
       50
102
RTVSPost2010PropOp47
 70
     1
102
RTVSPost2010Prop48
 90
       50
102
RTVSPost2010PropOp48
 70
     1
102
RTVSPost2010Prop49
280
     0
102
RTVSPost2010PropOp49
 70
     1
102
RTVSPost2010Prop50
 90
       50
102
RTVSPost2010PropOp50
 70
     1
102
RTVSPost2010Prop51ColorIndex
 90
      256
102
RTVSPost2010Prop51ColorRGB
 90
-16777216
102
RTVSPost2010PropOp51
 70
     0
102
RTVSPost2010Prop52
140
1.0
102
RTVSPost2010PropOp52
 70
     0
102
RTVSPost2010Prop53
 90
        2
102
RTVSPost2010PropOp53
 70
     1
102
RTVSPost2010Prop54
  1
strokes_ogs.tif
102
RTVSPost2010PropOp54
 70
     1
102
RTVSPost2010Prop55
280
     0
102
RTVSPost2010PropOp55
 70
     1
102
RTVSPost2010Prop56
140
1.0
102
RTVSPost2010PropOp56
 70
     1
102
RTVSPost2010Prop57
140
1.0
102
RTVSPost2010PropOp57
 70
     1
102
RTVSPropertyOp0
 70
     1
102
RTVSPropertyOp1
 70
     1
102
RTVSPropertyOp2
 70
     1
102
RTVSPropertyOp3
 70
     1
102
RTVSPropertyOp4
 70
     1
102
RTVSPropertyOp5
 70
     1
102
RTVSPropertyOp6
 70
     1
102
RTVSPropertyOp7
 70
     1
102
RTVSPropertyOp8
 70
     1
102
RTVSPropertyOp9
 70
     1
102
RTVSPropertyOp10
 70
     1
102
RTVSPropertyOp11
 70
     1
102
RTVSPropertyOp12
 70
     1
102
RTVSPropertyOp13
 70
     1
102
RTVSPropertyOp14
 70
     1
102
RTVSPropertyOp15
 70
     1
102
RTVSPropertyOp16
 70
     1
102
RTVSPropertyOp17
 70
     1
102
RTVSPropertyOp18
 70
     1
102
RTVSPropertyOp19
 70
     1
102
RTVSPropertyOp20
 70
     1
102
RTVSPropertyOp21
 70
     1
102
RTVSPropertyOp22
 70
     1
102
RTVSPropertyOp23
 70
     1
102
RTVSPropertyOp24
 70
     1
102
RTVSPropertyOp25
 70
     1
102
RTVSPropertyOp26
 70
     1
102
RTVSPropertyOp27
 70
     1
102
RTVSPropertyOp28
 70
     1
102
RTVSPropertyOp29
 70
     1
102
RTVSPropertyOp30
 70
     1
102
RTVSPropertyOp31
 70
     1
102
RTVSPropertyOp32
 70
     1
102
RTVSPropertyOp33
 70
     1
102
RTVSPropertyOp34
 70
     1
102
RTVSPropertyOp35
 70
     1
102
RTVSPropertyOp36
 70
     1
102
RTVSPropertyOp37
 70
     1
102
RTVSPropertyOp38
 70
     1
102
RTVSPropertyOp39
 70
     1
102
RTVSPropertyOp40
 70
     1
102
RTVSPropertyOp41
 70
     1
102
RTVSPropertyOp42
 70
     1
102
RTVSPropertyOp43
 70
     1
102
RTVSPropertyOp44
 70
     1
102
RTVSPropertyOp45
 70
     1
102
RTVSPropertyOp46
 70
     1
102
RTVSPropertyOp47
 70
     1
102
RTVSPropertyOp48
 70
     1
102
RTVSPropertyOp49
 70
     1
102
RTVSPropertyOp50
 70
     1
102
RTVSPropertyOp51
 70
     0
102
RTVSPropertyOp52
 70
     0
102
RTVSPropertyOp53
 70
     1
102
RTVSPropertyOp54
 70
     1
102
RTVSPropertyOp55
 70
     1
102
RTVSPropertyOp56
 70
     1
102
RTVSPropertyOp57
 70
     1
102
RTVSPropertyOp58
 70
     1
102
RTVSPropertyOp59
 70
     1
102
RTVSPropertyOp60
 70
     1
102
RTVSPropertyOp61
 70
     1
102
RTVSPropertyOp62
 70
     1
  0
XRECORD
  5
1D01
102
{ACAD_REACTORS
330
1D00
102
}
330
1D00
100
AcDbXrecord
280
     1
102
RTVSPost2010Prop28
280
     0
102
RTVSPost2010PropOp28
 70
     1
102
RTVSPost2010Prop29
280
     1
102
RTVSPost2010PropOp29
 70
     1
102
RTVSPost2010Prop30
280
     1
102
RTVSPost2010PropOp30
 70
     1
102
RTVSPost2010Prop31
280
     0
102
RTVSPost2010PropOp31
 70
     1
102
RTVSPost2010Prop32
280
     0
102
RTVSPost2010PropOp32
 70
     1
102
RTVSPost2010Prop33
280
     0
102
RTVSPost2010PropOp33
 70
     1
102
RTVSPost2010Prop34
280
     0
102
RTVSPost2010PropOp34
 70
     1
102
RTVSPost2010Prop35
280
     0
102
RTVSPost2010PropOp35
 70
     1
102
RTVSPost2010Prop36
280
     0
102
RTVSPost2010PropOp36
 70
     1
102
RTVSPost2010Prop37
 90
       50
102
RTVSPost2010PropOp37
 70
     1
102
RTVSPost2010Prop38
140
0.0
102
RTVSPost2010PropOp38
 70
     1
102
RTVSPost2010Prop39
140
1.0
102
RTVSPost2010PropOp39
 70
     1
102
RTVSPost2010Prop40
 90
        0
102
RTVSPost2010PropOp40
 70
     1
102
RTVSPost2010Prop41ColorIndex
 90
       18
102
RTVSPost2010Prop41ColorRGB
 90
        0
102
RTVSPost2010PropOp41
 70
     1
102
RTVSPost2010Prop42
 90
       50
102
RTVSPost2010PropOp42
 70
     1
102
RTVSPost2010Prop43
 90
        3
102
RTVSPost2010PropOp43
 70
     1
102
RTVSPost2010Prop44ColorIndex
 90
        5
102
RTVSPost2010Prop44ColorRGB
 90
      255
102
RTVSPost2010PropOp44
 70
     1
102
RTVSPost2010Prop45
280
     0
102
RTVSPost2010PropOp45
 70
     1
102
RTVSPost2010Prop46
 90
       50
102
RTVSPost2010PropOp46
 70
     1
102
RTVSPost2010Prop47
 90
       50
102
RTVSPost2010PropOp47
 70
     1
102
RTVSPost2010Prop48
 90
       50
102
RTVSPost2010PropOp48
 70
     1
102
RTVSPost2010Prop49
280
     0
102
RTVSPost2010PropOp49
 70
     1
102
RTVSPost2010Prop50
 90
       50
102
RTVSPost2010PropOp50
 70
     1
102
RTVSPost2010Prop51ColorIndex
 90
      256
102
RTVSPost2010Prop51ColorRGB
 90
-16777216
102
RTVSPost2010PropOp51
 70
     0
102
RTVSPost2010Prop52
140
1.0
102
RTVSPost2010PropOp52
 70
     0
102
RTVSPost2010Prop53
 90
        2
102
RTVSPost2010PropOp53
 70
     1
102
RTVSPost2010Prop54
  1
strokes_ogs.tif
102
RTVSPost2010PropOp54
 70
     1
102
RTVSPost2010Prop55
280
     0
102
RTVSPost2010PropOp55
 70
     1
102
RTVSPost2010Prop56
140
1.0
102
RTVSPost2010PropOp56
 70
     1
102
RTVSPost2010Prop57
140
1.0
102
RTVSPost2010PropOp57
 70
     1
102
RTVSPropertyOp0
 70
     1
102
RTVSPropertyOp1
 70
     1
102
RTVSPropertyOp2
 70
     1
102
RTVSPropertyOp3
 70
     1
102
RTVSPropertyOp4
 70
     1
102
RTVSPropertyOp5
 70
     1
102
RTVSPropertyOp6
 70
     1
102
RTVSPropertyOp7
 70
     1
102
RTVSPropertyOp8
 70
     1
102
RTVSPropertyOp9
 70
     1
102
RTVSPropertyOp10
 70
     1
102
RTVSPropertyOp11
 70
     1
102
RTVSPropertyOp12
 70
     1
102
RTVSPropertyOp13
 70
     1
102
RTVSPropertyOp14
 70
     1
102
RTVSPropertyOp15
 70
     1
102
RTVSPropertyOp16
 70
     1
102
RTVSPropertyOp17
 70
     1
102
RTVSPropertyOp18
 70
     1
102
RTVSPropertyOp19
 70
     1
102
RTVSPropertyOp20
 70
     1
102
RTVSPropertyOp21
 70
     1
102
RTVSPropertyOp22
 70
     1
102
RTVSPropertyOp23
 70
     1
102
RTVSPropertyOp24
 70
     1
102
RTVSPropertyOp25
 70
     1
102
RTVSPropertyOp26
 70
     1
102
RTVSPropertyOp27
 70
     1
102
RTVSPropertyOp28
 70
     1
102
RTVSPropertyOp29
 70
     1
102
RTVSPropertyOp30
 70
     1
102
RTVSPropertyOp31
 70
     1
102
RTVSPropertyOp32
 70
     1
102
RTVSPropertyOp33
 70
     1
102
RTVSPropertyOp34
 70
     1
102
RTVSPropertyOp35
 70
     1
102
RTVSPropertyOp36
 70
     1
102
RTVSPropertyOp37
 70
     1
102
RTVSPropertyOp38
 70
     1
102
RTVSPropertyOp39
 70
     1
102
RTVSPropertyOp40
 70
     1
102
RTVSPropertyOp41
 70
     1
102
RTVSPropertyOp42
 70
     1
102
RTVSPropertyOp43
 70
     1
102
RTVSPropertyOp44
 70
     1
102
RTVSPropertyOp45
 70
     1
102
RTVSPropertyOp46
 70
     1
102
RTVSPropertyOp47
 70
     1
102
RTVSPropertyOp48
 70
     1
102
RTVSPropertyOp49
 70
     1
102
RTVSPropertyOp50
 70
     1
102
RTVSPropertyOp51
 70
     0
102
RTVSPropertyOp52
 70
     0
102
RTVSPropertyOp53
 70
     1
102
RTVSPropertyOp54
 70
     1
102
RTVSPropertyOp55
 70
     1
102
RTVSPropertyOp56
 70
     1
102
RTVSPropertyOp57
 70
     1
102
RTVSPropertyOp58
 70
     1
102
RTVSPropertyOp59
 70
     1
102
RTVSPropertyOp60
 70
     1
102
RTVSPropertyOp61
 70
     1
102
RTVSPropertyOp62
 70
     1
  0
XRECORD
  5
1CFB
102
{ACAD_REACTORS
330
1CFA
102
}
330
1CFA
100
AcDbXrecord
280
     1
102
RTVSPost2010Prop28
280
     0
102
RTVSPost2010PropOp28
 70
     1
102
RTVSPost2010Prop29
280
     1
102
RTVSPost2010PropOp29
 70
     1
102
RTVSPost2010Prop30
280
     1
102
RTVSPost2010PropOp30
 70
     1
102
RTVSPost2010Prop31
280
     0
102
RTVSPost2010PropOp31
 70
     1
102
RTVSPost2010Prop32
280
     0
102
RTVSPost2010PropOp32
 70
     1
102
RTVSPost2010Prop33
280
     0
102
RTVSPost2010PropOp33
 70
     1
102
RTVSPost2010Prop34
280
     0
102
RTVSPost2010PropOp34
 70
     1
102
RTVSPost2010Prop35
280
     0
102
RTVSPost2010PropOp35
 70
     1
102
RTVSPost2010Prop36
280
     0
102
RTVSPost2010PropOp36
 70
     1
102
RTVSPost2010Prop37
 90
       50
102
RTVSPost2010PropOp37
 70
     1
102
RTVSPost2010Prop38
140
0.0
102
RTVSPost2010PropOp38
 70
     1
102
RTVSPost2010Prop39
140
1.0
102
RTVSPost2010PropOp39
 70
     1
102
RTVSPost2010Prop40
 90
        0
102
RTVSPost2010PropOp40
 70
     1
102
RTVSPost2010Prop41ColorIndex
 90
       18
102
RTVSPost2010Prop41ColorRGB
 90
        0
102
RTVSPost2010PropOp41
 70
     1
102
RTVSPost2010Prop42
 90
       50
102
RTVSPost2010PropOp42
 70
     1
102
RTVSPost2010Prop43
 90
        3
102
RTVSPost2010PropOp43
 70
     1
102
RTVSPost2010Prop44ColorIndex
 90
        5
102
RTVSPost2010Prop44ColorRGB
 90
      255
102
RTVSPost2010PropOp44
 70
     1
102
RTVSPost2010Prop45
280
     0
102
RTVSPost2010PropOp45
 70
     1
102
RTVSPost2010Prop46
 90
       50
102
RTVSPost2010PropOp46
 70
     1
102
RTVSPost2010Prop47
 90
       50
102
RTVSPost2010PropOp47
 70
     1
102
RTVSPost2010Prop48
 90
       50
102
RTVSPost2010PropOp48
 70
     1
102
RTVSPost2010Prop49
280
     0
102
RTVSPost2010PropOp49
 70
     1
102
RTVSPost2010Prop50
 90
       50
102
RTVSPost2010PropOp50
 70
     1
102
RTVSPost2010Prop51ColorIndex
 90
      256
102
RTVSPost2010Prop51ColorRGB
 90
-16777216
102
RTVSPost2010PropOp51
 70
     0
102
RTVSPost2010Prop52
140
1.0
102
RTVSPost2010PropOp52
 70
     0
102
RTVSPost2010Prop53
 90
        2
102
RTVSPost2010PropOp53
 70
     1
102
RTVSPost2010Prop54
  1
strokes_ogs.tif
102
RTVSPost2010PropOp54
 70
     1
102
RTVSPost2010Prop55
280
     0
102
RTVSPost2010PropOp55
 70
     1
102
RTVSPost2010Prop56
140
1.0
102
RTVSPost2010PropOp56
 70
     1
102
RTVSPost2010Prop57
140
1.0
102
RTVSPost2010PropOp57
 70
     1
102
RTVSPropertyOp0
 70
     1
102
RTVSPropertyOp1
 70
     1
102
RTVSPropertyOp2
 70
     1
102
RTVSPropertyOp3
 70
     1
102
RTVSPropertyOp4
 70
     1
102
RTVSPropertyOp5
 70
     1
102
RTVSPropertyOp6
 70
     1
102
RTVSPropertyOp7
 70
     1
102
RTVSPropertyOp8
 70
     1
102
RTVSPropertyOp9
 70
     1
102
RTVSPropertyOp10
 70
     1
102
RTVSPropertyOp11
 70
     1
102
RTVSPropertyOp12
 70
     1
102
RTVSPropertyOp13
 70
     1
102
RTVSPropertyOp14
 70
     1
102
RTVSPropertyOp15
 70
     1
102
RTVSPropertyOp16
 70
     1
102
RTVSPropertyOp17
 70
     1
102
RTVSPropertyOp18
 70
     1
102
RTVSPropertyOp19
 70
     1
102
RTVSPropertyOp20
 70
     1
102
RTVSPropertyOp21
 70
     1
102
RTVSPropertyOp22
 70
     1
102
RTVSPropertyOp23
 70
     1
102
RTVSPropertyOp24
 70
     1
102
RTVSPropertyOp25
 70
     1
102
RTVSPropertyOp26
 70
     1
102
RTVSPropertyOp27
 70
     1
102
RTVSPropertyOp28
 70
     1
102
RTVSPropertyOp29
 70
     1
102
RTVSPropertyOp30
 70
     1
102
RTVSPropertyOp31
 70
     1
102
RTVSPropertyOp32
 70
     1
102
RTVSPropertyOp33
 70
     1
102
RTVSPropertyOp34
 70
     1
102
RTVSPropertyOp35
 70
     1
102
RTVSPropertyOp36
 70
     1
102
RTVSPropertyOp37
 70
     1
102
RTVSPropertyOp38
 70
     1
102
RTVSPropertyOp39
 70
     1
102
RTVSPropertyOp40
 70
     1
102
RTVSPropertyOp41
 70
     1
102
RTVSPropertyOp42
 70
     1
102
RTVSPropertyOp43
 70
     1
102
RTVSPropertyOp44
 70
     1
102
RTVSPropertyOp45
 70
     1
102
RTVSPropertyOp46
 70
     1
102
RTVSPropertyOp47
 70
     1
102
RTVSPropertyOp48
 70
     1
102
RTVSPropertyOp49
 70
     1
102
RTVSPropertyOp50
 70
     1
102
RTVSPropertyOp51
 70
     0
102
RTVSPropertyOp52
 70
     0
102
RTVSPropertyOp53
 70
     1
102
RTVSPropertyOp54
 70
     1
102
RTVSPropertyOp55
 70
     1
102
RTVSPropertyOp56
 70
     1
102
RTVSPropertyOp57
 70
     1
102
RTVSPropertyOp58
 70
     1
102
RTVSPropertyOp59
 70
     1
102
RTVSPropertyOp60
 70
     1
102
RTVSPropertyOp61
 70
     1
102
RTVSPropertyOp62
 70
     1
  0
XRECORD
  5
1CFD
102
{ACAD_REACTORS
330
1CFC
102
}
330
1CFC
100
AcDbXrecord
280
     1
102
RTVSPost2010Prop28
280
     0
102
RTVSPost2010PropOp28
 70
     1
102
RTVSPost2010Prop29
280
     1
102
RTVSPost2010PropOp29
 70
     1
102
RTVSPost2010Prop30
280
     1
102
RTVSPost2010PropOp30
 70
     1
102
RTVSPost2010Prop31
280
     0
102
RTVSPost2010PropOp31
 70
     1
102
RTVSPost2010Prop32
280
     0
102
RTVSPost2010PropOp32
 70
     1
102
RTVSPost2010Prop33
280
     0
102
RTVSPost2010PropOp33
 70
     1
102
RTVSPost2010Prop34
280
     0
102
RTVSPost2010PropOp34
 70
     1
102
RTVSPost2010Prop35
280
     0
102
RTVSPost2010PropOp35
 70
     1
102
RTVSPost2010Prop36
280
     0
102
RTVSPost2010PropOp36
 70
     1
102
RTVSPost2010Prop37
 90
       50
102
RTVSPost2010PropOp37
 70
     1
102
RTVSPost2010Prop38
140
0.0
102
RTVSPost2010PropOp38
 70
     1
102
RTVSPost2010Prop39
140
1.0
102
RTVSPost2010PropOp39
 70
     1
102
RTVSPost2010Prop40
 90
        0
102
RTVSPost2010PropOp40
 70
     1
102
RTVSPost2010Prop41ColorIndex
 90
       18
102
RTVSPost2010Prop41ColorRGB
 90
        0
102
RTVSPost2010PropOp41
 70
     1
102
RTVSPost2010Prop42
 90
       50
102
RTVSPost2010PropOp42
 70
     1
102
RTVSPost2010Prop43
 90
        3
102
RTVSPost2010PropOp43
 70
     1
102
RTVSPost2010Prop44ColorIndex
 90
        5
102
RTVSPost2010Prop44ColorRGB
 90
      255
102
RTVSPost2010PropOp44
 70
     1
102
RTVSPost2010Prop45
280
     0
102
RTVSPost2010PropOp45
 70
     1
102
RTVSPost2010Prop46
 90
       50
102
RTVSPost2010PropOp46
 70
     1
102
RTVSPost2010Prop47
 90
       50
102
RTVSPost2010PropOp47
 70
     1
102
RTVSPost2010Prop48
 90
       50
102
RTVSPost2010PropOp48
 70
     1
102
RTVSPost2010Prop49
280
     0
102
RTVSPost2010PropOp49
 70
     1
102
RTVSPost2010Prop50
 90
       50
102
RTVSPost2010PropOp50
 70
     1
102
RTVSPost2010Prop51ColorIndex
 90
      256
102
RTVSPost2010Prop51ColorRGB
 90
-16777216
102
RTVSPost2010PropOp51
 70
     0
102
RTVSPost2010Prop52
140
1.0
102
RTVSPost2010PropOp52
 70
     0
102
RTVSPost2010Prop53
 90
        2
102
RTVSPost2010PropOp53
 70
     1
102
RTVSPost2010Prop54
  1
strokes_ogs.tif
102
RTVSPost2010PropOp54
 70
     1
102
RTVSPost2010Prop55
280
     0
102
RTVSPost2010PropOp55
 70
     1
102
RTVSPost2010Prop56
140
1.0
102
RTVSPost2010PropOp56
 70
     1
102
RTVSPost2010Prop57
140
1.0
102
RTVSPost2010PropOp57
 70
     1
102
RTVSPropertyOp0
 70
     1
102
RTVSPropertyOp1
 70
     1
102
RTVSPropertyOp2
 70
     1
102
RTVSPropertyOp3
 70
     1
102
RTVSPropertyOp4
 70
     1
102
RTVSPropertyOp5
 70
     1
102
RTVSPropertyOp6
 70
     1
102
RTVSPropertyOp7
 70
     1
102
RTVSPropertyOp8
 70
     1
102
RTVSPropertyOp9
 70
     1
102
RTVSPropertyOp10
 70
     1
102
RTVSPropertyOp11
 70
     1
102
RTVSPropertyOp12
 70
     1
102
RTVSPropertyOp13
 70
     1
102
RTVSPropertyOp14
 70
     1
102
RTVSPropertyOp15
 70
     1
102
RTVSPropertyOp16
 70
     1
102
RTVSPropertyOp17
 70
     1
102
RTVSPropertyOp18
 70
     1
102
RTVSPropertyOp19
 70
     1
102
RTVSPropertyOp20
 70
     1
102
RTVSPropertyOp21
 70
     1
102
RTVSPropertyOp22
 70
     1
102
RTVSPropertyOp23
 70
     1
102
RTVSPropertyOp24
 70
     1
102
RTVSPropertyOp25
 70
     1
102
RTVSPropertyOp26
 70
     1
102
RTVSPropertyOp27
 70
     1
102
RTVSPropertyOp28
 70
     1
102
RTVSPropertyOp29
 70
     1
102
RTVSPropertyOp30
 70
     1
102
RTVSPropertyOp31
 70
     1
102
RTVSPropertyOp32
 70
     1
102
RTVSPropertyOp33
 70
     1
102
RTVSPropertyOp34
 70
     1
102
RTVSPropertyOp35
 70
     1
102
RTVSPropertyOp36
 70
     1
102
RTVSPropertyOp37
 70
     1
102
RTVSPropertyOp38
 70
     1
102
RTVSPropertyOp39
 70
     1
102
RTVSPropertyOp40
 70
     1
102
RTVSPropertyOp41
 70
     1
102
RTVSPropertyOp42
 70
     1
102
RTVSPropertyOp43
 70
     1
102
RTVSPropertyOp44
 70
     1
102
RTVSPropertyOp45
 70
     1
102
RTVSPropertyOp46
 70
     1
102
RTVSPropertyOp47
 70
     1
102
RTVSPropertyOp48
 70
     1
102
RTVSPropertyOp49
 70
     1
102
RTVSPropertyOp50
 70
     1
102
RTVSPropertyOp51
 70
     0
102
RTVSPropertyOp52
 70
     0
102
RTVSPropertyOp53
 70
     1
102
RTVSPropertyOp54
 70
     1
102
RTVSPropertyOp55
 70
     1
102
RTVSPropertyOp56
 70
     1
102
RTVSPropertyOp57
 70
     1
102
RTVSPropertyOp58
 70
     1
102
RTVSPropertyOp59
 70
     1
102
RTVSPropertyOp60
 70
     1
102
RTVSPropertyOp61
 70
     1
102
RTVSPropertyOp62
 70
     1
  0
XRECORD
  5
1CF3
102
{ACAD_REACTORS
330
1CF2
102
}
330
1CF2
100
AcDbXrecord
280
     1
102
RTVSPost2010Prop28
280
     0
102
RTVSPost2010PropOp28
 70
     1
102
RTVSPost2010Prop29
280
     1
102
RTVSPost2010PropOp29
 70
     1
102
RTVSPost2010Prop30
280
     1
102
RTVSPost2010PropOp30
 70
     1
102
RTVSPost2010Prop31
280
     0
102
RTVSPost2010PropOp31
 70
     1
102
RTVSPost2010Prop32
280
     0
102
RTVSPost2010PropOp32
 70
     1
102
RTVSPost2010Prop33
280
     0
102
RTVSPost2010PropOp33
 70
     1
102
RTVSPost2010Prop34
280
     0
102
RTVSPost2010PropOp34
 70
     1
102
RTVSPost2010Prop35
280
     0
102
RTVSPost2010PropOp35
 70
     1
102
RTVSPost2010Prop36
280
     0
102
RTVSPost2010PropOp36
 70
     1
102
RTVSPost2010Prop37
 90
       50
102
RTVSPost2010PropOp37
 70
     1
102
RTVSPost2010Prop38
140
0.0
102
RTVSPost2010PropOp38
 70
     1
102
RTVSPost2010Prop39
140
1.0
102
RTVSPost2010PropOp39
 70
     1
102
RTVSPost2010Prop40
 90
        0
102
RTVSPost2010PropOp40
 70
     1
102
RTVSPost2010Prop41ColorIndex
 90
       18
102
RTVSPost2010Prop41ColorRGB
 90
        0
102
RTVSPost2010PropOp41
 70
     1
102
RTVSPost2010Prop42
 90
       50
102
RTVSPost2010PropOp42
 70
     1
102
RTVSPost2010Prop43
 90
        3
102
RTVSPost2010PropOp43
 70
     1
102
RTVSPost2010Prop44ColorIndex
 90
        5
102
RTVSPost2010Prop44ColorRGB
 90
      255
102
RTVSPost2010PropOp44
 70
     1
102
RTVSPost2010Prop45
280
     0
102
RTVSPost2010PropOp45
 70
     1
102
RTVSPost2010Prop46
 90
       50
102
RTVSPost2010PropOp46
 70
     1
102
RTVSPost2010Prop47
 90
       50
102
RTVSPost2010PropOp47
 70
     1
102
RTVSPost2010Prop48
 90
       50
102
RTVSPost2010PropOp48
 70
     1
102
RTVSPost2010Prop49
280
     0
102
RTVSPost2010PropOp49
 70
     1
102
RTVSPost2010Prop50
 90
       50
102
RTVSPost2010PropOp50
 70
     1
102
RTVSPost2010Prop51ColorIndex
 90
      256
102
RTVSPost2010Prop51ColorRGB
 90
-16777216
102
RTVSPost2010PropOp51
 70
     0
102
RTVSPost2010Prop52
140
1.0
102
RTVSPost2010PropOp52
 70
     0
102
RTVSPost2010Prop53
 90
        2
102
RTVSPost2010PropOp53
 70
     1
102
RTVSPost2010Prop54
  1
strokes_ogs.tif
102
RTVSPost2010PropOp54
 70
     1
102
RTVSPost2010Prop55
280
     0
102
RTVSPost2010PropOp55
 70
     1
102
RTVSPost2010Prop56
140
1.0
102
RTVSPost2010PropOp56
 70
     1
102
RTVSPost2010Prop57
140
1.0
102
RTVSPost2010PropOp57
 70
     1
102
RTVSPropertyOp0
 70
     1
102
RTVSPropertyOp1
 70
     1
102
RTVSPropertyOp2
 70
     1
102
RTVSPropertyOp3
 70
     1
102
RTVSPropertyOp4
 70
     1
102
RTVSPropertyOp5
 70
     1
102
RTVSPropertyOp6
 70
     1
102
RTVSPropertyOp7
 70
     1
102
RTVSPropertyOp8
 70
     1
102
RTVSPropertyOp9
 70
     1
102
RTVSPropertyOp10
 70
     1
102
RTVSPropertyOp11
 70
     1
102
RTVSPropertyOp12
 70
     1
102
RTVSPropertyOp13
 70
     1
102
RTVSPropertyOp14
 70
     1
102
RTVSPropertyOp15
 70
     1
102
RTVSPropertyOp16
 70
     1
102
RTVSPropertyOp17
 70
     1
102
RTVSPropertyOp18
 70
     1
102
RTVSPropertyOp19
 70
     1
102
RTVSPropertyOp20
 70
     1
102
RTVSPropertyOp21
 70
     1
102
RTVSPropertyOp22
 70
     1
102
RTVSPropertyOp23
 70
     1
102
RTVSPropertyOp24
 70
     1
102
RTVSPropertyOp25
 70
     1
102
RTVSPropertyOp26
 70
     1
102
RTVSPropertyOp27
 70
     1
102
RTVSPropertyOp28
 70
     1
102
RTVSPropertyOp29
 70
     1
102
RTVSPropertyOp30
 70
     1
102
RTVSPropertyOp31
 70
     1
102
RTVSPropertyOp32
 70
     1
102
RTVSPropertyOp33
 70
     1
102
RTVSPropertyOp34
 70
     1
102
RTVSPropertyOp35
 70
     1
102
RTVSPropertyOp36
 70
     1
102
RTVSPropertyOp37
 70
     1
102
RTVSPropertyOp38
 70
     1
102
RTVSPropertyOp39
 70
     1
102
RTVSPropertyOp40
 70
     1
102
RTVSPropertyOp41
 70
     1
102
RTVSPropertyOp42
 70
     1
102
RTVSPropertyOp43
 70
     1
102
RTVSPropertyOp44
 70
     1
102
RTVSPropertyOp45
 70
     1
102
RTVSPropertyOp46
 70
     1
102
RTVSPropertyOp47
 70
     1
102
RTVSPropertyOp48
 70
     1
102
RTVSPropertyOp49
 70
     1
102
RTVSPropertyOp50
 70
     1
102
RTVSPropertyOp51
 70
     0
102
RTVSPropertyOp52
 70
     0
102
RTVSPropertyOp53
 70
     1
102
RTVSPropertyOp54
 70
     1
102
RTVSPropertyOp55
 70
     1
102
RTVSPropertyOp56
 70
     1
102
RTVSPropertyOp57
 70
     1
102
RTVSPropertyOp58
 70
     1
102
RTVSPropertyOp59
 70
     1
102
RTVSPropertyOp60
 70
     1
102
RTVSPropertyOp61
 70
     1
102
RTVSPropertyOp62
 70
     1
  0
XRECORD
  5
1CE7
102
{ACAD_REACTORS
330
1CE6
102
}
330
1CE6
100
AcDbXrecord
280
     1
102
RTVSPost2010Prop28
280
     0
102
RTVSPost2010PropOp28
 70
     1
102
RTVSPost2010Prop29
280
     1
102
RTVSPost2010PropOp29
 70
     1
102
RTVSPost2010Prop30
280
     1
102
RTVSPost2010PropOp30
 70
     1
102
RTVSPost2010Prop31
280
     0
102
RTVSPost2010PropOp31
 70
     1
102
RTVSPost2010Prop32
280
     0
102
RTVSPost2010PropOp32
 70
     1
102
RTVSPost2010Prop33
280
     0
102
RTVSPost2010PropOp33
 70
     1
102
RTVSPost2010Prop34
280
     0
102
RTVSPost2010PropOp34
 70
     1
102
RTVSPost2010Prop35
280
     0
102
RTVSPost2010PropOp35
 70
     1
102
RTVSPost2010Prop36
280
     0
102
RTVSPost2010PropOp36
 70
     1
102
RTVSPost2010Prop37
 90
       50
102
RTVSPost2010PropOp37
 70
     1
102
RTVSPost2010Prop38
140
0.0
102
RTVSPost2010PropOp38
 70
     1
102
RTVSPost2010Prop39
140
1.0
102
RTVSPost2010PropOp39
 70
     1
102
RTVSPost2010Prop40
 90
        0
102
RTVSPost2010PropOp40
 70
     1
102
RTVSPost2010Prop41ColorIndex
 90
       18
102
RTVSPost2010Prop41ColorRGB
 90
        0
102
RTVSPost2010PropOp41
 70
     1
102
RTVSPost2010Prop42
 90
       50
102
RTVSPost2010PropOp42
 70
     1
102
RTVSPost2010Prop43
 90
        3
102
RTVSPost2010PropOp43
 70
     1
102
RTVSPost2010Prop44ColorIndex
 90
        5
102
RTVSPost2010Prop44ColorRGB
 90
      255
102
RTVSPost2010PropOp44
 70
     1
102
RTVSPost2010Prop45
280
     0
102
RTVSPost2010PropOp45
 70
     1
102
RTVSPost2010Prop46
 90
       50
102
RTVSPost2010PropOp46
 70
     1
102
RTVSPost2010Prop47
 90
       50
102
RTVSPost2010PropOp47
 70
     1
102
RTVSPost2010Prop48
 90
       50
102
RTVSPost2010PropOp48
 70
     1
102
RTVSPost2010Prop49
280
     0
102
RTVSPost2010PropOp49
 70
     1
102
RTVSPost2010Prop50
 90
       50
102
RTVSPost2010PropOp50
 70
     1
102
RTVSPost2010Prop51ColorIndex
 90
      256
102
RTVSPost2010Prop51ColorRGB
 90
-16777216
102
RTVSPost2010PropOp51
 70
     0
102
RTVSPost2010Prop52
140
1.0
102
RTVSPost2010PropOp52
 70
     0
102
RTVSPost2010Prop53
 90
        2
102
RTVSPost2010PropOp53
 70
     1
102
RTVSPost2010Prop54
  1
strokes_ogs.tif
102
RTVSPost2010PropOp54
 70
     1
102
RTVSPost2010Prop55
280
     0
102
RTVSPost2010PropOp55
 70
     1
102
RTVSPost2010Prop56
140
1.0
102
RTVSPost2010PropOp56
 70
     1
102
RTVSPost2010Prop57
140
1.0
102
RTVSPost2010PropOp57
 70
     1
102
RTVSPropertyOp0
 70
     1
102
RTVSPropertyOp1
 70
     1
102
RTVSPropertyOp2
 70
     1
102
RTVSPropertyOp3
 70
     1
102
RTVSPropertyOp4
 70
     1
102
RTVSPropertyOp5
 70
     1
102
RTVSPropertyOp6
 70
     1
102
RTVSPropertyOp7
 70
     1
102
RTVSPropertyOp8
 70
     1
102
RTVSPropertyOp9
 70
     1
102
RTVSPropertyOp10
 70
     1
102
RTVSPropertyOp11
 70
     1
102
RTVSPropertyOp12
 70
     1
102
RTVSPropertyOp13
 70
     1
102
RTVSPropertyOp14
 70
     1
102
RTVSPropertyOp15
 70
     1
102
RTVSPropertyOp16
 70
     1
102
RTVSPropertyOp17
 70
     1
102
RTVSPropertyOp18
 70
     1
102
RTVSPropertyOp19
 70
     1
102
RTVSPropertyOp20
 70
     1
102
RTVSPropertyOp21
 70
     1
102
RTVSPropertyOp22
 70
     1
102
RTVSPropertyOp23
 70
     1
102
RTVSPropertyOp24
 70
     1
102
RTVSPropertyOp25
 70
     1
102
RTVSPropertyOp26
 70
     1
102
RTVSPropertyOp27
 70
     1
102
RTVSPropertyOp28
 70
     1
102
RTVSPropertyOp29
 70
     1
102
RTVSPropertyOp30
 70
     1
102
RTVSPropertyOp31
 70
     1
102
RTVSPropertyOp32
 70
     1
102
RTVSPropertyOp33
 70
     1
102
RTVSPropertyOp34
 70
     1
102
RTVSPropertyOp35
 70
     1
102
RTVSPropertyOp36
 70
     1
102
RTVSPropertyOp37
 70
     1
102
RTVSPropertyOp38
 70
     1
102
RTVSPropertyOp39
 70
     1
102
RTVSPropertyOp40
 70
     1
102
RTVSPropertyOp41
 70
     1
102
RTVSPropertyOp42
 70
     1
102
RTVSPropertyOp43
 70
     1
102
RTVSPropertyOp44
 70
     1
102
RTVSPropertyOp45
 70
     1
102
RTVSPropertyOp46
 70
     1
102
RTVSPropertyOp47
 70
     1
102
RTVSPropertyOp48
 70
     1
102
RTVSPropertyOp49
 70
     1
102
RTVSPropertyOp50
 70
     1
102
RTVSPropertyOp51
 70
     0
102
RTVSPropertyOp52
 70
     0
102
RTVSPropertyOp53
 70
     1
102
RTVSPropertyOp54
 70
     1
102
RTVSPropertyOp55
 70
     1
102
RTVSPropertyOp56
 70
     1
102
RTVSPropertyOp57
 70
     1
102
RTVSPropertyOp58
 70
     1
102
RTVSPropertyOp59
 70
     1
102
RTVSPropertyOp60
 70
     1
102
RTVSPropertyOp61
 70
     1
102
RTVSPropertyOp62
 70
     1
  0
XRECORD
  5
1CFF
102
{ACAD_REACTORS
330
1CFE
102
}
330
1CFE
100
AcDbXrecord
280
     1
102
RTVSPost2010Prop28
280
     0
102
RTVSPost2010PropOp28
 70
     1
102
RTVSPost2010Prop29
280
     1
102
RTVSPost2010PropOp29
 70
     1
102
RTVSPost2010Prop30
280
     1
102
RTVSPost2010PropOp30
 70
     1
102
RTVSPost2010Prop31
280
     0
102
RTVSPost2010PropOp31
 70
     1
102
RTVSPost2010Prop32
280
     0
102
RTVSPost2010PropOp32
 70
     1
102
RTVSPost2010Prop33
280
     0
102
RTVSPost2010PropOp33
 70
     1
102
RTVSPost2010Prop34
280
     0
102
RTVSPost2010PropOp34
 70
     1
102
RTVSPost2010Prop35
280
     0
102
RTVSPost2010PropOp35
 70
     1
102
RTVSPost2010Prop36
280
     0
102
RTVSPost2010PropOp36
 70
     1
102
RTVSPost2010Prop37
 90
       50
102
RTVSPost2010PropOp37
 70
     1
102
RTVSPost2010Prop38
140
0.0
102
RTVSPost2010PropOp38
 70
     1
102
RTVSPost2010Prop39
140
1.0
102
RTVSPost2010PropOp39
 70
     1
102
RTVSPost2010Prop40
 90
        0
102
RTVSPost2010PropOp40
 70
     1
102
RTVSPost2010Prop41ColorIndex
 90
       18
102
RTVSPost2010Prop41ColorRGB
 90
        0
102
RTVSPost2010PropOp41
 70
     1
102
RTVSPost2010Prop42
 90
       50
102
RTVSPost2010PropOp42
 70
     1
102
RTVSPost2010Prop43
 90
        3
102
RTVSPost2010PropOp43
 70
     1
102
RTVSPost2010Prop44ColorIndex
 90
        5
102
RTVSPost2010Prop44ColorRGB
 90
      255
102
RTVSPost2010PropOp44
 70
     1
102
RTVSPost2010Prop45
280
     0
102
RTVSPost2010PropOp45
 70
     1
102
RTVSPost2010Prop46
 90
       50
102
RTVSPost2010PropOp46
 70
     1
102
RTVSPost2010Prop47
 90
       50
102
RTVSPost2010PropOp47
 70
     1
102
RTVSPost2010Prop48
 90
       50
102
RTVSPost2010PropOp48
 70
     1
102
RTVSPost2010Prop49
280
     0
102
RTVSPost2010PropOp49
 70
     1
102
RTVSPost2010Prop50
 90
       50
102
RTVSPost2010PropOp50
 70
     1
102
RTVSPost2010Prop51ColorIndex
 90
      256
102
RTVSPost2010Prop51ColorRGB
 90
-16777216
102
RTVSPost2010PropOp51
 70
     0
102
RTVSPost2010Prop52
140
1.0
102
RTVSPost2010PropOp52
 70
     0
102
RTVSPost2010Prop53
 90
        2
102
RTVSPost2010PropOp53
 70
     1
102
RTVSPost2010Prop54
  1
strokes_ogs.tif
102
RTVSPost2010PropOp54
 70
     1
102
RTVSPost2010Prop55
280
     0
102
RTVSPost2010PropOp55
 70
     1
102
RTVSPost2010Prop56
140
1.0
102
RTVSPost2010PropOp56
 70
     1
102
RTVSPost2010Prop57
140
1.0
102
RTVSPost2010PropOp57
 70
     1
102
RTVSPropertyOp0
 70
     1
102
RTVSPropertyOp1
 70
     1
102
RTVSPropertyOp2
 70
     1
102
RTVSPropertyOp3
 70
     1
102
RTVSPropertyOp4
 70
     1
102
RTVSPropertyOp5
 70
     1
102
RTVSPropertyOp6
 70
     1
102
RTVSPropertyOp7
 70
     1
102
RTVSPropertyOp8
 70
     1
102
RTVSPropertyOp9
 70
     1
102
RTVSPropertyOp10
 70
     1
102
RTVSPropertyOp11
 70
     1
102
RTVSPropertyOp12
 70
     1
102
RTVSPropertyOp13
 70
     1
102
RTVSPropertyOp14
 70
     1
102
RTVSPropertyOp15
 70
     1
102
RTVSPropertyOp16
 70
     1
102
RTVSPropertyOp17
 70
     1
102
RTVSPropertyOp18
 70
     1
102
RTVSPropertyOp19
 70
     1
102
RTVSPropertyOp20
 70
     1
102
RTVSPropertyOp21
 70
     1
102
RTVSPropertyOp22
 70
     1
102
RTVSPropertyOp23
 70
     1
102
RTVSPropertyOp24
 70
     1
102
RTVSPropertyOp25
 70
     1
102
RTVSPropertyOp26
 70
     1
102
RTVSPropertyOp27
 70
     1
102
RTVSPropertyOp28
 70
     1
102
RTVSPropertyOp29
 70
     1
102
RTVSPropertyOp30
 70
     1
102
RTVSPropertyOp31
 70
     1
102
RTVSPropertyOp32
 70
     1
102
RTVSPropertyOp33
 70
     1
102
RTVSPropertyOp34
 70
     1
102
RTVSPropertyOp35
 70
     1
102
RTVSPropertyOp36
 70
     1
102
RTVSPropertyOp37
 70
     1
102
RTVSPropertyOp38
 70
     1
102
RTVSPropertyOp39
 70
     1
102
RTVSPropertyOp40
 70
     1
102
RTVSPropertyOp41
 70
     1
102
RTVSPropertyOp42
 70
     1
102
RTVSPropertyOp43
 70
     1
102
RTVSPropertyOp44
 70
     1
102
RTVSPropertyOp45
 70
     1
102
RTVSPropertyOp46
 70
     1
102
RTVSPropertyOp47
 70
     1
102
RTVSPropertyOp48
 70
     1
102
RTVSPropertyOp49
 70
     1
102
RTVSPropertyOp50
 70
     1
102
RTVSPropertyOp51
 70
     0
102
RTVSPropertyOp52
 70
     0
102
RTVSPropertyOp53
 70
     1
102
RTVSPropertyOp54
 70
     1
102
RTVSPropertyOp55
 70
     1
102
RTVSPropertyOp56
 70
     1
102
RTVSPropertyOp57
 70
     1
102
RTVSPropertyOp58
 70
     1
102
RTVSPropertyOp59
 70
     1
102
RTVSPropertyOp60
 70
     1
102
RTVSPropertyOp61
 70
     1
102
RTVSPropertyOp62
 70
     1
  0
ENDSEC
  0
EOF
