  0
SECTION
  2
HEADER
  9
$ACADVER
  1
AC1009
  9
$INSBASE
 10
0.0
 20
0.0
 30
0.0
  9
$EXTMIN
 10
-66.407187160961826
 20
-31.5036828608491
 30
-0.0000000000112497
  9
$EXTMAX
 10
115.0108181458055
 20
61.013826805607891
 30
0.0000000000002956
  9
$LIMMIN
 10
0.0
 20
0.0
  9
$LIMMAX
 10
297.0
 20
210.0
  9
$ORTHOMODE
 70
     0
  9
$REGENMODE
 70
     1
  9
$FILLMODE
 70
     1
  9
$QTEXTMODE
 70
     0
  9
$MIRRTEXT
 70
     1
  9
$DRAGMODE
 70
     2
  9
$LTSCALE
 40
10.0
  9
$OSMODE
 70
    47
  9
$ATTMODE
 70
     1
  9
$TEXTSIZE
 40
3.0
  9
$TRACEWID
 40
1.0
  9
$TEXTSTYLE
  7
YOKO
  9
$CLAYER
  8
240
  9
$CELTYPE
  6
BYLAYER
  9
$CECOLOR
 62
   256
  9
$DIMSCALE
 40
1.0
  9
$DIMASZ
 40
2.0
  9
$DIMEXO
 40
0.5
  9
$DIMDLI
 40
2.5
  9
$DIMRND
 40
0.0
  9
$DIMDLE
 40
0.0
  9
$DIMEXE
 40
1.0
  9
$DIMTP
 40
0.0
  9
$DIMTM
 40
0.0
  9
$DIMTXT
 40
2.799999999999998
  9
$DIMCEN
 40
0.0
  9
$DIMTSZ
 40
0.0
  9
$DIMTOL
 70
     0
  9
$DIMLIM
 70
     0
  9
$DIMTIH
 70
     0
  9
$DIMTOH
 70
     0
  9
$DIMSE1
 70
     0
  9
$DIMSE2
 70
     0
  9
$DIMTAD
 70
     3
  9
$DIMZIN
 70
     8
  9
$DIMBLK
  1

  9
$DIMASO
 70
     1
  9
$DIMSHO
 70
     1
  9
$DIMPOST
  1

  9
$DIMAPOST
  1

  9
$DIMALT
 70
     0
  9
$DIMALTD
 70
     2
  9
$DIMALTF
 40
25.399999999999999
  9
$DIMLFAC
 40
1.0
  9
$DIMTOFL
 70
     1
  9
$DIMTVP
 40
0.0
  9
$DIMTIX
 70
     1
  9
$DIMSOXD
 70
     0
  9
$DIMSAH
 70
     1
  9
$DIMBLK1
  1
OPEN
  9
$DIMBLK2
  1
OPEN
  9
$DIMSTYLE
  2
BIGT
  9
$DIMCLRD
 70
   256
  9
$DIMCLRE
 70
   256
  9
$DIMCLRT
 70
    40
  9
$DIMTFAC
 40
1.0
  9
$DIMGAP
 40
1.0
  9
$LUNITS
 70
     2
  9
$LUPREC
 70
     3
  9
$SKETCHINC
 40
1.0
  9
$FILLETRAD
 40
0.0
  9
$AUNITS
 70
     0
  9
$AUPREC
 70
     3
  9
$MENU
  1
.
  9
$ELEVATION
 40
0.0
  9
$PELEVATION
 40
0.0
  9
$THICKNESS
 40
0.0
  9
$LIMCHECK
 70
     0
  9
$BLIPMODE
 70
     0
  9
$CHAMFERA
 40
10.0
  9
$CHAMFERB
 40
10.0
  9
$SKPOLY
 70
     0
  9
$TDCREATE
 40
2456454.4005770721
  9
$TDUPDATE
 40
2457673.6701753591
  9
$TDINDWG
 40
0.0359533449
  9
$TDUSRTIMER
 40
0.035944838
  9
$USRTIMER
 70
     1
  9
$ANGBASE
 50
0.0
  9
$ANGDIR
 70
     0
  9
$PDMODE
 70
     0
  9
$PDSIZE
 40
-5.0
  9
$PLINEWID
 40
0.0
  9
$COORDS
 70
     1
  9
$SPLFRAME
 70
     0
  9
$SPLINETYPE
 70
     6
  9
$SPLINESEGS
 70
     8
  9
$ATTDIA
 70
     1
  9
$ATTREQ
 70
     1
  9
$HANDLING
 70
     1
  9
$HANDSEED
  5
11FC
  9
$SURFTAB1
 70
     6
  9
$SURFTAB2
 70
     6
  9
$SURFTYPE
 70
     6
  9
$SURFU
 70
     6
  9
$SURFV
 70
     6
  9
$UCSNAME
  2

  9
$UCSORG
 10
0.0
 20
0.0
 30
0.0
  9
$UCSXDIR
 10
1.0
 20
0.0
 30
0.0
  9
$UCSYDIR
 10
0.0
 20
1.0
 30
0.0
  9
$PUCSNAME
  2

  9
$PUCSORG
 10
0.0
 20
0.0
 30
0.0
  9
$PUCSXDIR
 10
1.0
 20
0.0
 30
0.0
  9
$PUCSYDIR
 10
0.0
 20
1.0
 30
0.0
  9
$USERI1
 70
     1
  9
$USERI2
 70
     0
  9
$USERI3
 70
     0
  9
$USERI4
 70
     0
  9
$USERI5
 70
     0
  9
$USERR1
 40
0.0
  9
$USERR2
 40
0.0
  9
$USERR3
 40
0.0
  9
$USERR4
 40
0.0
  9
$USERR5
 40
0.0
  9
$WORLDVIEW
 70
     1
  9
$SHADEDGE
 70
     3
  9
$SHADEDIF
 70
    70
  9
$TILEMODE
 70
     1
  9
$MAXACTVP
 70
    16
  9
$PLIMCHECK
 70
     0
  9
$PEXTMIN
 10
1.0000000000000000E+020
 20
1.0000000000000000E+020
 30
1.0000000000000000E+020
  9
$PEXTMAX
 10
-1.0000000000000000E+020
 20
-1.0000000000000000E+020
 30
-1.0000000000000000E+020
  9
$PLIMMIN
 10
0.0
 20
0.0
  9
$PLIMMAX
 10
420.0
 20
297.0
  9
$UNITMODE
 70
     0
  9
$VISRETAIN
 70
     0
  9
$PLINEGEN
 70
     0
  9
$PSLTSCALE
 70
     1
  0
ENDSEC
  0
SECTION
  2
TABLES
  0
TABLE
  2
VPORT
 70
     1
  0
VPORT
  2
*ACTIVE
 70
     0
 10
0.0
 20
0.0
 11
1.0
 21
1.0
 12
24.301815492421841
 22
14.755071972379399
 13
0.0
 23
0.0
 14
7.0
 24
7.0
 15
7.0
 25
7.0
 16
0.0
 26
0.0
 36
1.0
 17
0.0
 27
0.0
 37
0.0
 40
120.1446114717474
 41
1.516648764769065
 42
50.0
 43
0.0
 44
0.0
 50
0.0
 51
0.0
 71
     0
 72
 20000
 73
     1
 74
     0
 75
     0
 76
     0
 77
     0
 78
     0
  0
ENDTAB
  0
TABLE
  2
LTYPE
 70
    17
  0
LTYPE
  2
CONTINUOUS
 70
     0
  3
Solid line
 72
    65
 73
     0
 40
0.0
  0
LTYPE
  2
CENTER2
 70
     0
  3
___ _ ___ _ ___ _ ___ _ ___ _ ___ _ ___ _ ___ _
 72
    65
 73
     4
 40
1.125
 49
0.75
 49
-0.125
 49
0.125
 49
-0.125
  0
LTYPE
  2
HIDDEN2
 70
     0
  3
_ _ _ _ _ _ _ _ _ _ _ _ _ _ _ _ _ _ _ _ _ _ _ _
 72
    65
 73
     2
 40
0.1875
 49
0.125
 49
-0.0625
  0
LTYPE
  2
PHANTOM2
 70
     0
  3
___ _ _ ___ _ _ ___ _ _ ___ _ _ ___ _ _ ___ _ _
 72
    65
 73
     6
 40
1.25
 49
0.625
 49
-0.125
 49
0.125
 49
-0.125
 49
0.125
 49
-0.125
  0
LTYPE
  2
AMCONSTR
 70
     0
  3
_______________________
 72
    65
 73
     2
 40
9999.0
 49
9999.0
 49
0.0
  0
LTYPE
  2
AM_ISO02W050
 70
     0
  3
__ __ __ __ __ __ __ __ __ __ __ __ __ __ __
 72
    65
 73
     2
 40
7.5
 49
6.0
 49
-1.5
  0
LTYPE
  2
ACJISTGB
 70
     0
  3
__ . . __ . .
 72
    65
 73
     6
 40
9.0
 49
4.0
 49
-1.0
 49
1.0
 49
-1.0
 49
1.0
 49
-1.0
  0
LTYPE
  2
ACJISTGL
 70
     0
  3
_ _ _ _ _
 72
    65
 73
     2
 40
3.0
 49
2.0
 49
-1.0
  0
LTYPE
  2
ACISOWELD
 70
     0
  3
_ _ _ _ _
 72
    65
 73
     2
 40
2.0
 49
2.0
 49
-1.0
  0
LTYPE
  2
ACISOTGB
 70
     0
  3
__ . . __ . .
 72
    65
 73
     6
 40
9.0
 49
4.0
 49
-1.0
 49
1.0
 49
-1.0
 49
1.0
 49
-1.0
  0
LTYPE
  2
ACISOTGL
 70
     0
  3
_ _ _ _ _
 72
    65
 73
     2
 40
3.0
 49
2.0
 49
-1.0
  0
ENDTAB
  0
TABLE
  2
LAYER
 70
     8
  0
LAYER
  2
0
 70
     0
 62
     7
  6
CONTINUOUS
  0
LAYER
  2
240
 70
     0
 62
     4
  6
CONTINUOUS
  0
LAYER
  2
241
 70
     0
 62
   211
  6
CONTINUOUS
  0
LAYER
  2
245
 70
     0
 62
     2
  6
CENTER2
  0
LAYER
  2
250
 70
     0
 62
     3
  6
CONTINUOUS
  0
LAYER
  2
DEFPOINTS
 70
     0
 62
     7
  6
CONTINUOUS
  0
LAYER
  2
243
 70
     0
 62
   211
  6
HIDDEN2
  0
LAYER
  2
247
 70
     0
 62
    60
  6
CONTINUOUS
  0
ENDTAB
  0
TABLE
  2
STYLE
 70
     7
  0
STYLE
  2
STANDARD
 70
     0
 40
0.0
 41
1.0
 50
0.0
 71
     0
 42
3.0
  3
romans.shx
  4
BIGFONT.SHX
  0
STYLE
  2
YOKO
 70
     0
 40
0.0
 41
1.0
 50
0.0
 71
     0
 42
3.0
  3
romans.shx
  4
extfont.shx
  0
STYLE
  2
ACJISTS
 70
     0
 40
1.0
 41
1.0
 50
0.0
 71
     0
 42
3.0
  3
amgdt.shx
  4
extfont.shx
  0
STYLE
  2
ACJISGDT
 70
     0
 40
0.0
 41
1.0
 50
0.0
 71
     0
 42
3.0
  3
amgdt.shx
  4
extfont.shx
  0
STYLE
  2
ACISOTS
 70
     0
 40
1.0
 41
1.0
 50
0.0
 71
     0
 42
3.0
  3
amgdt.shx
  4
extfont.shx
  0
STYLE
  2
ACISOGDT
 70
     0
 40
0.0
 41
1.0
 50
0.0
 71
     0
 42
3.0
  3
amgdt.shx
  4
extfont.shx
  0
ENDTAB
  0
TABLE
  2
VIEW
 70
     0
  0
ENDTAB
  0
TABLE
  2
UCS
 70
     0
  0
ENDTAB
  0
TABLE
  2
APPID
 70
    40
  0
APPID
  2
ACAD
 70
     0
  0
APPID
  2
GLOBAL
 70
     0
  0
APPID
  2
DETAIL
 70
     0
  0
APPID
  2
GRPNAME
 70
     0
  0
APPID
  2
GPARA
 70
     0
  0
APPID
  2
DCO15
 70
     0
  0
APPID
  2
ITEMNAME
 70
     0
  0
APPID
  2
GRADE_0
 70
     0
  0
APPID
  2
GENIUS_GENODEF_13
 70
     0
  0
APPID
  2
GENIUS_GENOBJ-N-FIL_13
 70
     0
  0
APPID
  2
ACAD_PSEXT
 70
     0
  0
APPID
  2
MCAD_NO_VIS
 70
     0
  0
APPID
  2
ACAD_TEMP_GRAPHIC
 70
     0
  0
APPID
  2
ACATTRIBSERVICES
 70
     0
  0
APPID
  2
GENIUS_GENSCREG_15
 70
     0
  0
APPID
  2
GENIUS_GENOBJ-N-SDF_13
 70
     0
  0
APPID
  2
GENIUS_GENREC_14
 70
     0
  0
APPID
  2
GENIUS_GENOBJ-N-REC_13
 70
     0
  0
APPID
  2
GENIUS_GENDIMSH_14
 70
     0
  0
APPID
  2
GENIUS_GENOBJ-N-DIM_13
 70
     0
  0
APPID
  2
GENIUS_GENDIM_13
 70
     0
  0
APPID
  2
GENIUS_GENDTOL_13
 70
     0
  0
APPID
  2
GENIUS_GENOLIS_13
 70
     0
  0
APPID
  2
GENIUS_GENOENT_13
 70
     0
  0
APPID
  2
GENIUS_GENOBJ-F-FEM_13
 70
     0
  0
APPID
  2
GENIUS_GENOREF_13
 70
     0
  0
APPID
  2
GENIUS_GEFFEM_13
 70
     0
  0
APPID
  2
GENIUS_GEFFEMP_13
 70
     0
  0
APPID
  2
AD_DRAW
 70
     0
  0
APPID
  2
DESIGNERASSEMBLIES
 70
     0
  0
APPID
  2
ACADM_DIM_EDIT
 70
     0
  0
APPID
  2
AMDT_DM_ADJ
 70
     0
  0
APPID
  2
GENIUS_GENFIL_13
 70
     0
  0
APPID
  2
GENIUS_GENOBJ-N-CHA_13
 70
     0
  0
APPID
  2
ACAD_NAV_VCDISPLAY
 70
     0
  0
APPID
  2
ACAECLAYERSTANDARD
 70
     0
  0
APPID
  2
ACAD_DSTYLE_DIMJAG
 70
     0
  0
APPID
  2
ACAD_DSTYLE_DIMBREAK
 70
     0
  0
APPID
  2
ACAD_MLEADERVER
 70
     0
  0
APPID
  2
ACAD_EXEMPT_FROM_CAD_STANDARDS
 70
     0
  0
ENDTAB
  0
TABLE
  2
DIMSTYLE
 70
    30
  0
DIMSTYLE
  2
BIGT
 70
     0
  3

  4

  5
OPEN
  6

  7

 40
1.0
 41
2.2299999999999991
 42
0.5
 43
7.0
 44
1.0
 45
0.0
 46
0.0
 47
0.0
 48
0.01
140
2.7999999999999989
141
0.0
142
0.0
143
25.399999999999999
144
1.0
145
0.0
146
1.0
147
1.0
 71
     0
 72
     0
 73
     0
 74
     0
 75
     0
 76
     0
 77
     3
 78
     9
170
     0
171
     2
172
     1
173
     0
174
     1
175
     0
176
   256
177
   256
178
    40
  0
DIMSTYLE
  2
BIGT$0
 70
     0
  3

  4

  5
OPEN
  6

  7

 40
1.0
 41
2.2299999999999991
 42
0.5
 43
7.0
 44
1.0
 45
0.0
 46
0.0
 47
0.0
 48
0.01
140
2.7999999999999989
141
0.0
142
0.0
143
25.399999999999999
144
1.0
145
0.0
146
1.0
147
1.0
 71
     0
 72
     0
 73
     0
 74
     0
 75
     0
 76
     0
 77
     3
 78
     9
170
     0
171
     2
172
     1
173
     0
174
     1
175
     0
176
   256
177
   256
178
    40
  0
DIMSTYLE
  2
BIGT$2
 70
     0
  3

  4

  5
OPEN
  6

  7

 40
1.0
 41
2.2299999999999991
 42
0.5
 43
7.0
 44
1.0
 45
0.0
 46
0.0
 47
0.0
 48
0.01
140
2.7999999999999989
141
0.0
142
0.0
143
25.399999999999999
144
1.0
145
0.0
146
1.0
147
1.0
 71
     0
 72
     0
 73
     0
 74
     0
 75
     0
 76
     0
 77
     3
 78
     9
170
     0
171
     2
172
     1
173
     0
174
     0
175
     0
176
   256
177
   256
178
    40
  0
DIMSTYLE
  2
BIGT$3
 70
     0
  3

  4

  5
OPEN
  6

  7

 40
1.0
 41
2.2299999999999991
 42
0.5
 43
2.5
 44
1.0
 45
0.0
 46
0.0
 47
0.0
 48
0.01
140
2.7999999999999989
141
0.0
142
0.0
143
25.399999999999999
144
1.0
145
0.0
146
1.0
147
1.0
 71
     0
 72
     0
 73
     0
 74
     0
 75
     0
 76
     0
 77
     3
 78
     9
170
     0
171
     2
172
     1
173
     0
174
     0
175
     0
176
   256
177
   256
178
    40
  0
DIMSTYLE
  2
BIGT$4
 70
     0
  3

  4

  5
OPEN
  6

  7

 40
1.0
 41
2.2299999999999991
 42
0.5
 43
2.5
 44
1.0
 45
0.0
 46
0.0
 47
0.0
 48
0.01
140
2.7999999999999989
141
0.0
142
0.0
143
25.399999999999999
144
1.0
145
0.0
146
1.0
147
1.0
 71
     0
 72
     0
 73
     0
 74
     0
 75
     0
 76
     0
 77
     3
 78
     9
170
     0
171
     2
172
     1
173
     0
174
     0
175
     0
176
   256
177
   256
178
    40
  0
DIMSTYLE
  2
BIGT$6
 70
     0
  3

  4

  5
OPEN
  6

  7

 40
1.0
 41
2.2299999999999991
 42
0.5
 43
2.5
 44
1.0
 45
0.0
 46
0.0
 47
0.0
 48
0.01
140
2.7999999999999989
141
0.0
142
0.0
143
25.399999999999999
144
1.0
145
0.0
146
1.0
147
1.0
 71
     0
 72
     0
 73
     0
 74
     0
 75
     0
 76
     0
 77
     3
 78
     9
170
     0
171
     2
172
     1
173
     0
174
     0
175
     0
176
   256
177
   256
178
    40
  0
DIMSTYLE
  2
BIGT$7
 70
     0
  3

  4

  5
OPEN
  6

  7

 40
0.0
 41
2.2299999999999991
 42
0.5
 43
7.0
 44
1.0
 45
0.0
 46
0.0
 47
0.0
 48
0.01
140
2.7999999999999989
141
0.0
142
0.0
143
25.399999999999999
144
1.0
145
0.0
146
1.0
147
1.0
 71
     0
 72
     0
 73
     0
 74
     0
 75
     0
 76
     0
 77
     3
 78
     9
170
     0
171
     2
172
     0
173
     0
174
     0
175
     0
176
   256
177
   256
178
    40
  0
DIMSTYLE
  2
BIGT$SF
 70
     0
  3

  4

  5
OPEN
  6

  7

 40
1.0
 41
2.2299999999999991
 42
0.5
 43
7.0
 44
1.0
 45
0.0
 46
0.0
 47
0.0
 48
0.0
140
2.7999999999999989
141
0.0
142
0.0
143
25.399999999999999
144
1.0
145
0.0
146
1.0
147
1.0
 71
     0
 72
     0
 73
     0
 74
     0
 75
     0
 76
     0
 77
     3
 78
     9
170
     0
171
     2
172
     1
173
     0
174
     0
175
     0
176
   256
177
   256
178
    40
  0
DIMSTYLE
  2
BIGT$SH
 70
     0
  3

  4

  5
OPEN
  6

  7

 40
1.0
 41
2.2299999999999991
 42
0.5
 43
7.0
 44
1.0
 45
0.0
 46
0.0
 47
0.0
 48
0.0
140
2.7999999999999989
141
0.0
142
0.0
143
25.399999999999999
144
1.0
145
0.0
146
1.0
147
1.0
 71
     0
 72
     0
 73
     0
 74
     0
 75
     0
 76
     0
 77
     3
 78
     9
170
     0
171
     2
172
     1
173
     0
174
     0
175
     0
176
   256
177
   256
178
    40
  0
DIMSTYLE
  2
AM_ISO
 70
     0
  3

  4
"
  5

  6

  7

 40
1.0
 41
2.5
 42
1.0
 43
10.0
 44
1.0
 45
0.0
 46
0.0
 47
0.1
 48
0.1
140
3.5
141
0.0
142
0.0
143
0.0393701
144
1.0
145
0.0
146
0.71
147
1.5
 71
     0
 72
     0
 73
     0
 74
     0
 75
     0
 76
     0
 77
     1
 78
     8
170
     0
171
     2
172
     1
173
     0
174
     0
175
     0
176
   256
177
   256
178
     2
  0
DIMSTYLE
  2
AM_ISO$3
 70
     0
  3

  4
"
  5

  6

  7

 40
1.0
 41
2.5
 42
1.0
 43
10.0
 44
1.0
 45
0.0
 46
0.0
 47
0.1
 48
0.1
140
3.5
141
0.0
142
0.0
143
0.0393701
144
1.0
145
0.0
146
0.71
147
1.5
 71
     0
 72
     0
 73
     0
 74
     1
 75
     0
 76
     0
 77
     1
 78
     8
170
     0
171
     2
172
     0
173
     0
174
     0
175
     0
176
   256
177
   256
178
     2
  0
DIMSTYLE
  2
AM_ISO$4
 70
     0
  3

  4
"
  5

  6

  7

 40
1.0
 41
2.5
 42
1.0
 43
10.0
 44
1.0
 45
0.0
 46
0.0
 47
0.1
 48
0.1
140
3.5
141
0.0
142
0.0
143
0.0393701
144
1.0
145
0.0
146
0.71
147
1.5
 71
     0
 72
     0
 73
     0
 74
     1
 75
     0
 76
     0
 77
     1
 78
     8
170
     0
171
     2
172
     0
173
     0
174
     0
175
     0
176
   256
177
   256
178
     2
  0
DIMSTYLE
  2
AM_ISO$6
 70
     0
  3

  4
"
  5

  6

  7

 40
1.0
 41
2.5
 42
1.0
 43
10.0
 44
1.0
 45
0.0
 46
0.0
 47
0.1
 48
0.1
140
3.5
141
0.0
142
0.0
143
0.0393701
144
1.0
145
0.0
146
0.71
147
1.5
 71
     0
 72
     0
 73
     0
 74
     0
 75
     0
 76
     0
 77
     0
 78
     8
170
     0
171
     2
172
     1
173
     0
174
     0
175
     0
176
   256
177
   256
178
     2
  0
DIMSTYLE
  2
AM_ISO$7
 70
     0
  3

  4
"
  5

  6

  7

 40
1.0
 41
2.5
 42
1.0
 43
10.0
 44
1.0
 45
0.0
 46
0.0
 47
0.1
 48
0.1
140
5.0
141
0.0
142
0.0
143
0.0393701
144
1.0
145
0.0
146
0.71
147
1.5
 71
     0
 72
     0
 73
     0
 74
     0
 75
     0
 76
     0
 77
     1
 78
     8
170
     0
171
     2
172
     1
173
     0
174
     0
175
     0
176
   256
177
   256
178
     2
  0
DIMSTYLE
  2
AM_ISO$SF
 70
     0
  3

  4
"
  5

  6

  7

 40
1.0
 41
2.5
 42
1.0
 43
10.0
 44
1.0
 45
0.0
 46
0.0
 47
0.1
 48
0.1
140
3.5
141
0.0
142
0.0
143
0.0393701
144
1.0
145
0.0
146
0.71
147
1.5
 71
     0
 72
     0
 73
     0
 74
     0
 75
     1
 76
     1
 77
     1
 78
     8
170
     0
171
     2
172
     1
173
     0
174
     0
175
     0
176
   256
177
   256
178
     2
  0
DIMSTYLE
  2
AM_ISO$SH
 70
     0
  3

  4
"
  5

  6
GENAXEH
  7

 40
1.0
 41
2.5
 42
1.0
 43
10.0
 44
1.0
 45
0.0
 46
0.0
 47
0.1
 48
0.1
140
3.5
141
0.0
142
0.0
143
0.0393701
144
2.0
145
0.0
146
0.71
147
1.5
 71
     0
 72
     0
 73
     0
 74
     0
 75
     1
 76
     1
 77
     1
 78
     8
170
     0
171
     2
172
     1
173
     1
174
     0
175
     0
176
   256
177
   256
178
     2
  0
DIMSTYLE
  2
TECHNICAL_OSAKA
 70
     0
  3

  4
"
  5
OPEN30
  6

  7

 40
1.0
 41
2.5
 42
1.0
 43
10.0
 44
1.0
 45
0.0
 46
0.0
 47
0.1
 48
0.1
140
2.7999999999999989
141
0.0
142
0.0
143
0.0393701
144
1.0
145
0.0
146
0.71
147
1.5
 71
     0
 72
     0
 73
     0
 74
     0
 75
     0
 76
     0
 77
     3
 78
     8
170
     0
171
     2
172
     1
173
     0
174
     0
175
     0
176
   256
177
   256
178
    40
  0
DIMSTYLE
  2
TECHNICAL_OSAKA$3
 70
     0
  3

  4
"
  5
OPEN30
  6

  7

 40
1.0
 41
2.5
 42
1.0
 43
10.0
 44
1.0
 45
0.0
 46
0.0
 47
0.1
 48
0.1
140
2.7999999999999989
141
0.0
142
0.0
143
0.0393701
144
1.0
145
0.0
146
0.71
147
1.5
 71
     0
 72
     0
 73
     0
 74
     1
 75
     0
 76
     0
 77
     3
 78
     8
170
     0
171
     2
172
     0
173
     0
174
     0
175
     0
176
   256
177
   256
178
    40
  0
DIMSTYLE
  2
TECHNICAL_OSAKA$4
 70
     0
  3

  4
"
  5
OPEN30
  6

  7

 40
1.0
 41
2.5
 42
1.0
 43
10.0
 44
1.0
 45
0.0
 46
0.0
 47
0.1
 48
0.1
140
2.7999999999999989
141
0.0
142
0.0
143
0.0393701
144
1.0
145
0.0
146
0.71
147
1.5
 71
     0
 72
     0
 73
     0
 74
     1
 75
     0
 76
     0
 77
     3
 78
     8
170
     0
171
     2
172
     0
173
     0
174
     0
175
     0
176
   256
177
   256
178
    40
  0
DIMSTYLE
  2
TECHNICAL_OSAKA$6
 70
     0
  3

  4
"
  5
OPEN30
  6

  7

 40
1.0
 41
2.5
 42
1.0
 43
10.0
 44
1.0
 45
0.0
 46
0.0
 47
0.1
 48
0.1
140
2.7999999999999989
141
0.0
142
0.0
143
0.0393701
144
1.0
145
0.0
146
0.71
147
1.5
 71
     0
 72
     0
 73
     0
 74
     0
 75
     0
 76
     0
 77
     0
 78
     8
170
     0
171
     2
172
     1
173
     0
174
     0
175
     0
176
   256
177
   256
178
    40
  0
DIMSTYLE
  2
TECHNICAL_OSAKA$7
 70
     0
  3

  4
"
  5
OPEN30
  6

  7

 40
1.0
 41
2.5
 42
1.0
 43
10.0
 44
1.0
 45
0.0
 46
0.0
 47
0.1
 48
0.1
140
2.7999999999999989
141
0.0
142
0.0
143
0.0393701
144
1.0
145
0.0
146
0.71
147
1.5
 71
     0
 72
     0
 73
     0
 74
     0
 75
     0
 76
     0
 77
     3
 78
     8
170
     0
171
     2
172
     1
173
     0
174
     0
175
     0
176
   256
177
   256
178
    40
  0
DIMSTYLE
  2
TECHNICAL_OSAKA$SF
 70
     0
  3

  4
"
  5
OPEN30
  6
OPEN30
  7
OPEN30
 40
1.0
 41
2.5
 42
1.0
 43
10.0
 44
1.0
 45
0.0
 46
0.0
 47
0.1
 48
0.1
140
3.5
141
0.0
142
0.0
143
0.0393701
144
1.0
145
0.0
146
0.71
147
1.5
 71
     0
 72
     0
 73
     0
 74
     0
 75
     1
 76
     1
 77
     3
 78
     8
170
     0
171
     2
172
     1
173
     0
174
     0
175
     0
176
   256
177
   256
178
    40
  0
DIMSTYLE
  2
TECHNICAL_OSAKA$SH
 70
     0
  3

  4
"
  5
OPEN30
  6
GENAXEH
  7
OPEN30
 40
1.0
 41
2.5
 42
1.0
 43
10.0
 44
1.0
 45
0.0
 46
0.0
 47
0.1
 48
0.1
140
3.5
141
0.0
142
0.0
143
0.0393701
144
2.0
145
0.0
146
0.71
147
1.5
 71
     0
 72
     0
 73
     0
 74
     0
 75
     1
 76
     1
 77
     3
 78
     8
170
     0
171
     2
172
     1
173
     1
174
     0
175
     0
176
   256
177
   256
178
    40
  0
ENDTAB
  0
ENDSEC
  0
SECTION
  2
BLOCKS
  0
BLOCK
  8
0
  2
$MODEL_SPACE
 70
     0
 10
0.0
 20
0.0
 30
0.0
  3
$MODEL_SPACE
  1

  0
ENDBLK
  5
1C
  8
0
  0
BLOCK
 67
     1
  8
0
  2
$PAPER_SPACE
 70
     0
 10
0.0
 20
0.0
 30
0.0
  3
$PAPER_SPACE
  1

  0
ENDBLK
  5
19
 67
     1
  8
0
  0
BLOCK
  8
0
  2
_OPEN
 70
     0
 10
0.0
 20
0.0
 30
0.0
  3
_OPEN
  1

  0
LINE
  5
10D6
  8
0
  6
BYBLOCK
 62
     0
 10
-1.0
 20
0.1666666666666666
 30
0.0
 11
0.0
 21
0.0
 31
0.0
  0
LINE
  5
10D7
  8
0
  6
BYBLOCK
 62
     0
 10
-1.0
 20
-0.1666666666666666
 30
0.0
 11
0.0
 21
0.0
 31
0.0
  0
LINE
  5
10D8
  8
0
  6
BYBLOCK
 62
     0
 10
0.0
 20
0.0
 30
0.0
 11
-1.0
 21
0.0
 31
0.0
  0
ENDBLK
  5
10D9
  8
0
  0
BLOCK
  8
0
  2
矢印なし
 70
     0
 10
0.0
 20
0.0
 30
0.0
  3
矢印なし
  1

  0
ENDBLK
  5
6E5
  8
0
  0
BLOCK
  8
0
  2
GENAXEH
 70
     0
 10
0.0
 20
0.0
 30
0.0
  3
GENAXEH
  1

  0
LINE
  5
1111
  8
0
 10
-1.0
 20
0.0
 30
0.0
 11
1.0
 21
0.0
 31
0.0
  0
ENDBLK
  5
1112
  8
0
  0
BLOCK
  8
0
  2
_OPEN30
 70
     0
 10
0.0
 20
0.0
 30
0.0
  3
_OPEN30
  1

  0
LINE
  5
114D
  8
0
  6
BYBLOCK
 62
     0
 10
-1.0
 20
0.26794919
 30
0.0
 11
0.0
 21
0.0
 31
0.0
  0
LINE
  5
114E
  8
0
  6
BYBLOCK
 62
     0
 10
0.0
 20
0.0
 30
0.0
 11
-1.0
 21
-0.26794919
 31
0.0
  0
LINE
  5
114F
  8
0
  6
BYBLOCK
 62
     0
 10
0.0
 20
0.0
 30
0.0
 11
-1.0
 21
0.0
 31
0.0
  0
ENDBLK
  5
1150
  8
0
  0
BLOCK
  8
0
  2
*U4
 70
     1
 10
0.0
 20
0.0
 30
0.0
  3
*U4
  1

  0
TEXT
  5
FAB
  8
250
 10
9.033377304578428
 20
-11.479999999999981
 30
0.0
 40
2.799999999999998
  1
max.\U+03C64.05
 50
90.0
  0
ENDBLK
  5
FAC
  8
0
  0
BLOCK
  8
0
  2
*U5
 70
     1
 10
0.0
 20
0.0
 30
0.0
  3
*U5
  1

  0
TEXT
  5
FAF
  8
250
 10
15.99999999999998
 20
-3.9333336633333271
 30
0.0
 40
2.799999999999998
  1
\U+2205
 50
90.0
  0
TEXT
  5
FB0
  8
250
 10
15.99999999999998
 20
-1.400000329999991
 30
0.0
 40
2.799999999999998
  1
12
 50
90.0
  0
ENDBLK
  5
FB1
  8
0
  0
BLOCK
  8
0
  2
*U10
 70
     1
 10
0.0
 20
0.0
 30
0.0
  3
*U10
  1

  0
TEXT
  5
11D1
  8
250
 10
72.541450724587691
 20
22.132763881701319
 30
0.0
 40
2.799999999999998
  1
MGT3
  7
YOKO
  0
ENDBLK
  5
11D3
  8
0
  0
BLOCK
  8
0
  2
*U11
 70
     1
 10
0.0
 20
0.0
 30
0.0
  3
*U11
  1

  0
TEXT
  5
11ED
  8
250
 10
42.333333333330181
 20
43.0
 30
0.0
 40
2.799999999999998
  1
90
  0
ENDBLK
  5
11EF
  8
0
  0
BLOCK
  8
0
  2
*U12
 70
     1
 10
0.0
 20
0.0
 30
0.0
  3
*U12
  1

  0
TEXT
  5
11F1
  8
250
 10
60.678090371077261
 20
-5.0659914980706366
 30
0.0
 40
2.7999999999999989
  1
\U+2205
 50
90.0
  0
TEXT
  5
11F2
  8
250
 10
60.678090371077261
 20
-2.5326581647373052
 30
0.0
 40
2.799999999999998
  1
20
 50
90.0
  0
ENDBLK
  5
11F4
  8
0
  0
ENDSEC
  0
SECTION
  2
ENTITIES
  0
INSERT
  5
6E6
  8
245
  2
矢印なし
 10
175.62382696643769
 20
90.551235716905978
 30
0.0
  0
TEXT
  5
8BF
  8
241
  6
CONTINUOUS
 10
-65.400000000000091
 20
56.0
 30
0.0
 40
5.0
  1
BBT40-MGT3-90
  7
YOKO
 11
-65.400000000000091
 21
56.0
 31
0.0
 73
     1
  0
INSERT
  5
B17
  8
240
  2
*U10
 10
0.0
 20
0.0
 30
0.0
  0
LINE
  5
B18
  8
250
  6
CONTINUOUS
 10
70.274784057921011
 20
21.132763881701329
 30
0.0
 11
85.741450724587693
 21
21.132763881701329
 31
0.0
1001
ITEMNAME
1000
LNSP2
  0
LINE
  5
BF5
  8
250
  6
CONTINUOUS
 10
96.470565277110765
 20
21.000777046257099
 30
0.0
 11
115.0038986104441
 21
21.000777046257099
 31
0.0
1001
ITEMNAME
1000
LNSP2
  0
LINE
  5
E2B
  8
245
  6
CENTER2
 10
-66.400000000000091
 20
-0.0000000000000142
 30
0.0
 11
90.999999999993804
 21
-0.0000000000000528
 31
0.0
  0
LINE
  5
E3E
  8
241
  6
CONTINUOUS
 10
56.199999999990311
 20
-9.9999999999999147
 30
0.0
 11
56.199999999990311
 21
9.9999999999998721
 31
0.0
  0
LINE
  5
E3F
  8
241
  6
CONTINUOUS
 10
54.999999999990251
 20
-10.00000000000003
 30
0.0
 11
54.999999999990251
 21
9.999999999999984
 31
0.0
  0
LINE
  5
E40
  8
241
  6
CONTINUOUS
 10
53.999999999990251
 20
-10.00000000000003
 30
0.0
 11
53.999999999990017
 21
9.999999999999984
 31
0.0
  0
LINE
  5
E41
  8
241
  6
CONTINUOUS
 10
52.799999999990419
 20
-10.00000000000003
 30
0.0
 11
52.799999999990419
 21
9.999999999999984
 31
0.0
  0
ARC
  5
E42
  8
240
  6
CONTINUOUS
 10
29.999999999999861
 20
-13.00000000000051
 30
0.0
 40
3.0
 50
90.000000000001606
 51
180.0
  0
ARC
  5
E44
  8
240
  6
CONTINUOUS
 10
29.99999999999989
 20
13.000000000000369
 30
0.0
 40
3.0
 50
180.0
 51
269.99999999999841
  0
LINE
  5
E53
  8
241
  6
CONTINUOUS
 10
26.999999999999861
 20
13.000000000000369
 30
0.0
 11
26.999999999999861
 21
-13.00000000000051
 31
0.0
  0
LINE
  5
E5A
  8
240
  6
CONTINUOUS
 10
67.999999999987068
 20
-9.9999999999997051
 30
0.0
 11
29.999999999999801
 21
-10.000000000000499
 31
0.0
  0
LINE
  5
E5B
  8
240
  6
CONTINUOUS
 10
67.999999999987068
 20
9.9999999999995097
 30
0.0
 11
29.999999999999819
 21
10.000000000000361
 31
0.0
  0
ARC
  5
E67
  8
240
  6
CONTINUOUS
 10
75.050986707250686
 20
5.6499999999999764
 30
0.0
 40
0.3999999999999821
 50
209.9999999922866
 51
269.99999999228118
1001
GRPNAME
1000
PASTMD04
  0
ARC
  5
E6B
  8
240
  6
CONTINUOUS
 10
75.050986707250686
 20
-5.6500000000000323
 30
0.0
 40
0.4000000000000057
 50
90.000000064274687
 51
150.00000006427081
1001
GRPNAME
1000
PASTMD04
  0
LINE
  5
E6C
  8
240
  6
CONTINUOUS
 10
75.050986707250686
 20
-5.2499999030379421
 30
0.0
 11
75.499998474114946
 21
-5.2499999030388933
 31
0.0
1001
GRPNAME
1000
PASTMD0E
  0
LINE
  5
E6E
  8
240
  6
CONTINUOUS
 10
74.704576545736842
 20
5.449999999999986
 30
0.0
 11
74.517175660320504
 21
5.7745878549245022
 31
0.0
1001
GRPNAME
1000
PASTMD04
  0
LINE
  5
E70
  8
240
  6
CONTINUOUS
 10
75.050986707250686
 20
5.2500000969624221
 30
0.0
 11
75.499998474114904
 21
5.2500000969631682
 31
0.0
1001
GRPNAME
1000
PASTMD0E
  0
LINE
  5
E89
  8
240
  6
CONTINUOUS
 10
67.999999999989285
 20
6.7499999999999529
 30
0.0
 11
73.954020599744126
 21
6.7499999999999716
 31
0.0
  0
LINE
  5
E8B
  8
240
  6
CONTINUOUS
 10
73.954020599744126
 20
6.7499999999999716
 30
0.0
 11
74.704575949690849
 21
5.4499999999997897
 31
0.0
  0
LINE
  5
E8C
  8
240
  6
CONTINUOUS
 10
73.954020599744169
 20
-6.7500000000000284
 30
0.0
 11
74.704575949690849
 21
-5.450000000000073
 31
0.0
  0
LINE
  5
E8E
  8
240
  6
CONTINUOUS
 10
67.999999999989285
 20
-6.7500000000000133
 30
0.0
 11
73.954020599744169
 21
-6.7500000000000284
 31
0.0
  0
LINE
  5
E8F
  8
241
  6
CONTINUOUS
 10
73.954020599744041
 20
-3.6499878131001222
 30
0.0
 11
73.954020599744041
 21
-3.0923292192130978
 31
0.0
  0
ARC
  5
E91
  8
241
  6
CONTINUOUS
 10
71.560163701876618
 20
-5.1541180517821461
 30
0.0
 40
2.8271820992615959
 50
327.85765324454502
 51
32.142346755458149
  0
LINE
  5
E92
  8
241
  6
CONTINUOUS
 10
73.954020599744041
 20
-3.6499878131002381
 30
0.0
 11
67.999999999991388
 21
-3.6499878131002328
 31
0.0
  0
LINE
  5
E93
  8
241
  6
CONTINUOUS
 10
73.954020599743785
 20
-3.0923292192136649
 30
0.0
 11
67.999999999991772
 21
-3.0923292192136671
 31
0.0
  0
LINE
  5
E94
  8
241
  6
CONTINUOUS
 10
73.954020599744041
 20
3.6499878131000658
 30
0.0
 11
73.954020599744041
 21
3.09232921921304
 31
0.0
  0
ARC
  5
E95
  8
241
  6
CONTINUOUS
 10
63.1287030524419
 20
-0.0000000000000284
 30
0.0
 40
11.258330249194501
 50
344.05763139437022
 51
15.94236860562971
  0
ARC
  5
E96
  8
241
  6
CONTINUOUS
 10
71.560163701876618
 20
5.154118051782091
 30
0.0
 40
2.8271820992615959
 50
327.85765324454189
 51
32.14234675545498
  0
LINE
  5
E97
  8
241
  6
CONTINUOUS
 10
73.954020599744041
 20
3.6499878131001808
 30
0.0
 11
67.999999999996362
 21
3.6499878131001759
 31
0.0
  0
LINE
  5
E98
  8
241
  6
CONTINUOUS
 10
73.954020599743785
 20
3.092329219213608
 30
0.0
 11
67.999999999995978
 21
3.0923292192136111
 31
0.0
  0
LINE
  5
E99
  8
240
  6
CONTINUOUS
 10
67.999999999987068
 20
9.9999999999995097
 30
0.0
 11
67.999999999989285
 21
6.7499999999999529
 31
0.0
  0
LINE
  5
E9B
  8
240
  6
CONTINUOUS
 10
67.999999999987068
 20
-9.9999999999997051
 30
0.0
 11
67.999999999989285
 21
-6.7500000000000133
 31
0.0
  0
LINE
  5
E9C
  8
241
  6
CONTINUOUS
 10
67.999999999989285
 20
-6.7500000000000266
 30
0.0
 11
67.999999999998494
 21
6.7499999999999716
 31
0.0
  0
LINE
  5
EA6
  8
250
  6
CONTINUOUS
 10
-0.0000000000001137
 20
22.725000000000001
 30
0.0
 11
-0.0000000000001124
 21
43.0
 31
0.0
  0
LINE
  5
EA7
  8
250
  6
CONTINUOUS
 10
89.999999999993804
 20
6.5000000499999491
 30
0.0
 11
89.999999999993804
 21
43.0
 31
0.0
  0
LINE
  5
EA8
  8
250
  6
CONTINUOUS
 10
1.999999999999887
 20
42.0
 30
0.0
 11
87.999999999993818
 21
42.0
 31
0.0
  0
INSERT
  5
EAB
  8
240
  2
*U11
 10
0.0
 20
0.0
 30
0.0
  0
LINE
  5
EAC
  8
250
  6
CONTINUOUS
 10
67.999999999987736
 20
10.49999999999951
 30
0.0
 11
67.99999999998775
 21
36.000000000000007
 31
0.0
  0
LINE
  5
EAD
  8
250
  6
CONTINUOUS
 10
89.999999999993832
 20
6.5000000499999491
 30
0.0
 11
89.999999999993804
 21
36.000000000000007
 31
0.0
  0
LINE
  5
EAE
  8
250
  6
CONTINUOUS
 10
69.99999999998775
 20
35.000000000000007
 30
0.0
 11
87.999999999993818
 21
35.000000000000007
 31
0.0
  0
TEXT
  5
EB2
  8
250
  6
CONTINUOUS
 10
98.737231943777445
 20
22.000777046257099
 30
0.0
 40
2.799999999999998
  1
NBC4S
  7
YOKO
1001
ITEMNAME
1000
LNSP3
1001
ACAD
1000
MTEXTBEGIN
1070
    73
1070
     1
1070
    44
1040
1.0
1070
    74
1070
     0
1000
MTEXTEND
  0
LINE
  5
EC3
  8
250
  6
CONTINUOUS
 10
61.678090371077261
 20
-7.9999999999998002
 30
0.0
 11
61.678090371077261
 21
7.9999999999997451
 31
0.0
  0
INSERT
  5
EC6
  8
240
  2
*U12
 10
0.0
 20
0.0
 30
0.0
  0
LINE
  5
EC7
  8
250
  6
CONTINUOUS
 10
64.847279833996097
 20
11.73205080756858
 30
0.0
 11
70.274784057921011
 21
21.132763881701329
 31
0.0
1001
ACAD
1000
DSTYLE
1002
{
1070
    41
1040
2.0
1002
}
  0
LINE
  5
EC8
  8
250
  6
CONTINUOUS
 10
65.135954968590909
 20
11.56538414090191
 30
0.0
 11
63.847279833996097
 21
9.999999999999698
 31
0.0
  0
LINE
  5
EC9
  8
250
  6
CONTINUOUS
 10
64.558604699401286
 20
11.898717474235241
 30
0.0
 11
63.847279833996097
 21
9.999999999999698
 31
0.0
  0
LINE
  5
ECA
  8
250
  6
CONTINUOUS
 10
63.847279833996097
 20
9.999999999999698
 30
0.0
 11
64.847279833996097
 21
11.73205080756858
 31
0.0
  0
LINE
  5
ECB
  8
250
  6
CONTINUOUS
 10
61.344757037743918
 20
7.9999999999997442
 30
0.0
 11
61.678090371077261
 21
9.9999999999997442
 31
0.0
  0
LINE
  5
ECC
  8
250
  6
CONTINUOUS
 10
62.011423704410589
 20
7.9999999999997442
 30
0.0
 11
61.678090371077261
 21
9.9999999999997442
 31
0.0
  0
LINE
  5
ECD
  8
250
  6
CONTINUOUS
 10
61.678090371077261
 20
9.9999999999997442
 30
0.0
 11
61.678090371077261
 21
7.9999999999997442
 31
0.0
  0
LINE
  5
ECE
  8
250
  6
CONTINUOUS
 10
62.011423704410589
 20
-7.999999999999801
 30
0.0
 11
61.678090371077261
 21
-9.999999999999801
 31
0.0
  0
LINE
  5
ECF
  8
250
  6
CONTINUOUS
 10
61.344757037743918
 20
-7.999999999999801
 30
0.0
 11
61.678090371077261
 21
-9.999999999999801
 31
0.0
  0
LINE
  5
ED0
  8
250
  6
CONTINUOUS
 10
61.678090371077261
 20
-9.999999999999801
 30
0.0
 11
61.678090371077261
 21
-7.999999999999801
 31
0.0
  0
LINE
  5
ED1
  8
250
  6
CONTINUOUS
 10
88.809862640988442
 20
7.7320508588164287
 30
0.0
 11
96.470565277110765
 21
21.000777046257099
 31
0.0
1001
ACAD
1000
DSTYLE
1002
{
1070
    41
1040
2.0
1070
   140
1040
2.799999999999998
1002
}
  0
LINE
  5
ED2
  8
250
  6
CONTINUOUS
 10
89.098537775583253
 20
7.5653841921497609
 30
0.0
 11
87.809862640988442
 21
6.000000051247552
 31
0.0
  0
LINE
  5
ED3
  8
250
  6
CONTINUOUS
 10
88.52118750639363
 20
7.8987175254830948
 30
0.0
 11
87.809862640988442
 21
6.000000051247552
 31
0.0
  0
LINE
  5
ED4
  8
250
  6
CONTINUOUS
 10
87.809862640988442
 20
6.000000051247552
 30
0.0
 11
88.809862640988442
 21
7.7320508588164278
 31
0.0
  0
TEXT
  5
EDD
  8
250
  6
CONTINUOUS
 10
76.33333333332412
 20
36.000000000000007
 30
0.0
 40
2.799999999999998
  1
22
1001
ACAD
1000
MTEXTBEGIN
1070
    73
1070
     1
1070
    44
1040
1.0
1070
    74
1070
     0
1000
MTEXTEND
  0
LINE
  5
EDE
  8
250
  6
CONTINUOUS
 10
87.999999999993818
 20
35.333333333333343
 30
0.0
 11
89.999999999993804
 21
35.000000000000007
 31
0.0
  0
LINE
  5
EDF
  8
250
  6
CONTINUOUS
 10
87.999999999993818
 20
34.666666666666671
 30
0.0
 11
89.999999999993804
 21
35.000000000000007
 31
0.0
  0
LINE
  5
EE0
  8
250
  6
CONTINUOUS
 10
89.999999999993804
 20
35.000000000000007
 30
0.0
 11
87.999999999993818
 21
35.000000000000007
 31
0.0
  0
LINE
  5
EE1
  8
250
  6
CONTINUOUS
 10
69.99999999998775
 20
34.666666666666671
 30
0.0
 11
67.99999999998775
 21
35.000000000000007
 31
0.0
  0
LINE
  5
EE2
  8
250
  6
CONTINUOUS
 10
69.99999999998775
 20
35.333333333333343
 30
0.0
 11
67.99999999998775
 21
35.000000000000007
 31
0.0
  0
LINE
  5
EE3
  8
250
  6
CONTINUOUS
 10
67.99999999998775
 20
35.000000000000007
 30
0.0
 11
69.99999999998775
 21
35.000000000000007
 31
0.0
  0
LINE
  5
EE4
  8
250
  6
CONTINUOUS
 10
87.999999999993818
 20
42.333333333333329
 30
0.0
 11
89.999999999993804
 21
42.0
 31
0.0
  0
LINE
  5
EE5
  8
250
  6
CONTINUOUS
 10
87.999999999993818
 20
41.666666666666657
 30
0.0
 11
89.999999999993804
 21
42.0
 31
0.0
  0
LINE
  5
EE6
  8
250
  6
CONTINUOUS
 10
89.999999999993804
 20
42.0
 30
0.0
 11
87.999999999993818
 21
42.0
 31
0.0
  0
LINE
  5
EE7
  8
250
  6
CONTINUOUS
 10
1.999999999999887
 20
41.666666666666657
 30
0.0
 11
-0.0000000000001125
 21
42.0
 31
0.0
  0
LINE
  5
EE8
  8
250
  6
CONTINUOUS
 10
1.999999999999887
 20
42.333333333333329
 30
0.0
 11
-0.0000000000001125
 21
42.0
 31
0.0
  0
LINE
  5
EE9
  8
250
  6
CONTINUOUS
 10
-0.0000000000001125
 20
42.0
 30
0.0
 11
1.999999999999887
 21
42.0
 31
0.0
  0
LINE
  5
F6E
  8
240
  6
CONTINUOUS
 10
26.99999999999989
 20
-31.50000000000043
 30
0.0
 11
26.999999999999861
 21
-13.00000000000051
 31
0.0
  0
LINE
  5
F6F
  8
240
  6
CONTINUOUS
 10
-65.400000000000119
 20
-12.68750000000003
 30
0.0
 11
-65.400000000000091
 21
12.687500000000201
 31
0.0
  0
LINE
  5
F70
  8
240
  6
CONTINUOUS
 10
0.9999999999997442
 20
-31.499999999999631
 30
0.0
 11
0.9999999999998575
 21
-22.225000000000051
 31
0.0
  0
LINE
  5
F71
  8
241
  6
CONTINUOUS
 10
-0.0000000000000853
 20
-22.225000000000001
 30
0.0
 11
0.0000000000000853
 21
22.225000000000119
 31
0.0
  0
LINE
  5
F72
  8
240
  6
CONTINUOUS
 10
-0.0000000000001137
 20
-22.225000000000001
 30
0.0
 11
-65.400000000000119
 21
-12.68750000000003
 31
0.0
  0
LINE
  5
F73
  8
240
  6
CONTINUOUS
 10
26.99999999999989
 20
-31.50000000000043
 30
0.0
 11
21.634494347333309
 21
-31.500000000000711
 31
0.0
  0
LINE
  5
F74
  8
243
  6
HIDDEN2
 10
22.99999999999989
 20
-22.499999999999972
 30
0.0
 11
22.99999999999989
 21
-31.499999999999972
 31
0.0
  0
LINE
  5
F75
  8
240
  6
CONTINUOUS
 10
0.9999999999997442
 20
-31.499999999999631
 30
0.0
 11
11.565505652666101
 21
-31.500000000000309
 31
0.0
  0
LINE
  5
F76
  8
243
  6
HIDDEN2
 10
22.99999999999989
 20
-22.499999999999972
 30
0.0
 11
0.9999999999998864
 21
-22.499999999999972
 31
0.0
  0
LINE
  5
F77
  8
240
  6
CONTINUOUS
 10
14.45225699861486
 20
-26.499999999999801
 30
0.0
 11
11.565505652666239
 21
-31.50000000000043
 31
0.0
  0
LINE
  5
F78
  8
240
  6
CONTINUOUS
 10
18.747743001385398
 20
-26.500000000000028
 30
0.0
 11
21.634494347334339
 21
-31.50000000000043
 31
0.0
  0
LINE
  5
F79
  8
240
  6
CONTINUOUS
 10
14.45225699861453
 20
-26.49999999999952
 30
0.0
 11
18.747743001385398
 21
-26.500000000000028
 31
0.0
  0
LINE
  5
F7A
  8
241
  6
CONTINUOUS
 10
11.565505652666101
 20
31.50000000000043
 30
0.0
 11
11.565505652666239
 21
-31.50000000000043
 31
0.0
  0
LINE
  5
F7B
  8
241
  6
CONTINUOUS
 10
14.45225699861453
 20
-26.49999999999952
 30
0.0
 11
14.452256998614409
 21
26.4999999999994
 31
0.0
  0
LINE
  5
F7C
  8
241
  6
CONTINUOUS
 10
18.747743001385292
 20
-26.499999999999861
 30
0.0
 11
18.747743001385398
 21
26.499999999999972
 31
0.0
  0
LINE
  5
F7D
  8
241
  6
CONTINUOUS
 10
21.634494347333309
 20
-31.500000000000711
 30
0.0
 11
21.634494347333369
 21
31.500000000000661
 31
0.0
  0
LINE
  5
F7E
  8
240
  6
CONTINUOUS
 10
-0.0000000000000853
 20
-22.225000000000001
 30
0.0
 11
0.9999999999998575
 21
-22.225000000000051
 31
0.0
  0
LINE
  5
F7F
  8
241
  6
CONTINUOUS
 10
0.9999999999998575
 20
-22.22499999999982
 30
0.0
 11
0.9999999999998575
 21
22.22499999999982
 31
0.0
  0
LINE
  5
F80
  8
240
  6
CONTINUOUS
 10
0.9999999999998293
 20
31.499999999999691
 30
0.0
 11
0.9999999999999149
 21
22.225000000000051
 31
0.0
  0
LINE
  5
F81
  8
240
  6
CONTINUOUS
 10
-0.0000000000000568
 20
22.225000000000001
 30
0.0
 11
-65.400000000000091
 21
12.687500000000201
 31
0.0
  0
LINE
  5
F82
  8
240
  6
CONTINUOUS
 10
26.99999999999994
 20
31.50000000000038
 30
0.0
 11
21.634494347333369
 21
31.500000000000711
 31
0.0
  0
LINE
  5
F83
  8
243
  6
HIDDEN2
 10
22.99999999999994
 20
22.499999999999918
 30
0.0
 11
23.0
 21
31.499999999999911
 31
0.0
  0
LINE
  5
F84
  8
240
  6
CONTINUOUS
 10
0.9999999999998293
 20
31.499999999999691
 30
0.0
 11
11.565505652666189
 21
31.50000000000038
 31
0.0
  0
LINE
  5
F85
  8
243
  6
HIDDEN2
 10
22.99999999999994
 20
22.499999999999918
 30
0.0
 11
0.9999999999999431
 21
22.500000000000028
 31
0.0
  0
LINE
  5
F86
  8
240
  6
CONTINUOUS
 10
14.452256998614979
 20
26.499999999999801
 30
0.0
 11
11.56550565266633
 21
31.50000000000043
 31
0.0
  0
LINE
  5
F87
  8
240
  6
CONTINUOUS
 10
18.747743001385508
 20
26.500000000000028
 30
0.0
 11
21.634494347334449
 21
31.50000000000038
 31
0.0
  0
LINE
  5
F88
  8
240
  6
CONTINUOUS
 10
14.45225699861459
 20
26.49999999999946
 30
0.0
 11
18.747743001385508
 21
26.500000000000028
 31
0.0
  0
LINE
  5
F89
  8
240
  6
CONTINUOUS
 10
-0.0000000000000284
 20
22.225000000000051
 30
0.0
 11
0.9999999999999149
 21
22.225000000000051
 31
0.0
  0
LINE
  5
F8A
  8
247
  6
CONTINUOUS
 10
7.999999999999857
 20
-18.250000000069999
 30
0.0
 11
7.999999999999857
 21
-11.557692308029999
 31
0.0
  0
ARC
  5
F8B
  8
247
  6
CONTINUOUS
 10
6.2500000000698321
 20
-18.250000000069999
 30
0.0
 40
1.7499999999299991
 50
180.0
 51
0.0
  0
ARC
  5
F8C
  8
247
  6
CONTINUOUS
 10
6.2500000000698321
 20
-11.557692308029999
 30
0.0
 40
1.7499999999299991
 50
0.0
 51
180.0
  0
LINE
  5
F8D
  8
247
  6
CONTINUOUS
 10
4.5000000001398632
 20
-17.384615384719979
 30
0.0
 11
7.5000000000198659
 21
-18.244851541961989
 31
0.0
  0
LINE
  5
F8E
  8
247
  6
CONTINUOUS
 10
5.9230769231598659
 20
-16.484983818335792
 30
0.0
 11
5.9230769231598659
 21
-17.792676125975809
 31
0.0
  0
ARC
  5
F8F
  8
247
  6
CONTINUOUS
 10
5.0495986677028384
 20
-16.14514381608976
 30
0.0
 40
0.5538165441895349
 50
72.997889675291773
 51
172.92416621851359
  0
ARC
  5
F90
  8
247
  6
CONTINUOUS
 10
4.9360330444656313
 20
-16.56687832302876
 30
0.0
 40
0.9904354236226808
 50
4.7429368522022122
 51
73.849226273266297
1001
GENIUS_GENOBJ-N-FIL_13
1002
{
1000
OWNER
1000
GEN
1002
}
1001
GENIUS_GENODEF_13
1002
{
1000
HIER
1070
     0
1002
}
1002
{
1000
MANEDIT
1070
     0
1002
}
1002
{
1000
NOSEL
1070
     0
1002
}
1002
{
1000
BEHIND
1070
     0
1002
}
1002
{
1000
OTHER
1070
     0
1002
}
1002
{
1000
REACTOR
1002
}
  0
LINE
  5
F91
  8
247
  6
CONTINUOUS
 10
7.5000000000198659
 20
-16.937159234322021
 30
0.0
 11
7.5000000000198659
 21
-18.244851541961989
 31
0.0
  0
LINE
  5
F92
  8
247
  6
CONTINUOUS
 10
4.5000000001398632
 20
-17.384615384719979
 30
0.0
 11
4.5000000001398632
 21
-16.07692307707995
 31
0.0
  0
ARC
  5
F93
  8
247
  6
CONTINUOUS
 10
6.4820242326653954
 20
-16.56091963654697
 30
0.0
 40
0.5640818586791229
 50
65.990941652528889
 51
172.26344345906909
  0
ARC
  5
F94
  8
247
  6
CONTINUOUS
 10
6.4874290391864227
 20
-17.03826268534706
 30
0.0
 40
1.0176059446230981
 50
5.701985164259785
 51
77.277338436822376
1001
GENIUS_GENOBJ-N-FIL_13
1002
{
1000
OWNER
1000
GEN
1002
}
1001
GENIUS_GENODEF_13
1002
{
1000
HIER
1070
     0
1002
}
1002
{
1000
MANEDIT
1070
     0
1002
}
1002
{
1000
NOSEL
1070
     0
1002
}
1002
{
1000
BEHIND
1070
     0
1002
}
1002
{
1000
OTHER
1070
     0
1002
}
1002
{
1000
REACTOR
1002
}
  0
LINE
  5
F95
  8
247
  6
CONTINUOUS
 10
7.5000000000198659
 20
-15.283313080541999
 30
0.0
 11
4.5000000001398632
 21
-14.423076923299989
 31
0.0
  0
LINE
  5
F96
  8
247
  6
CONTINUOUS
 10
4.5000000001398632
 20
-12.00000000032
 30
0.0
 11
4.5000000001398632
 21
-12.565736619456599
 31
0.0
  0
LINE
  5
F97
  8
247
  6
CONTINUOUS
 10
7.5000000000198659
 20
-13.461538461799959
 30
0.0
 11
7.5000000000198659
 21
-12.846153846439989
 31
0.0
  0
ARC
  5
F98
  8
247
  6
CONTINUOUS
 10
6.5832851359732274
 20
-11.708791209122831
 30
0.0
 40
2.2526500823422122
 50
202.35948814152911
 51
254.99324854284609
  0
ARC
  5
F99
  8
247
  6
CONTINUOUS
 10
5.3083126551943831
 20
-12.374069479213199
 30
0.0
 40
0.8906723995727782
 50
94.994589319075317
 51
155.1663289573039
1001
GENIUS_GENOBJ-N-FIL_13
1002
{
1000
OWNER
1000
GEN
1002
}
1001
GENIUS_GENODEF_13
1002
{
1000
HIER
1070
     0
1002
}
1002
{
1000
MANEDIT
1070
     0
1002
}
1002
{
1000
NOSEL
1070
     0
1002
}
1002
{
1000
BEHIND
1070
     0
1002
}
1002
{
1000
OTHER
1070
     0
1002
}
1002
{
1000
REACTOR
1002
}
  0
ARC
  5
F9A
  8
247
  6
CONTINUOUS
 10
6.1601458886676399
 20
-13.22645888621255
 30
0.0
 40
1.392781735586712
 50
15.8460965557808
 51
82.325137004169065
  0
ARC
  5
F9B
  8
247
  6
CONTINUOUS
 10
6.4592434315271401
 20
-12.64221272584038
 30
0.0
 40
1.324563662670287
 50
249.7136016704969
 51
321.78874565640928
1001
GENIUS_GENOBJ-N-FIL_13
1002
{
1000
OWNER
1000
GEN
1002
}
1001
GENIUS_GENODEF_13
1002
{
1000
HIER
1070
     0
1002
}
1002
{
1000
MANEDIT
1070
     0
1002
}
1002
{
1000
NOSEL
1070
     0
1002
}
1002
{
1000
BEHIND
1070
     0
1002
}
1002
{
1000
OTHER
1070
     0
1002
}
1002
{
1000
REACTOR
1002
}
  0
LINE
  5
F9C
  8
247
  6
CONTINUOUS
 10
6.3461538462198321
 20
-12.53846153876
 30
0.0
 11
6.3461538462198321
 21
-11.84615384648
 31
0.0
  0
LINE
  5
F9D
  8
250
  6
CONTINUOUS
 10
-34.1368727750733
 20
-19.201653317105951
 30
0.0
 11
-32.700000000000102
 21
-17.456249999999979
 31
0.0
  0
LINE
  5
F9E
  8
250
  6
CONTINUOUS
 10
-33.49312722492688
 20
-19.57331998377262
 30
0.0
 11
-32.700000000000102
 21
-17.456249999999979
 31
0.0
  0
LINE
  5
F9F
  8
250
  6
CONTINUOUS
 10
-32.700000000000102
 20
-17.456249999999979
 30
0.0
 11
-33.815000000000111
 21
-19.387486650439278
 31
0.0
  0
LINE
  5
FA0
  8
250
  6
CONTINUOUS
 10
-33.815000000000111
 20
-19.387486650439278
 30
0.0
 11
-38.36313006819131
 21
-27.265079007978191
 31
0.0
1001
ACAD
1000
DSTYLE
1002
{
1070
   140
1040
4.0
1070
   178
1070
   256
1002
}
  0
TEXT
  5
FA1
  8
250
  6
CONTINUOUS
 10
-53.82979673485795
 20
-26.265079007978191
 30
0.0
 40
2.799999999999998
  1
BBT40
  7
YOKO
1001
ITEMNAME
1000
LNSP3
  0
LINE
  5
FA2
  8
250
  6
CONTINUOUS
 10
-38.36313006819131
 20
-27.265079007978191
 30
0.0
 11
-56.096463401524652
 21
-27.265079007978191
 31
0.0
1001
ITEMNAME
1000
LNSP2
  0
LINE
  5
FA3
  8
247
  6
CONTINUOUS
 10
4.500000000139833
 20
-18.250000000069999
 30
0.0
 11
4.500000000139833
 21
-17.576923077020041
 31
0.0
  0
LINE
  5
FA4
  8
240
  6
CONTINUOUS
 10
26.999999999999812
 20
13.000000000000361
 30
0.0
 11
26.999999999999769
 21
31.50000000000038
 31
0.0
  0
LINE
  5
FE5
  8
240
  6
CONTINUOUS
 10
77.759806089993816
 20
-6.000000710000049
 30
0.0
 11
89.999999999993804
 21
-6.000000710000049
 31
0.0
1001
GRPNAME
1000
PASTMD0F
  0
LINE
  5
FE6
  8
240
  6
CONTINUOUS
 10
77.759807229993797
 20
6.0000000499999491
 30
0.0
 11
89.999999999993804
 21
6.0000000499999491
 31
0.0
1001
GRPNAME
1000
PASTMD0F
  0
LINE
  5
FE7
  8
240
  6
CONTINUOUS
 10
77.759806089993816
 20
-6.000000710000049
 30
0.0
 11
77.499998469993841
 21
-6.150000710000044
 31
0.0
  0
LINE
  5
FE8
  8
240
  6
CONTINUOUS
 10
75.499998469993869
 20
-6.150000710000044
 30
0.0
 11
77.499998469993841
 21
-6.150000710000044
 31
0.0
1001
GRPNAME
1000
PASTMD0J
  0
LINE
  5
FE9
  8
240
  6
CONTINUOUS
 10
75.499998469993869
 20
-5.250000000000048
 30
0.0
 11
75.499998469993869
 21
-6.150000710000044
 31
0.0
1001
GRPNAME
1000
PASTMD0F
  0
LINE
  5
FEA
  8
241
  6
CONTINUOUS
 10
77.499998469993841
 20
6.1500007099999463
 30
0.0
 11
77.499998469993841
 21
-6.1500007100000511
 31
0.0
1001
GRPNAME
1000
PASTMD0J
  0
LINE
  5
FEB
  8
240
  6
CONTINUOUS
 10
75.499998469993841
 20
5.249999999999952
 30
0.0
 11
75.499998469993869
 21
6.1500007099999436
 31
0.0
1001
GRPNAME
1000
PASTMD0F
  0
LINE
  5
FEC
  8
241
  6
CONTINUOUS
 10
75.499998469993841
 20
5.2499999999999547
 30
0.0
 11
75.499998469993841
 21
-5.25000010000005
 31
0.0
  0
LINE
  5
FED
  8
240
  6
CONTINUOUS
 10
77.759807229993797
 20
6.0000000499999491
 30
0.0
 11
77.499998469993841
 21
6.1500007099999463
 31
0.0
  0
LINE
  5
FEE
  8
240
  6
CONTINUOUS
 10
75.499998469993869
 20
6.1500007099999436
 30
0.0
 11
77.499998469993841
 21
6.1500007099999463
 31
0.0
1001
GRPNAME
1000
PASTMD0J
  0
LINE
  5
FEF
  8
240
  6
CONTINUOUS
 10
89.999999999993804
 20
-6.000000710000049
 30
0.0
 11
89.999999999993804
 21
6.0000000499999491
 31
0.0
1001
GRPNAME
1000
PASTMD0F
  0
LINE
  5
FF0
  8
243
  6
HIDDEN2
 10
76.875958157784737
 20
2.6999999999999629
 30
0.0
 11
86.557385731207845
 21
3.5470151594217829
 31
0.0
1001
GRPNAME
1000
00000007
  0
LINE
  5
FF1
  8
243
  6
HIDDEN2
 10
65.999999999993889
 20
1.9999999999999389
 30
0.0
 11
88.499999999993804
 21
1.999999999999962
 31
0.0
1001
GRPNAME
1000
00000007
  0
LINE
  5
FF2
  8
243
  6
HIDDEN2
 10
65.99999999999379
 20
2.6999999999999491
 30
0.0
 11
76.875958157784737
 21
2.6999999999999629
 31
0.0
  0
LINE
  5
FF3
  8
243
  6
HIDDEN2
 10
65.99999999999379
 20
2.6999999999999491
 30
0.0
 11
65.999999999994714
 21
-2.7000000000000228
 31
0.0
  0
LINE
  5
FF4
  8
243
  6
HIDDEN2
 10
88.499999999993804
 20
3.2999999999999772
 30
0.0
 11
88.499999999993804
 21
-3.30000000000007
 31
0.0
1001
GRPNAME
1000
00000007
  0
LINE
  5
FF5
  8
243
  6
HIDDEN2
 10
86.699999999993793
 20
3.299999999999951
 30
0.0
 11
87.299999999993801
 21
3.2999999999999381
 31
0.0
1001
GRPNAME
1000
00000007
  0
LINE
  5
FF6
  8
243
  6
HIDDEN2
 10
86.699999999993793
 20
3.299999999999951
 30
0.0
 11
86.557385731207845
 21
3.5470151594217869
 31
0.0
1001
GRPNAME
1000
00000007
  0
LINE
  5
FF7
  8
243
  6
HIDDEN2
 10
87.699999999993835
 20
3.6999999999999509
 30
0.0
 11
88.099999999993841
 21
3.6999999999999509
 31
0.0
1001
GRPNAME
1000
00000007
  0
LINE
  5
FF8
  8
243
  6
HIDDEN2
 10
87.699999999993835
 20
3.6999999999999509
 30
0.0
 11
87.299999999993801
 21
3.2999999999999381
 31
0.0
  0
LINE
  5
FF9
  8
243
  6
HIDDEN2
 10
88.099999999993841
 20
3.6999999999999509
 30
0.0
 11
88.499999999993804
 21
3.2999999999999772
 31
0.0
1001
GRPNAME
1000
00000007
  0
LINE
  5
FFA
  8
243
  6
HIDDEN2
 10
76.875958157784737
 20
-2.700000000000045
 30
0.0
 11
86.557385731207845
 21
-3.5470151594218731
 31
0.0
1001
GRPNAME
1000
00000007
  0
LINE
  5
FFB
  8
243
  6
HIDDEN2
 10
65.999999999993861
 20
-2.0000000000000129
 30
0.0
 11
88.499999999993804
 21
-2.0000000000000511
 31
0.0
1001
GRPNAME
1000
00000007
  0
LINE
  5
FFC
  8
243
  6
HIDDEN2
 10
65.999999999994714
 20
-2.7000000000000228
 30
0.0
 11
76.875958157784737
 21
-2.700000000000045
 31
0.0
  0
LINE
  5
FFD
  8
243
  6
HIDDEN2
 10
86.699999999993793
 20
-3.3000000000000398
 30
0.0
 11
87.299999999993801
 21
-3.300000000000026
 31
0.0
1001
GRPNAME
1000
00000007
  0
LINE
  5
FFE
  8
243
  6
HIDDEN2
 10
86.699999999993793
 20
-3.3000000000000398
 30
0.0
 11
86.557385731207845
 21
-3.5470151594218771
 31
0.0
1001
GRPNAME
1000
00000007
  0
LINE
  5
FFF
  8
243
  6
HIDDEN2
 10
87.699999999993835
 20
-3.700000000000045
 30
0.0
 11
88.099999999993798
 21
-3.700000000000045
 31
0.0
1001
GRPNAME
1000
00000007
  0
LINE
  5
1000
  8
243
  6
HIDDEN2
 10
87.699999999993835
 20
-3.700000000000045
 30
0.0
 11
87.299999999993801
 21
-3.300000000000026
 31
0.0
  0
LINE
  5
1001
  8
243
  6
HIDDEN2
 10
88.099999999993798
 20
-3.700000000000045
 30
0.0
 11
88.499999999993804
 21
-3.30000000000007
 31
0.0
1001
GRPNAME
1000
00000007
  0
LINE
  5
1002
  8
250
  6
CONTINUOUS
 10
88.999999999993818
 20
-2.0000000000000511
 30
0.0
 11
101.0333773045722
 21
-2.0000000000000511
 31
0.0
  0
LINE
  5
1003
  8
250
  6
CONTINUOUS
 10
88.999999999993818
 20
1.9999999999999609
 30
0.0
 11
101.0333773045722
 21
1.999999999999954
 31
0.0
  0
LINE
  5
1004
  8
250
  6
CONTINUOUS
 10
100.0333773045722
 20
-4.0000000000000551
 30
0.0
 11
100.0333773045722
 21
-6.0000000000000551
 31
0.0
  0
LINE
  5
1005
  8
250
  6
CONTINUOUS
 10
100.0333773045722
 20
3.999999999999952
 30
0.0
 11
100.0333773045722
 21
5.9999999999999583
 31
0.0
  0
LINE
  5
1006
  8
250
  6
CONTINUOUS
 10
100.0333773045722
 20
-2.0000000000000511
 30
0.0
 11
100.0333773045722
 21
1.999999999999954
 31
0.0
  0
INSERT
  5
1007
  8
250
  6
CONTINUOUS
  2
_OPEN
 10
100.0333773045722
 20
-2.0000000000000511
 30
0.0
 41
2.0
 42
2.0
 43
2.0
 50
90.0
  0
INSERT
  5
1008
  8
250
  6
CONTINUOUS
  2
_OPEN
 10
100.0333773045722
 20
1.999999999999954
 30
0.0
 41
2.0
 42
2.0
 43
2.0
 50
270.0
  0
INSERT
  5
1009
  8
250
  6
CONTINUOUS
  2
*U4
 10
89.999999999993804
 20
-0.0000000000000488
 30
0.0
  0
LINE
  5
100A
  8
250
  6
CONTINUOUS
 10
90.499999999993818
 20
-6.000000710000049
 30
0.0
 11
107.9999999999938
 21
-6.0000007100000561
 31
0.0
  0
LINE
  5
100B
  8
250
  6
CONTINUOUS
 10
90.499999999993818
 20
6.0000000499999491
 30
0.0
 11
107.9999999999938
 21
6.0000000499999411
 31
0.0
  0
LINE
  5
100C
  8
250
  6
CONTINUOUS
 10
106.9999999999938
 20
-4.000000710000057
 30
0.0
 11
106.9999999999938
 21
4.0000000499999411
 31
0.0
  0
INSERT
  5
100D
  8
250
  6
CONTINUOUS
  2
_OPEN
 10
106.9999999999938
 20
-6.0000007100000561
 30
0.0
 41
2.0
 42
2.0
 43
2.0
 50
270.0
  0
INSERT
  5
100E
  8
250
  6
CONTINUOUS
  2
_OPEN
 10
106.9999999999938
 20
6.0000000499999411
 30
0.0
 41
2.0
 42
2.0
 43
2.0
 50
90.0
  0
INSERT
  5
100F
  8
250
  6
CONTINUOUS
  2
*U5
 10
89.999999999993804
 20
-0.0000000000000488
 30
0.0
  0
LINE
  5
118B
  8
241
  6
CONTINUOUS
 10
26.999999999999861
 20
-13.00000000000051
 30
0.0
 11
26.999999999999812
 21
13.000000000000361
 31
0.0
  0
VIEWPORT
  5
22
 67
     1
  8
0
 10
261.51769911504419
 20
148.5
 30
0.0
 40
523.0353982300885
 41
297.0
 68
     1
 69
     1
1001
ACAD
1000
MVIEW
1002
{
1070
    16
1010
0.0
1020
0.0
1030
0.0
1010
0.0
1020
0.0
1030
1.0
1040
0.0
1040
297.0
1040
261.51769911504419
1040
148.5
1040
50.0
1040
0.0
1040
0.0
1070
     0
1070
   100
1070
     1
1070
     1
1070
     0
1070
     0
1070
     0
1070
     0
1040
0.0
1040
0.0
1040
0.0
1040
1.0
1040
1.0
1040
10.0
1040
10.0
1070
     0
1002
{
1002
}
1002
}
1001
GENIUS_GENOBJ-N-SDF_13
1002
{
1000
OWNER
1000
GEN
1002
}
1001
GENIUS_GENODEF_13
1002
{
1000
HIER
1070
     0
1002
}
1002
{
1000
MANEDIT
1070
     0
1002
}
1002
{
1000
NOSEL
1070
     0
1002
}
1002
{
1000
BEHIND
1070
     0
1002
}
1002
{
1000
OTHER
1070
     0
1002
}
1002
{
1000
REACTOR
1002
}
1001
GENIUS_GENSCREG_15
1000
PF
1040
1.0
1000
DF
1040
1.0
1000
MIN
1011
0.0
1021
0.0
1031
0.0
1021
0.0
1031
0.0
1000
MAX
1011
523.0353982300885
1021
0.0
1031
0.0
1021
297.0
1031
0.0
1000
FLAGS
1070
     4
  0
ENDSEC
  0
EOF
