  0
SECTION
  2
HEADER
  9
$ACADVER
  1
AC1009
  9
$INSBASE
 10
0.0
 20
0.0
 30
0.0
  9
$EXTMIN
 10
-69.047619047619051
 20
-31.500000000000711
 30
0.0
  9
$EXTMAX
 10
72.999999999999901
 20
68.000000000000028
 30
0.0
  9
$LIMMIN
 10
0.0
 20
0.0
  9
$LIMMAX
 10
297.0
 20
210.0
  9
$ORTHOMODE
 70
     0
  9
$REGENMODE
 70
     1
  9
$FILLMODE
 70
     1
  9
$QTEXTMODE
 70
     0
  9
$MIRRTEXT
 70
     1
  9
$DRAGMODE
 70
     2
  9
$LTSCALE
 40
10.0
  9
$OSMODE
 70
    37
  9
$ATTMODE
 70
     1
  9
$TEXTSIZE
 40
3.0
  9
$TRACEWID
 40
1.0
  9
$TEXTSTYLE
  7
YOKO
  9
$CLAYER
  8
240
  9
$CELTYPE
  6
BYLAYER
  9
$CECOLOR
 62
   256
  9
$DIMSCALE
 40
1.0
  9
$DIMASZ
 40
2.2299999999999991
  9
$DIMEXO
 40
0.5
  9
$DIMDLI
 40
7.0
  9
$DIMRND
 40
0.0
  9
$DIMDLE
 40
0.0
  9
$DIMEXE
 40
1.0
  9
$DIMTP
 40
0.0
  9
$DIMTM
 40
0.01
  9
$DIMTXT
 40
2.799999999999998
  9
$DIMCEN
 40
0.0
  9
$DIMTSZ
 40
0.0
  9
$DIMTOL
 70
     0
  9
$DIMLIM
 70
     0
  9
$DIMTIH
 70
     0
  9
$DIMTOH
 70
     0
  9
$DIMSE1
 70
     0
  9
$DIMSE2
 70
     0
  9
$DIMTAD
 70
     3
  9
$DIMZIN
 70
     9
  9
$DIMBLK
  1
OPEN
  9
$DIMASO
 70
     1
  9
$DIMSHO
 70
     1
  9
$DIMPOST
  1

  9
$DIMAPOST
  1

  9
$DIMALT
 70
     0
  9
$DIMALTD
 70
     2
  9
$DIMALTF
 40
25.399999999999999
  9
$DIMLFAC
 40
1.0
  9
$DIMTOFL
 70
     1
  9
$DIMTVP
 40
0.0
  9
$DIMTIX
 70
     1
  9
$DIMSOXD
 70
     0
  9
$DIMSAH
 70
     0
  9
$DIMBLK1
  1

  9
$DIMBLK2
  1

  9
$DIMSTYLE
  2
BIGT
  9
$DIMCLRD
 70
   256
  9
$DIMCLRE
 70
   256
  9
$DIMCLRT
 70
    40
  9
$DIMTFAC
 40
1.0
  9
$DIMGAP
 40
1.0
  9
$LUNITS
 70
     2
  9
$LUPREC
 70
     6
  9
$SKETCHINC
 40
1.0
  9
$FILLETRAD
 40
0.0
  9
$AUNITS
 70
     0
  9
$AUPREC
 70
     6
  9
$MENU
  1
.
  9
$ELEVATION
 40
0.0
  9
$PELEVATION
 40
0.0
  9
$THICKNESS
 40
0.0
  9
$LIMCHECK
 70
     0
  9
$BLIPMODE
 70
     0
  9
$CHAMFERA
 40
0.2
  9
$CHAMFERB
 40
0.2
  9
$SKPOLY
 70
     0
  9
$TDCREATE
 40
2458138.4389595948
  9
$TDUPDATE
 40
2458142.6773956371
  9
$TDINDWG
 40
0.0071330556
  9
$TDUSRTIMER
 40
0.0071330093
  9
$USRTIMER
 70
     1
  9
$ANGBASE
 50
0.0
  9
$ANGDIR
 70
     0
  9
$PDMODE
 70
     1
  9
$PDSIZE
 40
0.0
  9
$PLINEWID
 40
0.0
  9
$COORDS
 70
     1
  9
$SPLFRAME
 70
     0
  9
$SPLINETYPE
 70
     6
  9
$SPLINESEGS
 70
     4
  9
$ATTDIA
 70
     1
  9
$ATTREQ
 70
     1
  9
$HANDLING
 70
     1
  9
$HANDSEED
  5
4684
  9
$SURFTAB1
 70
     6
  9
$SURFTAB2
 70
     6
  9
$SURFTYPE
 70
     6
  9
$SURFU
 70
     6
  9
$SURFV
 70
     6
  9
$UCSNAME
  2

  9
$UCSORG
 10
0.0
 20
0.0
 30
0.0
  9
$UCSXDIR
 10
1.0
 20
0.0
 30
0.0
  9
$UCSYDIR
 10
0.0
 20
1.0
 30
0.0
  9
$PUCSNAME
  2

  9
$PUCSORG
 10
0.0
 20
0.0
 30
0.0
  9
$PUCSXDIR
 10
1.0
 20
0.0
 30
0.0
  9
$PUCSYDIR
 10
0.0
 20
1.0
 30
0.0
  9
$USERI1
 70
     1
  9
$USERI2
 70
     0
  9
$USERI3
 70
     0
  9
$USERI4
 70
     0
  9
$USERI5
 70
     0
  9
$USERR1
 40
0.0
  9
$USERR2
 40
0.0
  9
$USERR3
 40
0.0
  9
$USERR4
 40
0.0
  9
$USERR5
 40
0.0
  9
$WORLDVIEW
 70
     1
  9
$SHADEDGE
 70
     3
  9
$SHADEDIF
 70
    70
  9
$TILEMODE
 70
     1
  9
$MAXACTVP
 70
    16
  9
$PLIMCHECK
 70
     0
  9
$PEXTMIN
 10
1.0000000000000000E+020
 20
1.0000000000000000E+020
 30
1.0000000000000000E+020
  9
$PEXTMAX
 10
-1.0000000000000000E+020
 20
-1.0000000000000000E+020
 30
-1.0000000000000000E+020
  9
$PLIMMIN
 10
0.0
 20
0.0
  9
$PLIMMAX
 10
420.0
 20
297.0
  9
$UNITMODE
 70
     0
  9
$VISRETAIN
 70
     1
  9
$PLINEGEN
 70
     0
  9
$PSLTSCALE
 70
     1
  0
ENDSEC
  0
SECTION
  2
TABLES
  0
TABLE
  2
VPORT
 70
     1
  0
VPORT
  2
*ACTIVE
 70
     0
 10
0.0
 20
0.0
 11
1.0
 21
1.0
 12
4.7437045157231523
 22
25.56983163968302
 13
0.0
 23
0.0
 14
7.0
 24
7.0
 15
7.0
 25
7.0
 16
0.0
 26
0.0
 36
1.0
 17
0.0
 27
0.0
 37
0.0
 40
182.10405890626811
 41
1.515499425947187
 42
50.0
 43
0.0
 44
0.0
 50
0.0
 51
0.0
 71
     0
 72
  2000
 73
     1
 74
     0
 75
     0
 76
     1
 77
     0
 78
     0
  0
ENDTAB
  0
TABLE
  2
LTYPE
 70
    20
  0
LTYPE
  2
CONTINUOUS
 70
     0
  3
Solid line
 72
    65
 73
     0
 40
0.0
  0
LTYPE
  2
CENTER2
 70
     0
  3
___ _ ___ _ ___ _ ___ _ ___ _ ___ _ ___ _ ___ _
 72
    65
 73
     4
 40
1.125
 49
0.75
 49
-0.125
 49
0.125
 49
-0.125
  0
LTYPE
  2
HIDDEN2
 70
     0
  3
_ _ _ _ _ _ _ _ _ _ _ _ _ _ _ _ _ _ _ _ _ _ _ _
 72
    65
 73
     2
 40
0.1875
 49
0.125
 49
-0.0625
  0
LTYPE
  2
PHANTOM2
 70
     0
  3
___ _ _ ___ _ _ ___ _ _ ___ _ _ ___ _ _ ___ _ _
 72
    65
 73
     6
 40
1.25
 49
0.625
 49
-0.125
 49
0.125
 49
-0.125
 49
0.125
 49
-0.125
  0
LTYPE
  2
AM_ISO02W050
 70
     0
  3
__ __ __ __ __ __ __ __ __ __ __ __ __ __ __
 72
    65
 73
     2
 40
7.5
 49
6.0
 49
-1.5
  0
LTYPE
  2
AMCONSTR
 70
     0
  3
_______________________
 72
    65
 73
     2
 40
9999.0
 49
9999.0
 49
0.0
  0
LTYPE
  2
ACISOWELD
 70
     0
  3
_ _ _ _ _
 72
    65
 73
     2
 40
2.0
 49
2.0
 49
-1.0
  0
LTYPE
  2
ACISOTGB
 70
     0
  3
__ . . __ . .
 72
    65
 73
     6
 40
9.0
 49
4.0
 49
-1.0
 49
1.0
 49
-1.0
 49
1.0
 49
-1.0
  0
LTYPE
  2
ACISOTGL
 70
     0
  3
_ _ _ _ _
 72
    65
 73
     2
 40
3.0
 49
2.0
 49
-1.0
  0
LTYPE
  2
AM_ISO08W050
 70
     0
  3
____ . ____ . ____ . ____ . ____ . ____ . ____
 72
    65
 73
     4
 40
18.0
 49
12.0
 49
-1.5
 49
3.0
 49
-1.5
  0
LTYPE
  2
AM_ISO09W050
 70
     0
  3
_____ . . _____ . . _____ . . ____ .. ____
 72
    65
 73
     6
 40
22.5
 49
12.0
 49
-1.5
 49
3.0
 49
-1.5
 49
3.0
 49
-1.5
  0
LTYPE
  2
AM_ISO08W050X2
 70
     0
  3
__ . __ . __ . __ . __ . __
 72
    65
 73
     4
 40
9.0
 49
6.0
 49
-0.75
 49
1.5
 49
-0.75
  0
LTYPE
  2
AM_ISO02W050X2
 70
     0
  3
 _ _ _ _ _ _ _ _ _ _ _ _
 72
    65
 73
     2
 40
3.75
 49
3.0
 49
-0.75
  0
LTYPE
  2
AMZIGZAG
 70
     0
  3
/\/-/\/-/\/-/\/-/\/-/\/
 72
    65
 73
     2
 40
11.0001
 49
0.0001
 49
-11.0
  0
LTYPE
  2
HIDDEN
 70
     0
  3
Hidden __ __ __ __ __ __ __ __ __ __ __ __ __ _
 72
    65
 73
     2
 40
0.375
 49
0.25
 49
-0.125
  0
LTYPE
  2
CENTER
 70
     0
  3
Center ____ _ ____ _ ____ _ ____ _ ____ _ ____
 72
    65
 73
     4
 40
2.0
 49
1.25
 49
-0.25
 49
0.25
 49
-0.25
  0
LTYPE
  2
AMZIGZAG2
 70
     0
  3
/\/-/\/-/\/-/\/-/\/-/\/
 72
    65
 73
     2
 40
0.4401
 49
0.0001
 49
-0.4400000000000001
  0
LTYPE
  2
ACANSTGB
 70
     0
  3
__ . . __ . .
 72
    65
 73
     6
 40
0.35433070866
 49
0.15748031496
 49
-0.03937007874
 49
0.03937007874
 49
-0.03937007874
 49
0.03937007874
 49
-0.03937007874
  0
LTYPE
  2
ACANSTGL
 70
     0
  3
_ _ _ _ _
 72
    65
 73
     2
 40
0.11811023622
 49
0.07874015748
 49
-0.03937007874
  0
ENDTAB
  0
TABLE
  2
LAYER
 70
    10
  0
LAYER
  2
0
 70
     0
 62
     7
  6
CONTINUOUS
  0
LAYER
  2
240
 70
     0
 62
     4
  6
CONTINUOUS
  0
LAYER
  2
DEFPOINTS
 70
     0
 62
     7
  6
CONTINUOUS
  0
LAYER
  2
245
 70
     0
 62
     2
  6
CENTER2
  0
LAYER
  2
241
 70
     0
 62
   211
  6
CONTINUOUS
  0
LAYER
  2
242
 70
     0
 62
     3
  6
CONTINUOUS
  0
LAYER
  2
243
 70
     0
 62
   211
  6
HIDDEN2
  0
LAYER
  2
246
 70
     0
 62
     3
  6
PHANTOM2
  0
LAYER
  2
247
 70
     0
 62
    60
  6
CONTINUOUS
  0
LAYER
  2
250
 70
     0
 62
     3
  6
CONTINUOUS
  0
ENDTAB
  0
TABLE
  2
STYLE
 70
     7
  0
STYLE
  2
STANDARD
 70
     0
 40
0.0
 41
1.0
 50
0.0
 71
     0
 42
3.0
  3
romans.shx
  4
extfont.shx
  0
STYLE
  2
ANNOTATIVE
 70
     0
 40
0.0
 41
1.0
 50
0.0
 71
     0
 42
0.2
  3
txt
  4

  0
STYLE
  2
YOKO
 70
     0
 40
0.0
 41
1.0
 50
0.0
 71
     0
 42
3.0
  3
romans.shx
  4
extfont.shx
  0
STYLE
  2
ACISOGDT
 70
     0
 40
0.0
 41
1.0
 50
0.0
 71
     0
 42
3.0
  3
amgdt.shx
  4
extfont.shx
  0
STYLE
  2

 70
     1
 40
0.0
 41
1.0
 50
0.0
 71
     0
 42
3.0
  3
genltshp.shx
  4

  0
STYLE
  2
ACANSTS
 70
     0
 40
0.0
 41
1.0
 50
0.0
 71
     0
 42
3.0
  3
romans.shx
  4
extfont.shx
  0
STYLE
  2
ACANSGDT
 70
     0
 40
0.0
 41
1.0
 50
0.0
 71
     0
 42
3.0
  3
amgdt.shx
  4

  0
ENDTAB
  0
TABLE
  2
VIEW
 70
     0
  0
ENDTAB
  0
TABLE
  2
UCS
 70
     0
  0
ENDTAB
  0
TABLE
  2
APPID
 70
    40
  0
APPID
  2
ACAD
 70
     0
  0
APPID
  2
ACADANNOTATIVE
 70
     0
  0
APPID
  2
GLOBAL
 70
     0
  0
APPID
  2
DETAIL
 70
     0
  0
APPID
  2
GRPNAME
 70
     0
  0
APPID
  2
GPARA
 70
     0
  0
APPID
  2
MCAD_NO_VIS
 70
     0
  0
APPID
  2
ACAD_TEMP_GRAPHIC
 70
     0
  0
APPID
  2
ACATTRIBSERVICES
 70
     0
  0
APPID
  2
GENIUS_GENSCREG_15
 70
     0
  0
APPID
  2
GENIUS_GENODEF_13
 70
     0
  0
APPID
  2
GENIUS_GENOBJ-N-SDF_13
 70
     0
  0
APPID
  2
GENIUS_GENREC_14
 70
     0
  0
APPID
  2
GENIUS_GENOBJ-N-REC_13
 70
     0
  0
APPID
  2
GENIUS_GENDIMSH_14
 70
     0
  0
APPID
  2
GENIUS_GENOBJ-N-DIM_13
 70
     0
  0
APPID
  2
GENIUS_GENDIM_13
 70
     0
  0
APPID
  2
GENIUS_GENDTOL_13
 70
     0
  0
APPID
  2
GENIUS_GENOLIS_13
 70
     0
  0
APPID
  2
GENIUS_GENOENT_13
 70
     0
  0
APPID
  2
GENIUS_GENOBJ-F-FEM_13
 70
     0
  0
APPID
  2
GENIUS_GENOREF_13
 70
     0
  0
APPID
  2
GENIUS_GEFFEM_13
 70
     0
  0
APPID
  2
GENIUS_GEFFEMP_13
 70
     0
  0
APPID
  2
AD_DRAW
 70
     0
  0
APPID
  2
DESIGNERASSEMBLIES
 70
     0
  0
APPID
  2
ACADM_DIM_EDIT
 70
     0
  0
APPID
  2
AMDT_DM_ADJ
 70
     0
  0
APPID
  2
ITEMNAME
 70
     0
  0
APPID
  2
GENIUS_GENOBJ-N-FIL_13
 70
     0
  0
APPID
  2
GENIUS_GENFIL_13
 70
     0
  0
APPID
  2
GENIUS_GENOBJ-N-CHA_13
 70
     0
  0
APPID
  2
ACAECLAYERSTANDARD
 70
     0
  0
APPID
  2
ACAD_NAV_VCDISPLAY
 70
     0
  0
APPID
  2
ACAD_PSEXT
 70
     0
  0
APPID
  2
ACAD_DSTYLE_DIMJAG
 70
     0
  0
APPID
  2
ACAD_DSTYLE_DIMBREAK
 70
     0
  0
APPID
  2
ACAD_DSTYLE_DIMINSPECT
 70
     0
  0
APPID
  2
ACAD_EXEMPT_FROM_CAD_STANDARDS
 70
     0
  0
APPID
  2
ACAD_MLEADERVER
 70
     0
  0
ENDTAB
  0
TABLE
  2
DIMSTYLE
 70
    16
  0
DIMSTYLE
  2
STANDARD
 70
     0
  3

  4

  5

  6

  7

 40
1.0
 41
0.18
 42
0.0625
 43
0.38
 44
0.18
 45
0.0
 46
0.0
 47
0.0
 48
0.0
140
0.18
141
0.09
142
0.0
143
25.399999999999999
144
1.0
145
0.0
146
1.0
147
0.09
 71
     0
 72
     0
 73
     1
 74
     1
 75
     0
 76
     0
 77
     0
 78
     0
170
     0
171
     2
172
     0
173
     0
174
     0
175
     0
176
     0
177
     0
178
     0
  0
DIMSTYLE
  2
ANNOTATIVE
 70
     0
  3

  4

  5

  6

  7

 40
1.0
 41
0.18
 42
0.0625
 43
0.38
 44
0.18
 45
0.0
 46
0.0
 47
0.0
 48
0.0
140
0.18
141
0.09
142
0.0
143
25.399999999999999
144
1.0
145
0.0
146
1.0
147
0.09
 71
     0
 72
     0
 73
     1
 74
     1
 75
     0
 76
     0
 77
     0
 78
     0
170
     0
171
     2
172
     0
173
     0
174
     0
175
     0
176
     0
177
     0
178
     0
  0
DIMSTYLE
  2
BIGT
 70
     0
  3

  4

  5

  6

  7

 40
1.0
 41
2.2299999999999991
 42
0.5
 43
7.0
 44
1.0
 45
0.0
 46
0.0
 47
0.0
 48
0.01
140
2.799999999999998
141
0.0
142
0.0
143
25.399999999999999
144
1.0
145
0.0
146
1.0
147
1.0
 71
     0
 72
     0
 73
     0
 74
     0
 75
     0
 76
     0
 77
     3
 78
     9
170
     0
171
     2
172
     1
173
     0
174
     1
175
     0
176
   256
177
   256
178
    40
  0
DIMSTYLE
  2
AM_ISO
 70
     0
  3

  4
"
  5

  6

  7

 40
1.0
 41
2.5
 42
1.0
 43
10.0
 44
1.0
 45
0.0
 46
0.0
 47
0.1
 48
0.1
140
3.5
141
0.0
142
0.0
143
0.0393701
144
1.0
145
0.0
146
0.71
147
1.5
 71
     0
 72
     0
 73
     0
 74
     0
 75
     0
 76
     0
 77
     1
 78
     8
170
     0
171
     2
172
     1
173
     0
174
     0
175
     0
176
   256
177
   256
178
     2
  0
DIMSTYLE
  2
AM_ISO$3
 70
     0
  3

  4
"
  5

  6

  7

 40
1.0
 41
2.5
 42
1.0
 43
10.0
 44
1.0
 45
0.0
 46
0.0
 47
0.1
 48
0.1
140
3.5
141
0.0
142
0.0
143
0.0393701
144
1.0
145
0.0
146
0.71
147
1.5
 71
     0
 72
     0
 73
     0
 74
     1
 75
     0
 76
     0
 77
     1
 78
     8
170
     0
171
     2
172
     0
173
     0
174
     0
175
     0
176
   256
177
   256
178
     2
  0
DIMSTYLE
  2
AM_ISO$4
 70
     0
  3

  4
"
  5

  6

  7

 40
1.0
 41
2.5
 42
1.0
 43
10.0
 44
1.0
 45
0.0
 46
0.0
 47
0.1
 48
0.1
140
3.5
141
0.0
142
0.0
143
0.0393701
144
1.0
145
0.0
146
0.71
147
1.5
 71
     0
 72
     0
 73
     0
 74
     1
 75
     0
 76
     0
 77
     1
 78
     8
170
     0
171
     2
172
     0
173
     0
174
     0
175
     0
176
   256
177
   256
178
     2
  0
DIMSTYLE
  2
AM_ISO$6
 70
     0
  3

  4
"
  5

  6

  7

 40
1.0
 41
2.5
 42
1.0
 43
10.0
 44
1.0
 45
0.0
 46
0.0
 47
0.1
 48
0.1
140
3.5
141
0.0
142
0.0
143
0.0393701
144
1.0
145
0.0
146
0.71
147
1.5
 71
     0
 72
     0
 73
     0
 74
     0
 75
     0
 76
     0
 77
     0
 78
     8
170
     0
171
     2
172
     1
173
     0
174
     0
175
     0
176
   256
177
   256
178
     2
  0
DIMSTYLE
  2
AM_ISO$7
 70
     0
  3

  4
"
  5

  6

  7

 40
1.0
 41
2.5
 42
1.0
 43
10.0
 44
1.0
 45
0.0
 46
0.0
 47
0.1
 48
0.1
140
5.0
141
0.0
142
0.0
143
0.0393701
144
1.0
145
0.0
146
0.71
147
1.5
 71
     0
 72
     0
 73
     0
 74
     0
 75
     0
 76
     0
 77
     1
 78
     8
170
     0
171
     2
172
     1
173
     0
174
     0
175
     0
176
   256
177
   256
178
     2
  0
DIMSTYLE
  2
AM_ISO$SF
 70
     0
  3

  4
"
  5

  6

  7

 40
1.0
 41
2.5
 42
1.0
 43
10.0
 44
1.0
 45
0.0
 46
0.0
 47
0.1
 48
0.1
140
3.5
141
0.0
142
0.0
143
0.0393701
144
1.0
145
0.0
146
0.71
147
1.5
 71
     0
 72
     0
 73
     0
 74
     0
 75
     1
 76
     1
 77
     1
 78
     8
170
     0
171
     2
172
     1
173
     0
174
     0
175
     0
176
   256
177
   256
178
     2
  0
DIMSTYLE
  2
AM_ISO$SH
 70
     0
  3

  4
"
  5

  6

  7

 40
1.0
 41
2.5
 42
1.0
 43
10.0
 44
1.0
 45
0.0
 46
0.0
 47
0.1
 48
0.1
140
3.5
141
0.0
142
0.0
143
0.0393701
144
2.0
145
0.0
146
0.71
147
1.5
 71
     0
 72
     0
 73
     0
 74
     0
 75
     1
 76
     1
 77
     1
 78
     8
170
     0
171
     2
172
     1
173
     1
174
     0
175
     0
176
   256
177
   256
178
     2
  0
DIMSTYLE
  2
AM_ANSI
 70
     0
  3

  4
mm
  5

  6

  7

 40
1.0
 41
0.12
 42
0.05
 43
0.5
 44
0.1
 45
0.0
 46
0.0
 47
0.1
 48
0.1
140
0.12
141
0.0
142
0.0
143
25.399999999999999
144
1.0
145
0.0
146
0.71
147
0.06
 71
     0
 72
     0
 73
     1
 74
     1
 75
     0
 76
     0
 77
     0
 78
     7
170
     0
171
     2
172
     0
173
     0
174
     0
175
     0
176
   256
177
   256
178
     2
  0
DIMSTYLE
  2
AM_ANSI$3
 70
     0
  3

  4
mm
  5

  6

  7

 40
1.0
 41
0.12
 42
0.05
 43
0.5
 44
0.1
 45
0.0
 46
0.0
 47
0.1
 48
0.1
140
0.12
141
0.0
142
0.0
143
25.399999999999999
144
1.0
145
0.0
146
0.71
147
0.06
 71
     0
 72
     0
 73
     1
 74
     1
 75
     0
 76
     0
 77
     0
 78
     7
170
     0
171
     2
172
     0
173
     0
174
     0
175
     0
176
   256
177
   256
178
     2
  0
DIMSTYLE
  2
AM_ANSI$4
 70
     0
  3

  4
mm
  5

  6

  7

 40
1.0
 41
0.12
 42
0.05
 43
0.5
 44
0.1
 45
0.0
 46
0.0
 47
0.1
 48
0.1
140
0.12
141
0.0
142
0.0
143
25.399999999999999
144
1.0
145
0.0
146
0.71
147
0.06
 71
     0
 72
     0
 73
     1
 74
     1
 75
     0
 76
     0
 77
     0
 78
     7
170
     0
171
     2
172
     0
173
     0
174
     0
175
     0
176
   256
177
   256
178
     2
  0
DIMSTYLE
  2
AM_ANSI$7
 70
     0
  3

  4
mm
  5

  6

  7

 40
1.0
 41
0.12
 42
0.05
 43
0.5
 44
0.1
 45
0.0
 46
0.0
 47
0.1
 48
0.1
140
0.12
141
0.0
142
0.0
143
25.399999999999999
144
1.0
145
0.0
146
0.71
147
0.06
 71
     0
 72
     0
 73
     1
 74
     1
 75
     0
 76
     0
 77
     0
 78
     7
170
     0
171
     2
172
     0
173
     0
174
     0
175
     0
176
   256
177
   256
178
     2
  0
DIMSTYLE
  2
AM_ANSI$SF
 70
     0
  3

  4
mm
  5

  6

  7

 40
1.0
 41
0.12
 42
0.05
 43
0.5
 44
0.1
 45
0.0
 46
0.0
 47
0.1
 48
0.1
140
0.12
141
0.0
142
0.0
143
25.399999999999999
144
1.0
145
0.0
146
0.71
147
0.06
 71
     0
 72
     0
 73
     1
 74
     1
 75
     1
 76
     1
 77
     0
 78
     7
170
     0
171
     2
172
     0
173
     0
174
     0
175
     0
176
   256
177
   256
178
     2
  0
DIMSTYLE
  2
AM_ANSI$SH
 70
     0
  3

  4
mm
  5

  6
GENAXEH
  7

 40
1.0
 41
0.12
 42
0.05
 43
0.5
 44
0.1
 45
0.0
 46
0.0
 47
0.1
 48
0.1
140
0.12
141
0.0
142
0.0
143
25.399999999999999
144
1.0
145
0.0
146
0.71
147
0.06
 71
     0
 72
     0
 73
     1
 74
     1
 75
     1
 76
     1
 77
     0
 78
     7
170
     0
171
     2
172
     0
173
     1
174
     0
175
     0
176
   256
177
   256
178
     2
  0
ENDTAB
  0
ENDSEC
  0
SECTION
  2
BLOCKS
  0
BLOCK
  8
0
  2
$MODEL_SPACE
 70
     0
 10
0.0
 20
0.0
 30
0.0
  3
$MODEL_SPACE
  1

  0
ENDBLK
  5
455B
  8
0
  0
BLOCK
 67
     1
  8
0
  2
$PAPER_SPACE
 70
     0
 10
0.0
 20
0.0
 30
0.0
  3
$PAPER_SPACE
  1

  0
ENDBLK
  5
4557
 67
     1
  8
0
  0
BLOCK
  8
0
  2
_OPEN
 70
     0
 10
0.0
 20
0.0
 30
0.0
  3
_OPEN
  1

  0
LINE
  5
3E1A
  8
0
  6
BYBLOCK
 62
     0
 10
-1.0
 20
0.1666666666666666
 30
0.0
 11
0.0
 21
0.0
 31
0.0
  0
LINE
  5
3E1B
  8
0
  6
BYBLOCK
 62
     0
 10
-1.0
 20
-0.1666666666666666
 30
0.0
 11
0.0
 21
0.0
 31
0.0
  0
LINE
  5
3E1C
  8
0
  6
BYBLOCK
 62
     0
 10
0.0
 20
0.0
 30
0.0
 11
-1.0
 21
0.0
 31
0.0
  0
ENDBLK
  5
3E1D
  8
0
  0
BLOCK
  8
0
  2
GENAXEH
 70
     0
 10
0.0
 20
0.0
 30
0.0
  3
GENAXEH
  1

  0
LINE
  5
3E45
  8
0
 10
-1.0
 20
0.0
 30
0.0
 11
1.0
 21
0.0
 31
0.0
  0
ENDBLK
  5
3E46
  8
0
  0
BLOCK
  8
0
  2
_ACMFILLEDHALF
 70
     0
 10
0.0
 20
0.0
 30
0.0
  3
_ACMFILLEDHALF
  1

  0
TRACE
  5
4609
  8
240
 62
     0
 10
-0.8
 20
0.0
 30
0.0
 11
-1.0
 21
0.166666666
 31
0.0
 12
0.0
 22
0.0
 32
0.0
 13
0.0
 23
0.0
 33
0.0
  0
LINE
  5
460A
  8
240
 62
     0
 10
-1.0
 20
0.0
 30
0.0
 11
-0.8
 21
0.0
 31
0.0
  0
ENDBLK
  5
4608
  8
0
  0
ENDSEC
  0
SECTION
  2
ENTITIES
  0
LINE
  5
42A1
  8
240
  6
CONTINUOUS
 10
26.99999999999989
 20
-31.50000000000043
 30
0.0
 11
26.999999999999869
 21
-22.000000000000089
 31
0.0
  0
LINE
  5
42A2
  8
240
  6
CONTINUOUS
 10
-65.400000000000119
 20
-12.68750000000003
 30
0.0
 11
-65.400000000000091
 21
12.687500000000201
 31
0.0
  0
LINE
  5
42A3
  8
240
  6
CONTINUOUS
 10
0.9999999999997442
 20
-31.499999999999631
 30
0.0
 11
0.9999999999998575
 21
-22.225000000000051
 31
0.0
  0
LINE
  5
42A4
  8
241
  6
CONTINUOUS
 10
-0.0000000000000853
 20
-22.225000000000001
 30
0.0
 11
0.0000000000000853
 21
22.225000000000119
 31
0.0
  0
LINE
  5
42A5
  8
240
  6
CONTINUOUS
 10
-0.0000000000001137
 20
-22.225000000000001
 30
0.0
 11
-65.400000000000119
 21
-12.68750000000003
 31
0.0
  0
LINE
  5
42A6
  8
240
  6
CONTINUOUS
 10
26.99999999999989
 20
-31.50000000000043
 30
0.0
 11
21.634494347333309
 21
-31.500000000000711
 31
0.0
  0
LINE
  5
42A7
  8
243
  6
HIDDEN2
 10
22.99999999999989
 20
-22.499999999999972
 30
0.0
 11
22.99999999999989
 21
-31.499999999999972
 31
0.0
  0
LINE
  5
42A8
  8
240
  6
CONTINUOUS
 10
0.9999999999997442
 20
-31.499999999999631
 30
0.0
 11
11.565505652666101
 21
-31.500000000000309
 31
0.0
  0
LINE
  5
42A9
  8
243
  6
HIDDEN2
 10
22.99999999999989
 20
-22.499999999999972
 30
0.0
 11
0.9999999999998864
 21
-22.499999999999972
 31
0.0
  0
LINE
  5
42AA
  8
245
  6
CENTER2
 10
-66.400000000000176
 20
0.0000000000000853
 30
0.0
 11
63.0
 21
0.0
 31
0.0
  0
LINE
  5
42AB
  8
240
  6
CONTINUOUS
 10
14.45225699861486
 20
-26.499999999999801
 30
0.0
 11
11.565505652666239
 21
-31.50000000000043
 31
0.0
  0
LINE
  5
42AC
  8
240
  6
CONTINUOUS
 10
18.747743001385398
 20
-26.500000000000028
 30
0.0
 11
21.634494347334339
 21
-31.50000000000043
 31
0.0
  0
LINE
  5
42AD
  8
240
  6
CONTINUOUS
 10
14.45225699861453
 20
-26.49999999999952
 30
0.0
 11
18.747743001385398
 21
-26.500000000000028
 31
0.0
  0
LINE
  5
42AE
  8
241
  6
CONTINUOUS
 10
11.565505652666101
 20
31.50000000000043
 30
0.0
 11
11.565505652666239
 21
-31.50000000000043
 31
0.0
  0
LINE
  5
42AF
  8
241
  6
CONTINUOUS
 10
14.45225699861453
 20
-26.49999999999952
 30
0.0
 11
14.452256998614409
 21
26.4999999999994
 31
0.0
  0
LINE
  5
42B0
  8
241
  6
CONTINUOUS
 10
18.747743001385292
 20
-26.499999999999861
 30
0.0
 11
18.747743001385398
 21
26.499999999999972
 31
0.0
  0
LINE
  5
42B1
  8
241
  6
CONTINUOUS
 10
21.634494347333309
 20
-31.500000000000711
 30
0.0
 11
21.634494347333369
 21
31.500000000000661
 31
0.0
  0
LINE
  5
42B2
  8
240
  6
CONTINUOUS
 10
-0.0000000000000853
 20
-22.225000000000001
 30
0.0
 11
0.9999999999998575
 21
-22.225000000000051
 31
0.0
  0
LINE
  5
42B3
  8
241
  6
CONTINUOUS
 10
0.9999999999998575
 20
-22.22499999999982
 30
0.0
 11
0.9999999999998575
 21
22.22499999999982
 31
0.0
  0
LINE
  5
42B4
  8
240
  6
CONTINUOUS
 10
0.9999999999998293
 20
31.499999999999691
 30
0.0
 11
0.9999999999999149
 21
22.225000000000051
 31
0.0
  0
LINE
  5
42B5
  8
240
  6
CONTINUOUS
 10
-0.0000000000000568
 20
22.225000000000001
 30
0.0
 11
-65.400000000000091
 21
12.687500000000201
 31
0.0
  0
LINE
  5
42B6
  8
240
  6
CONTINUOUS
 10
26.99999999999994
 20
31.50000000000038
 30
0.0
 11
21.634494347333369
 21
31.500000000000711
 31
0.0
  0
LINE
  5
42B7
  8
243
  6
HIDDEN2
 10
22.99999999999994
 20
22.499999999999918
 30
0.0
 11
23.0
 21
31.499999999999911
 31
0.0
  0
LINE
  5
42B8
  8
240
  6
CONTINUOUS
 10
0.9999999999998293
 20
31.499999999999691
 30
0.0
 11
11.565505652666189
 21
31.50000000000038
 31
0.0
  0
LINE
  5
42B9
  8
243
  6
HIDDEN2
 10
22.99999999999994
 20
22.499999999999918
 30
0.0
 11
0.9999999999999431
 21
22.500000000000028
 31
0.0
  0
LINE
  5
42BA
  8
240
  6
CONTINUOUS
 10
14.452256998614979
 20
26.499999999999801
 30
0.0
 11
11.56550565266633
 21
31.50000000000043
 31
0.0
  0
LINE
  5
42BB
  8
240
  6
CONTINUOUS
 10
18.747743001385508
 20
26.500000000000028
 30
0.0
 11
21.634494347334449
 21
31.50000000000038
 31
0.0
  0
LINE
  5
42BC
  8
240
  6
CONTINUOUS
 10
14.45225699861459
 20
26.49999999999946
 30
0.0
 11
18.747743001385508
 21
26.500000000000028
 31
0.0
  0
LINE
  5
42BD
  8
240
  6
CONTINUOUS
 10
-0.0000000000000284
 20
22.225000000000051
 30
0.0
 11
0.9999999999999149
 21
22.225000000000051
 31
0.0
  0
LINE
  5
42BE
  8
247
  6
CONTINUOUS
 10
7.999999999999857
 20
-18.250000000069999
 30
0.0
 11
7.999999999999857
 21
-11.557692308029999
 31
0.0
  0
ARC
  5
42BF
  8
247
  6
CONTINUOUS
 10
6.2500000000698321
 20
-18.250000000069999
 30
0.0
 40
1.7499999999299991
 50
180.0
 51
0.0
  0
ARC
  5
42C0
  8
247
  6
CONTINUOUS
 10
6.2500000000698321
 20
-11.557692308029999
 30
0.0
 40
1.7499999999299991
 50
0.0
 51
180.0
  0
LINE
  5
42C1
  8
247
  6
CONTINUOUS
 10
4.5000000001398632
 20
-17.384615384719979
 30
0.0
 11
7.5000000000198659
 21
-18.244851541961989
 31
0.0
  0
LINE
  5
42C2
  8
247
  6
CONTINUOUS
 10
5.923076923159865
 20
-16.484983818335792
 30
0.0
 11
5.923076923159865
 21
-17.792676125975809
 31
0.0
  0
ARC
  5
42C3
  8
247
  6
CONTINUOUS
 10
5.0495986677028384
 20
-16.14514381608976
 30
0.0
 40
0.5538165441895349
 50
72.997889675291773
 51
172.92416621851359
  0
ARC
  5
42C4
  8
247
  6
CONTINUOUS
 10
4.9360330444656313
 20
-16.56687832302876
 30
0.0
 40
0.9904354236226808
 50
4.7429368522022122
 51
73.849226273266297
1001
GENIUS_GENOBJ-N-FIL_13
1002
{
1000
OWNER
1000
GEN
1002
}
1001
GENIUS_GENODEF_13
1002
{
1000
HIER
1070
     0
1002
}
1002
{
1000
MANEDIT
1070
     0
1002
}
1002
{
1000
NOSEL
1070
     0
1002
}
1002
{
1000
BEHIND
1070
     0
1002
}
1002
{
1000
OTHER
1070
     0
1002
}
1002
{
1000
REACTOR
1002
}
  0
LINE
  5
42C5
  8
247
  6
CONTINUOUS
 10
7.5000000000198659
 20
-16.937159234322021
 30
0.0
 11
7.5000000000198659
 21
-18.244851541961989
 31
0.0
  0
LINE
  5
42C6
  8
247
  6
CONTINUOUS
 10
4.5000000001398632
 20
-17.384615384719979
 30
0.0
 11
4.5000000001398632
 21
-16.07692307707995
 31
0.0
  0
ARC
  5
42C7
  8
247
  6
CONTINUOUS
 10
6.4820242326653954
 20
-16.56091963654697
 30
0.0
 40
0.5640818586791229
 50
65.990941652528889
 51
172.26344345906909
  0
ARC
  5
42C8
  8
247
  6
CONTINUOUS
 10
6.4874290391864227
 20
-17.03826268534706
 30
0.0
 40
1.0176059446230981
 50
5.701985164259785
 51
77.277338436822376
1001
GENIUS_GENOBJ-N-FIL_13
1002
{
1000
OWNER
1000
GEN
1002
}
1001
GENIUS_GENODEF_13
1002
{
1000
HIER
1070
     0
1002
}
1002
{
1000
MANEDIT
1070
     0
1002
}
1002
{
1000
NOSEL
1070
     0
1002
}
1002
{
1000
BEHIND
1070
     0
1002
}
1002
{
1000
OTHER
1070
     0
1002
}
1002
{
1000
REACTOR
1002
}
  0
LINE
  5
42C9
  8
247
  6
CONTINUOUS
 10
7.5000000000198659
 20
-15.283313080541999
 30
0.0
 11
4.5000000001398632
 21
-14.423076923299989
 31
0.0
  0
LINE
  5
42CA
  8
247
  6
CONTINUOUS
 10
4.5000000001398632
 20
-12.00000000032
 30
0.0
 11
4.5000000001398632
 21
-12.565736619456599
 31
0.0
  0
LINE
  5
42CB
  8
247
  6
CONTINUOUS
 10
7.5000000000198659
 20
-13.461538461799959
 30
0.0
 11
7.5000000000198659
 21
-12.846153846439989
 31
0.0
  0
ARC
  5
42CC
  8
247
  6
CONTINUOUS
 10
6.5832851359732274
 20
-11.708791209122831
 30
0.0
 40
2.2526500823422122
 50
202.35948814152911
 51
254.99324854284609
  0
ARC
  5
42CD
  8
247
  6
CONTINUOUS
 10
5.3083126551943831
 20
-12.374069479213199
 30
0.0
 40
0.8906723995727782
 50
94.994589319075317
 51
155.1663289573039
1001
GENIUS_GENOBJ-N-FIL_13
1002
{
1000
OWNER
1000
GEN
1002
}
1001
GENIUS_GENODEF_13
1002
{
1000
HIER
1070
     0
1002
}
1002
{
1000
MANEDIT
1070
     0
1002
}
1002
{
1000
NOSEL
1070
     0
1002
}
1002
{
1000
BEHIND
1070
     0
1002
}
1002
{
1000
OTHER
1070
     0
1002
}
1002
{
1000
REACTOR
1002
}
  0
ARC
  5
42CE
  8
247
  6
CONTINUOUS
 10
6.160145888667639
 20
-13.22645888621255
 30
0.0
 40
1.392781735586712
 50
15.8460965557808
 51
82.325137004169065
  0
ARC
  5
42CF
  8
247
  6
CONTINUOUS
 10
6.4592434315271401
 20
-12.64221272584038
 30
0.0
 40
1.324563662670287
 50
249.7136016704969
 51
321.78874565640928
1001
GENIUS_GENOBJ-N-FIL_13
1002
{
1000
OWNER
1000
GEN
1002
}
1001
GENIUS_GENODEF_13
1002
{
1000
HIER
1070
     0
1002
}
1002
{
1000
MANEDIT
1070
     0
1002
}
1002
{
1000
NOSEL
1070
     0
1002
}
1002
{
1000
BEHIND
1070
     0
1002
}
1002
{
1000
OTHER
1070
     0
1002
}
1002
{
1000
REACTOR
1002
}
  0
LINE
  5
42D0
  8
247
  6
CONTINUOUS
 10
6.3461538462198321
 20
-12.53846153876
 30
0.0
 11
6.3461538462198321
 21
-11.84615384648
 31
0.0
  0
LINE
  5
42D1
  8
250
  6
CONTINUOUS
 10
-34.1368727750733
 20
-19.201653317105951
 30
0.0
 11
-32.700000000000102
 21
-17.456249999999979
 31
0.0
  0
LINE
  5
42D2
  8
250
  6
CONTINUOUS
 10
-33.49312722492688
 20
-19.57331998377262
 30
0.0
 11
-32.700000000000102
 21
-17.456249999999979
 31
0.0
  0
LINE
  5
42D3
  8
250
  6
CONTINUOUS
 10
-32.700000000000102
 20
-17.456249999999979
 30
0.0
 11
-33.815000000000111
 21
-19.387486650439278
 31
0.0
  0
LINE
  5
42D4
  8
250
  6
CONTINUOUS
 10
-33.815000000000111
 20
-19.387486650439278
 30
0.0
 11
-38.36313006819131
 21
-27.265079007978191
 31
0.0
1001
ACAD
1000
DSTYLE
1002
{
1070
   140
1040
4.0
1070
   178
1070
   256
1002
}
  0
TEXT
  5
42D5
  8
250
  6
CONTINUOUS
 10
-53.82979673485795
 20
-26.265079007978191
 30
0.0
 40
2.799999999999998
  1
BBT40
  7
YOKO
1001
ITEMNAME
1000
LNSP3
  0
LINE
  5
42D6
  8
250
  6
CONTINUOUS
 10
-38.36313006819131
 20
-27.265079007978191
 30
0.0
 11
-56.096463401524652
 21
-27.265079007978191
 31
0.0
1001
ITEMNAME
1000
LNSP2
  0
LINE
  5
42D7
  8
247
  6
CONTINUOUS
 10
4.500000000139833
 20
-18.250000000069999
 30
0.0
 11
4.500000000139833
 21
-17.576923077020041
 31
0.0
  0
ARC
  5
42F7
  8
240
  6
CONTINUOUS
 10
27.99999999999989
 20
-22.000000000000082
 30
0.0
 40
1.0
 50
90.0
 51
180.0
  0
LINE
  5
42F9
  8
240
  6
CONTINUOUS
 10
29.499999999999869
 20
21.000000000000149
 30
0.0
 11
27.999999999999972
 21
21.000000000000149
 31
0.0
  0
ARC
  5
42FA
  8
240
  6
CONTINUOUS
 10
27.999999999999972
 20
22.000000000000149
 30
0.0
 40
1.0
 50
180.0
 51
270.0
  0
LINE
  5
42FB
  8
240
  6
CONTINUOUS
 10
29.499999999999869
 20
-21.000000000000082
 30
0.0
 11
27.99999999999989
 21
-21.000000000000082
 31
0.0
  0
LINE
  5
432D
  8
240
  6
CONTINUOUS
 10
49.800000000000111
 20
14.90000000000064
 30
0.0
 11
49.799999999999272
 21
-14.9000000000011
 31
0.0
  0
LINE
  5
432E
  8
240
  6
CONTINUOUS
 10
47.894744111674306
 20
-16.000000000000021
 30
0.0
 11
36.131277674966917
 21
-16.000000000000021
 31
0.0
  0
LINE
  5
432F
  8
240
  6
CONTINUOUS
 10
29.49999999999914
 20
-16.749999999990731
 30
0.0
 11
29.499999999999869
 21
-21.000000000000082
 31
0.0
  0
LINE
  5
4330
  8
241
  6
CONTINUOUS
 10
33.700000000000493
 20
-16.749999999998082
 30
0.0
 11
33.699999999999612
 21
16.74999999999843
 31
0.0
1001
GRPNAME
1000
PASTMD0T
  0
LINE
  5
4331
  8
241
  6
CONTINUOUS
 10
34.800000000000203
 20
-16.75000000000011
 30
0.0
 11
34.799999999998562
 21
16.750000000000451
 31
0.0
1001
GRPNAME
1000
PASTMD0T
  0
LINE
  5
4332
  8
242
  6
CONTINUOUS
 10
37.800000000001432
 20
-15.999999999999901
 30
0.0
 11
37.799999999992892
 21
16.000000000000021
 31
0.0
  0
ARC
  5
4333
  8
240
  6
CONTINUOUS
 10
36.131277674966917
 20
-16.399999999999991
 30
0.0
 40
0.4
 50
90.0
 51
150.0000000000143
  0
LINE
  5
4334
  8
240
  6
CONTINUOUS
 10
29.49999999999914
 20
-16.749999999990731
 30
0.0
 11
35.467324865400848
 21
-16.750000000001648
 31
0.0
  0
LINE
  5
4335
  8
240
  6
CONTINUOUS
 10
35.784867513453086
 20
-16.20000000000007
 30
0.0
 11
35.467324865400848
 21
-16.750000000001648
 31
0.0
  0
LINE
  5
4336
  8
241
  6
CONTINUOUS
 10
35.900337567289547
 20
-16.073401367629021
 30
0.0
 11
35.900337567289547
 21
16.073401367629991
 31
0.0
  0
LINE
  5
4337
  8
241
  6
CONTINUOUS
 10
35.46732486539895
 20
-16.69494897427829
 30
0.0
 11
35.467324865398311
 21
16.75000000000167
 31
0.0
  0
LINE
  5
4338
  8
242
  6
CONTINUOUS
 10
37.800000000001297
 20
-15.249999999999989
 30
0.0
 11
49.193782217350673
 21
-15.249999999999931
 31
0.0
  0
LINE
  5
4339
  8
241
  6
CONTINUOUS
 10
47.894744111674271
 20
-15.981716522001101
 30
0.0
 11
47.894744111674349
 21
16.000000000000011
 31
0.0
  0
LINE
  5
433A
  8
240
  6
CONTINUOUS
 10
49.799999999999272
 20
-14.9000000000011
 30
0.0
 11
47.894744111674306
 21
-16.000000000000021
 31
0.0
  0
LINE
  5
433B
  8
240
  6
CONTINUOUS
 10
29.49999999999914
 20
16.749999999990731
 30
0.0
 11
29.499999999999869
 21
21.000000000000149
 31
0.0
  0
LINE
  5
433C
  8
240
  6
CONTINUOUS
 10
47.894744111674306
 20
16.000000000000021
 30
0.0
 11
36.131277674966917
 21
16.000000000000021
 31
0.0
  0
ARC
  5
433D
  8
240
  6
CONTINUOUS
 10
36.131277674966917
 20
16.399999999999999
 30
0.0
 40
0.4
 50
209.9999999999857
 51
270.0
  0
LINE
  5
433E
  8
240
  6
CONTINUOUS
 10
29.49999999999914
 20
16.749999999990731
 30
0.0
 11
35.467324865400848
 21
16.75000000000167
 31
0.0
  0
LINE
  5
433F
  8
240
  6
CONTINUOUS
 10
35.784867513453086
 20
16.20000000000007
 30
0.0
 11
35.467324865400848
 21
16.75000000000167
 31
0.0
  0
LINE
  5
4340
  8
242
  6
CONTINUOUS
 10
37.800000000001297
 20
15.25
 30
0.0
 11
49.193782217350673
 21
15.24999999999994
 31
0.0
  0
LINE
  5
4341
  8
240
  6
CONTINUOUS
 10
49.800000000000111
 20
14.90000000000064
 30
0.0
 11
47.894744111674306
 21
16.000000000000021
 31
0.0
  0
LINE
  5
4342
  8
241
  6
CONTINUOUS
 10
29.500000162227249
 20
-16.750000241534
 30
0.0
 11
29.50000016222641
 21
16.749999999990731
 31
0.0
1001
GRPNAME
1000
PASTMD0T
  0
LINE
  5
4343
  8
246
  6
PHANTOM2
 10
59.999999999999922
 20
-21.0
 30
0.0
 11
59.999999999999922
 21
21.0
 31
0.0
1001
GRPNAME
1000
PASTMD01
  0
LINE
  5
4344
  8
246
  6
PHANTOM2
 10
59.999999999999922
 20
21.0
 30
0.0
 11
32.499999999999922
 21
21.0
 31
0.0
  0
LINE
  5
4345
  8
246
  6
PHANTOM2
 10
59.999999999999922
 20
-21.0
 30
0.0
 11
32.499999999999922
 21
-21.0
 31
0.0
  0
LINE
  5
4346
  8
250
  6
CONTINUOUS
 10
60.499999999999901
 20
-21.0
 30
0.0
 11
72.999999999999901
 21
-21.0
 31
0.0
  0
LINE
  5
4347
  8
250
  6
CONTINUOUS
 10
60.499999999999901
 20
21.0
 30
0.0
 11
72.999999999999901
 21
21.0
 31
0.0
  0
LINE
  5
4348
  8
250
  6
CONTINUOUS
 10
71.999999999999929
 20
-19.0
 30
0.0
 11
71.999999999999929
 21
19.0
 31
0.0
  0
INSERT
  5
4349
  8
250
  6
CONTINUOUS
  2
_OPEN
 10
71.999999999999929
 20
-21.0
 30
0.0
 41
2.0
 42
2.0
 43
2.0
 50
270.0
  0
INSERT
  5
434A
  8
250
  6
CONTINUOUS
  2
_OPEN
 10
71.999999999999929
 20
21.0
 30
0.0
 41
2.0
 42
2.0
 43
2.0
 50
90.0
  0
LINE
  5
434B
  8
243
  6
HIDDEN2
 10
25.800000000000061
 20
9.3770421120782181
 30
0.0
 11
49.800000000000011
 21
12.75002214493543
 31
0.0
  0
LINE
  5
434C
  8
243
  6
HIDDEN2
 10
25.800000000000061
 20
-9.3770421120782022
 30
0.0
 11
49.800000000000011
 21
-12.75002214493542
 31
0.0
  0
TEXT
  5
434D
  8
250
  6
CONTINUOUS
 10
70.999999999999872
 20
-7.2566381704399738
 30
0.0
 40
2.799999999999998
  1
\U+2205
 50
90.0
  0
TEXT
  5
434E
  8
250
  6
CONTINUOUS
 10
70.999999999999872
 20
-4.7233048371066433
 30
0.0
 40
2.799999999999998
  1
1.654
 50
90.0
  0
LINE
  5
434F
  8
240
  6
CONTINUOUS
 10
26.999999999999801
 20
22.000000000000139
 30
0.0
 11
26.999999999999769
 21
31.50000000000038
 31
0.0
  0
LINE
  5
4350
  8
241
  6
CONTINUOUS
 10
26.999999999999972
 20
22.000000000000149
 30
0.0
 11
26.999999999999869
 21
-22.000000000000089
 31
0.0
  0
TEXT
  5
43B5
  8
241
  6
CONTINUOUS
 10
-70.0
 20
63.000000000000043
 30
0.0
 40
5.0
  1
BBT40-MEGAER25-60NL
  7
YOKO
 11
-70.0
 21
63.000000000000043
 31
0.0
 73
     1
  0
LINE
  5
43CA
  8
250
  6
CONTINUOUS
 10
-34.20000000000114
 20
9.1500000000008637
 30
0.0
 11
-34.20000000000114
 21
49.999999999999972
 31
0.0
  0
LINE
  5
43CB
  8
250
  6
CONTINUOUS
 10
59.999999999999922
 20
21.5
 30
0.0
 11
59.999999999999922
 21
49.999999999999972
 31
0.0
  0
LINE
  5
43CC
  8
250
  6
CONTINUOUS
 10
-31.970000000001139
 20
48.999999999999972
 30
0.0
 11
57.769999999999932
 21
48.999999999999972
 31
0.0
  0
LINE
  5
43D0
  8
250
  6
CONTINUOUS
 10
-0.0000000000000568
 20
22.725000000000001
 30
0.0
 11
-0.0000000000000555
 21
43.0
 31
0.0
  0
LINE
  5
43D1
  8
250
  6
CONTINUOUS
 10
59.999999999999922
 20
21.5
 30
0.0
 11
59.999999999999922
 21
43.0
 31
0.0
  0
LINE
  5
43D2
  8
250
  6
CONTINUOUS
 10
2.229999999999944
 20
42.0
 30
0.0
 11
57.769999999999932
 21
42.0
 31
0.0
  0
TEXT
  5
43D6
  8
250
  6
CONTINUOUS
 10
5.123319805099225
 20
49.999999999999972
 30
0.0
 40
2.799999999999998
  1
(max.3.70)
  0
LINE
  5
43D7
  8
250
  6
CONTINUOUS
 10
57.769999999999932
 20
49.371666666666641
 30
0.0
 11
59.999999999999922
 21
48.999999999999972
 31
0.0
  0
LINE
  5
43D8
  8
250
  6
CONTINUOUS
 10
57.769999999999932
 20
48.628333333333302
 30
0.0
 11
59.999999999999922
 21
48.999999999999972
 31
0.0
  0
LINE
  5
43D9
  8
250
  6
CONTINUOUS
 10
59.999999999999922
 20
48.999999999999972
 30
0.0
 11
57.769999999999932
 21
48.999999999999972
 31
0.0
  0
LINE
  5
43DA
  8
250
  6
CONTINUOUS
 10
-31.970000000001139
 20
48.628333333333302
 30
0.0
 11
-34.20000000000114
 21
48.999999999999972
 31
0.0
  0
LINE
  5
43DB
  8
250
  6
CONTINUOUS
 10
-31.970000000001139
 20
49.371666666666641
 30
0.0
 11
-34.20000000000114
 21
48.999999999999972
 31
0.0
  0
LINE
  5
43DC
  8
250
  6
CONTINUOUS
 10
-34.20000000000114
 20
48.999999999999972
 30
0.0
 11
-31.970000000001139
 21
48.999999999999972
 31
0.0
  0
TEXT
  5
43DD
  8
250
  6
CONTINUOUS
 10
23.99999999999995
 20
43.0
 30
0.0
 40
2.799999999999998
  1
2.362
  0
LINE
  5
43DE
  8
250
  6
CONTINUOUS
 10
57.769999999999932
 20
42.371666666666663
 30
0.0
 11
59.999999999999922
 21
42.0
 31
0.0
  0
LINE
  5
43DF
  8
250
  6
CONTINUOUS
 10
57.769999999999932
 20
41.62833333333333
 30
0.0
 11
59.999999999999922
 21
42.0
 31
0.0
  0
LINE
  5
43E0
  8
250
  6
CONTINUOUS
 10
59.999999999999922
 20
42.0
 30
0.0
 11
57.769999999999932
 21
42.0
 31
0.0
  0
LINE
  5
43E1
  8
250
  6
CONTINUOUS
 10
2.229999999999944
 20
41.62833333333333
 30
0.0
 11
-0.0000000000000556
 21
42.0
 31
0.0
  0
LINE
  5
43E2
  8
250
  6
CONTINUOUS
 10
2.229999999999944
 20
42.371666666666663
 30
0.0
 11
-0.0000000000000556
 21
42.0
 31
0.0
  0
LINE
  5
43E3
  8
250
  6
CONTINUOUS
 10
-0.0000000000000556
 20
42.0
 30
0.0
 11
2.229999999999944
 21
42.0
 31
0.0
  0
VIEWPORT
  5
22
 67
     1
  8
0
 10
261.51769911504419
 20
148.5
 30
0.0
 40
523.0353982300885
 41
297.0
 68
     1
 69
     1
1001
ACAD
1000
MVIEW
1002
{
1070
    16
1010
0.0
1020
0.0
1030
0.0
1010
0.0
1020
0.0
1030
1.0
1040
0.0
1040
297.0
1040
261.51769911504419
1040
148.5
1040
50.0
1040
0.0
1040
0.0
1070
     0
1070
   100
1070
     1
1070
     1
1070
     0
1070
     0
1070
     0
1070
     0
1040
0.0
1040
0.0
1040
0.0
1040
1.0
1040
1.0
1040
10.0
1040
10.0
1070
     0
1002
{
1002
}
1002
}
1001
GENIUS_GENODEF_13
1002
{
1000
HIER
1070
     0
1002
}
1002
{
1000
MANEDIT
1070
     0
1002
}
1002
{
1000
NOSEL
1070
     0
1002
}
1002
{
1000
BEHIND
1070
     0
1002
}
1002
{
1000
OTHER
1070
     0
1002
}
1002
{
1000
REACTOR
1002
}
1001
GENIUS_GENOBJ-N-SDF_13
1002
{
1000
OWNER
1000
GEN
1002
}
1001
GENIUS_GENSCREG_15
1000
PF
1040
1.0
1000
DF
1040
1.0
1000
MIN
1011
0.0
1021
0.0
1031
0.0
1021
0.0
1031
0.0
1000
MAX
1011
523.0353982300885
1021
0.0
1031
0.0
1021
297.0
1031
0.0
1000
FLAGS
1070
     4
  0
ENDSEC
  0
EOF
