  0
SECTION
  2
HEADER
  9
$ACADVER
  1
AC1009
  9
$INSBASE
 10
0.0
 20
0.0
 30
0.0
  9
$EXTMIN
 10
-69.047619047619051
 20
-31.5000000000007105
 30
0.0
  9
$EXTMAX
 10
105.0
 20
68.0000000000000284
 30
0.0
  9
$LIMMIN
 10
0.0
 20
0.0
  9
$LIMMAX
 10
297.0
 20
210.0
  9
$ORTHOMODE
 70
     0
  9
$REGENMODE
 70
     1
  9
$FILLMODE
 70
     1
  9
$QTEXTMODE
 70
     0
  9
$MIRRTEXT
 70
     1
  9
$DRAGMODE
 70
     2
  9
$LTSCALE
 40
10.0
  9
$OSMODE
 70
   807
  9
$ATTMODE
 70
     1
  9
$TEXTSIZE
 40
3.0
  9
$TRACEWID
 40
1.0
  9
$TEXTSTYLE
  7
YOKO
  9
$CLAYER
  8
240
  9
$CELTYPE
  6
BYLAYER
  9
$CECOLOR
 62
   256
  9
$DIMSCALE
 40
1.0
  9
$DIMASZ
 40
2.2299999999999991
  9
$DIMEXO
 40
0.5
  9
$DIMDLI
 40
7.0
  9
$DIMRND
 40
0.0
  9
$DIMDLE
 40
0.0
  9
$DIMEXE
 40
1.0
  9
$DIMTP
 40
0.0
  9
$DIMTM
 40
0.01
  9
$DIMTXT
 40
2.7999999999999989
  9
$DIMCEN
 40
0.0
  9
$DIMTSZ
 40
0.0
  9
$DIMTOL
 70
     0
  9
$DIMLIM
 70
     0
  9
$DIMTIH
 70
     0
  9
$DIMTOH
 70
     0
  9
$DIMSE1
 70
     0
  9
$DIMSE2
 70
     0
  9
$DIMTAD
 70
     3
  9
$DIMZIN
 70
     9
  9
$DIMBLK
  1
OPEN
  9
$DIMASO
 70
     1
  9
$DIMSHO
 70
     1
  9
$DIMPOST
  1

  9
$DIMAPOST
  1

  9
$DIMALT
 70
     0
  9
$DIMALTD
 70
     2
  9
$DIMALTF
 40
25.3999999999999986
  9
$DIMLFAC
 40
1.0
  9
$DIMTOFL
 70
     1
  9
$DIMTVP
 40
0.0
  9
$DIMTIX
 70
     1
  9
$DIMSOXD
 70
     0
  9
$DIMSAH
 70
     0
  9
$DIMBLK1
  1

  9
$DIMBLK2
  1

  9
$DIMSTYLE
  2
BIGT
  9
$DIMCLRD
 70
   256
  9
$DIMCLRE
 70
   256
  9
$DIMCLRT
 70
    40
  9
$DIMTFAC
 40
1.0
  9
$DIMGAP
 40
1.0
  9
$LUNITS
 70
     2
  9
$LUPREC
 70
     3
  9
$SKETCHINC
 40
1.0
  9
$FILLETRAD
 40
5.0
  9
$AUNITS
 70
     0
  9
$AUPREC
 70
     3
  9
$MENU
  1
.
  9
$ELEVATION
 40
0.0
  9
$PELEVATION
 40
0.0
  9
$THICKNESS
 40
0.0
  9
$LIMCHECK
 70
     0
  9
$BLIPMODE
 70
     0
  9
$CHAMFERA
 40
0.25
  9
$CHAMFERB
 40
0.25
  9
$SKPOLY
 70
     0
  9
$TDCREATE
 40
2458149.6285879630595446
  9
$TDUPDATE
 40
2458149.7591435192152858
  9
$TDINDWG
 40
0.0221180556
  9
$TDUSRTIMER
 40
0.0221180556
  9
$USRTIMER
 70
     1
  9
$ANGBASE
 50
0.0
  9
$ANGDIR
 70
     0
  9
$PDMODE
 70
     1
  9
$PDSIZE
 40
0.0
  9
$PLINEWID
 40
0.0
  9
$COORDS
 70
     1
  9
$SPLFRAME
 70
     0
  9
$SPLINETYPE
 70
     6
  9
$SPLINESEGS
 70
     4
  9
$ATTDIA
 70
     1
  9
$ATTREQ
 70
     1
  9
$HANDLING
 70
     1
  9
$HANDSEED
  5
1983
  9
$SURFTAB1
 70
     6
  9
$SURFTAB2
 70
     6
  9
$SURFTYPE
 70
     6
  9
$SURFU
 70
     6
  9
$SURFV
 70
     6
  9
$UCSNAME
  2

  9
$UCSORG
 10
0.0
 20
0.0
 30
0.0
  9
$UCSXDIR
 10
1.0
 20
0.0
 30
0.0
  9
$UCSYDIR
 10
0.0
 20
1.0
 30
0.0
  9
$PUCSNAME
  2

  9
$PUCSORG
 10
0.0
 20
0.0
 30
0.0
  9
$PUCSXDIR
 10
1.0
 20
0.0
 30
0.0
  9
$PUCSYDIR
 10
0.0
 20
1.0
 30
0.0
  9
$USERI1
 70
     1
  9
$USERI2
 70
     0
  9
$USERI3
 70
     0
  9
$USERI4
 70
     0
  9
$USERI5
 70
     0
  9
$USERR1
 40
0.0
  9
$USERR2
 40
0.0
  9
$USERR3
 40
0.0
  9
$USERR4
 40
0.0
  9
$USERR5
 40
0.0
  9
$WORLDVIEW
 70
     1
  9
$SHADEDGE
 70
     3
  9
$SHADEDIF
 70
    70
  9
$TILEMODE
 70
     1
  9
$MAXACTVP
 70
    16
  9
$PLIMCHECK
 70
     0
  9
$PEXTMIN
 10
1.0000000000000000E+20
 20
1.0000000000000000E+20
 30
1.0000000000000000E+20
  9
$PEXTMAX
 10
-1.0000000000000000E+20
 20
-1.0000000000000000E+20
 30
-1.0000000000000000E+20
  9
$PLIMMIN
 10
0.0
 20
0.0
  9
$PLIMMAX
 10
420.0
 20
297.0
  9
$UNITMODE
 70
     0
  9
$VISRETAIN
 70
     1
  9
$PLINEGEN
 70
     0
  9
$PSLTSCALE
 70
     1
  0
ENDSEC
  0
SECTION
  2
TABLES
  0
TABLE
  2
VPORT
 70
     1
  0
VPORT
  2
*ACTIVE
 70
     0
 10
0.0
 20
0.0
 11
1.0
 21
1.0
 12
31.0592891352368383
 22
12.3174856969991104
 13
0.0
 23
0.0
 14
7.0
 24
7.0
 15
7.0
 25
7.0
 16
0.0
 26
0.0
 36
1.0
 17
0.0
 27
0.0
 37
0.0
 40
141.5282683194811
 41
1.9861809045226131
 42
50.0
 43
0.0
 44
0.0
 50
0.0
 51
0.0
 71
     0
 72
  2000
 73
     1
 74
     0
 75
     0
 76
     1
 77
     0
 78
     0
  0
ENDTAB
  0
TABLE
  2
LTYPE
 70
    16
  0
LTYPE
  2
CONTINUOUS
 70
     0
  3
Solid line
 72
    65
 73
     0
 40
0.0
  0
LTYPE
  2
CENTER2
 70
     0
  3
___ _ ___ _ ___ _ ___ _ ___ _ ___ _ ___ _ ___ _
 72
    65
 73
     4
 40
1.125
 49
0.75
 49
-0.125
 49
0.125
 49
-0.125
  0
LTYPE
  2
HIDDEN2
 70
     0
  3
_ _ _ _ _ _ _ _ _ _ _ _ _ _ _ _ _ _ _ _ _ _ _ _
 72
    65
 73
     2
 40
0.1875
 49
0.125
 49
-0.0625
  0
LTYPE
  2
PHANTOM2
 70
     0
  3
___ _ _ ___ _ _ ___ _ _ ___ _ _ ___ _ _ ___ _ _
 72
    65
 73
     6
 40
1.25
 49
0.625
 49
-0.125
 49
0.125
 49
-0.125
 49
0.125
 49
-0.125
  0
LTYPE
  2
CENTER
 70
     0
  3
____ _ ____ _ ____ _ ____ _ ____ _ ____ _ ____ 
 72
    65
 73
     4
 40
2.0
 49
1.25
 49
-0.25
 49
0.25
 49
-0.25
  0
LTYPE
  2
AM_ISO02W050
 70
     0
  3
__ __ __ __ __ __ __ __ __ __ __ __ __ __ __
 72
    65
 73
     2
 40
7.5
 49
6.0
 49
-1.5
  0
LTYPE
  2
AMCONSTR
 70
     0
  3
_______________________
 72
    65
 73
     2
 40
9999.0
 49
9999.0
 49
0.0
  0
LTYPE
  2
ACISOWELD
 70
     0
  3
_ _ _ _ _
 72
    65
 73
     2
 40
2.0
 49
2.0
 49
-1.0
  0
LTYPE
  2
ACISOTGB
 70
     0
  3
__ . . __ . .
 72
    65
 73
     6
 40
9.0
 49
4.0
 49
-1.0
 49
1.0
 49
-1.0
 49
1.0
 49
-1.0
  0
LTYPE
  2
ACISOTGL
 70
     0
  3
_ _ _ _ _
 72
    65
 73
     2
 40
3.0
 49
2.0
 49
-1.0
  0
LTYPE
  2
ACJISTGB
 70
     0
  3
__ . . __ . .
 72
    65
 73
     6
 40
9.0
 49
4.0
 49
-1.0
 49
1.0
 49
-1.0
 49
1.0
 49
-1.0
  0
LTYPE
  2
ACJISTGL
 70
     0
  3
_ _ _ _ _
 72
    65
 73
     2
 40
3.0
 49
2.0
 49
-1.0
  0
LTYPE
  2
HIDDEN
 70
     0
  3
Hidden __ __ __ __ __ __ __ __ __ __ __ __ __ _
 72
    65
 73
     2
 40
9.5249999999999986
 49
6.3499999999999988
 49
-3.1749999999999989
  0
LTYPE
  2
AMZIGZAG2
 70
     0
  3
/\/-/\/-/\/-/\/-/\/-/\/
 72
    65
 73
     2
 40
0.4401
 49
0.0001
 49
-0.4400000000000003
  0
LTYPE
  2
ACANSTGB
 70
     0
  3
__ . . __ . .
 72
    65
 73
     6
 40
0.35433070866
 49
0.15748031496
 49
-0.03937007874
 49
0.03937007874
 49
-0.03937007874
 49
0.03937007874
 49
-0.03937007874
  0
LTYPE
  2
ACANSTGL
 70
     0
  3
_ _ _ _ _
 72
    65
 73
     2
 40
0.11811023622
 49
0.07874015748
 49
-0.03937007874
  0
ENDTAB
  0
TABLE
  2
LAYER
 70
    10
  0
LAYER
  2
0
 70
     0
 62
     7
  6
CONTINUOUS
  0
LAYER
  2
DEFPOINTS
 70
     0
 62
     7
  6
CONTINUOUS
  0
LAYER
  2
245
 70
     0
 62
     2
  6
CENTER2
  0
LAYER
  2
240
 70
     0
 62
     4
  6
CONTINUOUS
  0
LAYER
  2
241
 70
     0
 62
   211
  6
CONTINUOUS
  0
LAYER
  2
242
 70
     0
 62
     3
  6
CONTINUOUS
  0
LAYER
  2
243
 70
     0
 62
   211
  6
HIDDEN2
  0
LAYER
  2
246
 70
     0
 62
     3
  6
PHANTOM2
  0
LAYER
  2
247
 70
     0
 62
    60
  6
CONTINUOUS
  0
LAYER
  2
250
 70
     0
 62
     3
  6
CONTINUOUS
  0
ENDTAB
  0
TABLE
  2
STYLE
 70
     7
  0
STYLE
  2
STANDARD
 70
     0
 40
0.0
 41
1.0
 50
0.0
 71
     0
 42
3.0
  3
romans.shx
  4
extfont.shx
  0
STYLE
  2
ACISOTS
 70
     0
 40
1.0
 41
1.0
 50
0.0
 71
     0
 42
3.0
  3
amgdt.shx
  4
extfont.shx
  0
STYLE
  2
ACISOGDT
 70
     0
 40
0.0
 41
1.0
 50
0.0
 71
     0
 42
3.0
  3
amgdt.shx
  4
extfont.shx
  0
STYLE
  2
ACJISTS
 70
     0
 40
1.0
 41
1.0
 50
0.0
 71
     0
 42
3.0
  3
amgdt.shx
  4
extfont.shx
  0
STYLE
  2
ACJISGDT
 70
     0
 40
0.0
 41
1.0
 50
0.0
 71
     0
 42
3.0
  3
amgdt.shx
  4
extfont.shx
  0
STYLE
  2
YOKO
 70
     0
 40
0.0
 41
1.0
 50
0.0
 71
     0
 42
3.0
  3
romans.shx
  4
extfont.shx
  0
STYLE
  2
ACANSGDT
 70
     0
 40
0.0
 41
1.0
 50
0.0
 71
     0
 42
3.0
  3
amgdt.shx
  4

  0
ENDTAB
  0
TABLE
  2
VIEW
 70
     0
  0
ENDTAB
  0
TABLE
  2
UCS
 70
     0
  0
ENDTAB
  0
TABLE
  2
APPID
 70
    38
  0
APPID
  2
ACAD
 70
     0
  0
APPID
  2
GLOBAL
 70
     0
  0
APPID
  2
DETAIL
 70
     0
  0
APPID
  2
GRPNAME
 70
     0
  0
APPID
  2
GPARA
 70
     0
  0
APPID
  2
MCAD_NO_VIS
 70
     0
  0
APPID
  2
ACAD_TEMP_GRAPHIC
 70
     0
  0
APPID
  2
ACATTRIBSERVICES
 70
     0
  0
APPID
  2
GENIUS_GENSCREG_15
 70
     0
  0
APPID
  2
GENIUS_GENODEF_13
 70
     0
  0
APPID
  2
GENIUS_GENOBJ-N-SDF_13
 70
     0
  0
APPID
  2
GENIUS_GENREC_14
 70
     0
  0
APPID
  2
GENIUS_GENOBJ-N-REC_13
 70
     0
  0
APPID
  2
GENIUS_GENDIMSH_14
 70
     0
  0
APPID
  2
GENIUS_GENOBJ-N-DIM_13
 70
     0
  0
APPID
  2
GENIUS_GENDIM_13
 70
     0
  0
APPID
  2
GENIUS_GENDTOL_13
 70
     0
  0
APPID
  2
GENIUS_GENOLIS_13
 70
     0
  0
APPID
  2
GENIUS_GENOENT_13
 70
     0
  0
APPID
  2
GENIUS_GENOBJ-F-FEM_13
 70
     0
  0
APPID
  2
GENIUS_GENOREF_13
 70
     0
  0
APPID
  2
GENIUS_GEFFEM_13
 70
     0
  0
APPID
  2
GENIUS_GEFFEMP_13
 70
     0
  0
APPID
  2
AD_DRAW
 70
     0
  0
APPID
  2
DESIGNERASSEMBLIES
 70
     0
  0
APPID
  2
ACADM_DIM_EDIT
 70
     0
  0
APPID
  2
AMDT_DM_ADJ
 70
     0
  0
APPID
  2
ACAD_NAV_VCDISPLAY
 70
     0
  0
APPID
  2
ITEMNAME
 70
     0
  0
APPID
  2
GENIUS_GENOBJ-N-FIL_13
 70
     0
  0
APPID
  2
ACAECLAYERSTANDARD
 70
     0
  0
APPID
  2
ACAD_EXEMPT_FROM_CAD_STANDARDS
 70
     0
  0
APPID
  2
ACAD_PSEXT
 70
     0
  0
APPID
  2
ACAD_DSTYLE_DIMJAG
 70
     0
  0
APPID
  2
ACAD_DSTYLE_DIMBREAK
 70
     0
  0
APPID
  2
ACAD_DSTYLE_DIMINSPECT
 70
     0
  0
APPID
  2
ACADANNOMONITORALERTICONDI
 70
     0
  0
APPID
  2
ACAD_MLEADERVER
 70
     0
  0
ENDTAB
  0
TABLE
  2
DIMSTYLE
 70
    29
  0
DIMSTYLE
  2
BIGT
 70
     0
  3

  4

  5
OPEN
  6

  7

 40
1.0
 41
2.2299999999999991
 42
0.5
 43
7.0
 44
1.0
 45
0.0
 46
0.0
 47
0.0
 48
0.01
140
2.7999999999999989
141
0.0
142
0.0
143
25.3999999999999986
144
1.0
145
0.0
146
1.0
147
1.0
 71
     0
 72
     0
 73
     0
 74
     0
 75
     0
 76
     0
 77
     3
 78
     9
170
     0
171
     2
172
     1
173
     0
174
     1
175
     0
176
   256
177
   256
178
    40
  0
DIMSTYLE
  2
AM_ISO
 70
     0
  3

  4
"
  5

  6

  7

 40
1.0
 41
2.5
 42
1.0
 43
10.0
 44
1.0
 45
0.0
 46
0.0
 47
0.1
 48
0.1
140
3.5
141
0.0
142
0.0
143
0.0393701
144
1.0
145
0.0
146
0.71
147
1.5
 71
     0
 72
     0
 73
     0
 74
     0
 75
     0
 76
     0
 77
     1
 78
     8
170
     0
171
     2
172
     1
173
     0
174
     0
175
     0
176
   256
177
   256
178
     2
  0
DIMSTYLE
  2
AM_ISO$3
 70
     0
  3

  4
"
  5

  6

  7

 40
1.0
 41
2.5
 42
1.0
 43
10.0
 44
1.0
 45
0.0
 46
0.0
 47
0.1
 48
0.1
140
3.5
141
0.0
142
0.0
143
0.0393701
144
1.0
145
0.0
146
0.71
147
1.5
 71
     0
 72
     0
 73
     0
 74
     1
 75
     0
 76
     0
 77
     1
 78
     8
170
     0
171
     2
172
     0
173
     0
174
     0
175
     0
176
   256
177
   256
178
     2
  0
DIMSTYLE
  2
AM_ISO$4
 70
     0
  3

  4
"
  5

  6

  7

 40
1.0
 41
2.5
 42
1.0
 43
10.0
 44
1.0
 45
0.0
 46
0.0
 47
0.1
 48
0.1
140
3.5
141
0.0
142
0.0
143
0.0393701
144
1.0
145
0.0
146
0.71
147
1.5
 71
     0
 72
     0
 73
     0
 74
     1
 75
     0
 76
     0
 77
     1
 78
     8
170
     0
171
     2
172
     0
173
     0
174
     0
175
     0
176
   256
177
   256
178
     2
  0
DIMSTYLE
  2
AM_ISO$6
 70
     0
  3

  4
"
  5

  6

  7

 40
1.0
 41
2.5
 42
1.0
 43
10.0
 44
1.0
 45
0.0
 46
0.0
 47
0.1
 48
0.1
140
3.5
141
0.0
142
0.0
143
0.0393701
144
1.0
145
0.0
146
0.71
147
1.5
 71
     0
 72
     0
 73
     0
 74
     0
 75
     0
 76
     0
 77
     0
 78
     8
170
     0
171
     2
172
     1
173
     0
174
     0
175
     0
176
   256
177
   256
178
     2
  0
DIMSTYLE
  2
AM_ISO$7
 70
     0
  3

  4
"
  5

  6

  7

 40
1.0
 41
2.5
 42
1.0
 43
10.0
 44
1.0
 45
0.0
 46
0.0
 47
0.1
 48
0.1
140
5.0
141
0.0
142
0.0
143
0.0393701
144
1.0
145
0.0
146
0.71
147
1.5
 71
     0
 72
     0
 73
     0
 74
     0
 75
     0
 76
     0
 77
     1
 78
     8
170
     0
171
     2
172
     1
173
     0
174
     0
175
     0
176
   256
177
   256
178
     2
  0
DIMSTYLE
  2
AM_ISO$SF
 70
     0
  3

  4
"
  5

  6

  7

 40
1.0
 41
2.5
 42
1.0
 43
10.0
 44
1.0
 45
0.0
 46
0.0
 47
0.1
 48
0.1
140
3.5
141
0.0
142
0.0
143
0.0393701
144
1.0
145
0.0
146
0.71
147
1.5
 71
     0
 72
     0
 73
     0
 74
     0
 75
     1
 76
     1
 77
     1
 78
     8
170
     0
171
     2
172
     1
173
     0
174
     0
175
     0
176
   256
177
   256
178
     2
  0
DIMSTYLE
  2
AM_ISO$SH
 70
     0
  3

  4
"
  5

  6
GENAXEH
  7

 40
1.0
 41
2.5
 42
1.0
 43
10.0
 44
1.0
 45
0.0
 46
0.0
 47
0.1
 48
0.1
140
3.5
141
0.0
142
0.0
143
0.0393701
144
2.0
145
0.0
146
0.71
147
1.5
 71
     0
 72
     0
 73
     0
 74
     0
 75
     1
 76
     1
 77
     1
 78
     8
170
     0
171
     2
172
     1
173
     1
174
     0
175
     0
176
   256
177
   256
178
     2
  0
DIMSTYLE
  2
BIGT$2
 70
     0
  3

  4

  5
OPEN
  6

  7

 40
1.0
 41
2.2299999999999991
 42
0.5
 43
7.0
 44
1.0
 45
0.0
 46
0.0
 47
0.0
 48
0.01
140
2.7999999999999989
141
0.0
142
0.0
143
25.3999999999999986
144
1.0
145
0.0
146
1.0
147
1.0
 71
     0
 72
     0
 73
     0
 74
     0
 75
     0
 76
     0
 77
     3
 78
     9
170
     0
171
     2
172
     1
173
     0
174
     0
175
     0
176
   256
177
   256
178
    40
  0
DIMSTYLE
  2
BIGT$3
 70
     0
  3

  4

  5
OPEN
  6

  7

 40
1.0
 41
2.2299999999999991
 42
0.5
 43
2.5
 44
1.0
 45
0.0
 46
0.0
 47
0.0
 48
0.01
140
2.7999999999999989
141
0.0
142
0.0
143
25.3999999999999986
144
1.0
145
0.0
146
1.0
147
1.0
 71
     0
 72
     0
 73
     0
 74
     0
 75
     0
 76
     0
 77
     3
 78
     9
170
     0
171
     2
172
     1
173
     0
174
     0
175
     0
176
   256
177
   256
178
    40
  0
DIMSTYLE
  2
BIGT$7
 70
     0
  3

  4

  5
OPEN
  6

  7

 40
0.0
 41
2.2299999999999991
 42
0.5
 43
7.0
 44
1.0
 45
0.0
 46
0.0
 47
0.0
 48
0.01
140
2.7999999999999989
141
0.0
142
0.0
143
25.3999999999999986
144
1.0
145
0.0
146
1.0
147
1.0
 71
     0
 72
     0
 73
     0
 74
     0
 75
     0
 76
     0
 77
     3
 78
     9
170
     0
171
     2
172
     0
173
     0
174
     0
175
     0
176
   256
177
   256
178
    40
  0
DIMSTYLE
  2
BIGT$6
 70
     0
  3

  4

  5
OPEN
  6

  7

 40
1.0
 41
2.2299999999999991
 42
0.5
 43
2.5
 44
1.0
 45
0.0
 46
0.0
 47
0.0
 48
0.01
140
2.7999999999999989
141
0.0
142
0.0
143
25.3999999999999986
144
1.0
145
0.0
146
1.0
147
1.0
 71
     0
 72
     0
 73
     0
 74
     0
 75
     0
 76
     0
 77
     3
 78
     9
170
     0
171
     2
172
     1
173
     0
174
     0
175
     0
176
   256
177
   256
178
    40
  0
DIMSTYLE
  2
BIGT$0
 70
     0
  3

  4

  5
OPEN
  6

  7

 40
1.0
 41
2.2299999999999991
 42
0.5
 43
7.0
 44
1.0
 45
0.0
 46
0.0
 47
0.0
 48
0.01
140
2.7999999999999989
141
0.0
142
0.0
143
25.3999999999999986
144
1.0
145
0.0
146
1.0
147
1.0
 71
     0
 72
     0
 73
     0
 74
     0
 75
     0
 76
     0
 77
     3
 78
     9
170
     0
171
     2
172
     1
173
     0
174
     0
175
     0
176
   256
177
   256
178
    40
  0
DIMSTYLE
  2
BIGT$4
 70
     0
  3

  4

  5
OPEN
  6

  7

 40
1.0
 41
2.2299999999999991
 42
0.5
 43
2.5
 44
1.0
 45
0.0
 46
0.0
 47
0.0
 48
0.01
140
2.7999999999999989
141
0.0
142
0.0
143
25.3999999999999986
144
1.0
145
0.0
146
1.0
147
1.0
 71
     0
 72
     0
 73
     0
 74
     0
 75
     0
 76
     0
 77
     3
 78
     9
170
     0
171
     2
172
     1
173
     0
174
     0
175
     0
176
   256
177
   256
178
    40
  0
DIMSTYLE
  2
BIGT$SH
 70
     0
  3

  4

  5
OPEN
  6

  7

 40
1.0
 41
2.2299999999999991
 42
0.5
 43
7.0
 44
1.0
 45
0.0
 46
0.0
 47
0.0
 48
0.0
140
2.7999999999999989
141
0.0
142
0.0
143
25.3999999999999986
144
1.0
145
0.0
146
1.0
147
1.0
 71
     0
 72
     0
 73
     0
 74
     0
 75
     0
 76
     0
 77
     3
 78
     9
170
     0
171
     2
172
     1
173
     0
174
     0
175
     0
176
   256
177
   256
178
    40
  0
DIMSTYLE
  2
BIGT$SF
 70
     0
  3

  4

  5
OPEN
  6

  7

 40
1.0
 41
2.2299999999999991
 42
0.5
 43
7.0
 44
1.0
 45
0.0
 46
0.0
 47
0.0
 48
0.0
140
2.7999999999999989
141
0.0
142
0.0
143
25.3999999999999986
144
1.0
145
0.0
146
1.0
147
1.0
 71
     0
 72
     0
 73
     0
 74
     0
 75
     0
 76
     0
 77
     3
 78
     9
170
     0
171
     2
172
     1
173
     0
174
     0
175
     0
176
   256
177
   256
178
    40
  0
DIMSTYLE
  2
TECHNICAL_OSAKA
 70
     0
  3

  4
"
  5
OPEN30
  6

  7

 40
1.0
 41
2.5
 42
1.0
 43
10.0
 44
1.0
 45
0.0
 46
0.0
 47
0.1
 48
0.1
140
2.7999999999999989
141
0.0
142
0.0
143
0.0393701
144
1.0
145
0.0
146
0.71
147
1.5
 71
     0
 72
     0
 73
     0
 74
     0
 75
     0
 76
     0
 77
     3
 78
     8
170
     0
171
     2
172
     1
173
     0
174
     0
175
     0
176
   256
177
   256
178
    40
  0
DIMSTYLE
  2
TECHNICAL_OSAKA$3
 70
     0
  3

  4
"
  5
OPEN30
  6

  7

 40
1.0
 41
2.5
 42
1.0
 43
10.0
 44
1.0
 45
0.0
 46
0.0
 47
0.1
 48
0.1
140
2.7999999999999989
141
0.0
142
0.0
143
0.0393701
144
1.0
145
0.0
146
0.71
147
1.5
 71
     0
 72
     0
 73
     0
 74
     1
 75
     0
 76
     0
 77
     3
 78
     8
170
     0
171
     2
172
     0
173
     0
174
     0
175
     0
176
   256
177
   256
178
    40
  0
DIMSTYLE
  2
TECHNICAL_OSAKA$4
 70
     0
  3

  4
"
  5
OPEN30
  6

  7

 40
1.0
 41
2.5
 42
1.0
 43
10.0
 44
1.0
 45
0.0
 46
0.0
 47
0.1
 48
0.1
140
2.7999999999999989
141
0.0
142
0.0
143
0.0393701
144
1.0
145
0.0
146
0.71
147
1.5
 71
     0
 72
     0
 73
     0
 74
     1
 75
     0
 76
     0
 77
     3
 78
     8
170
     0
171
     2
172
     0
173
     0
174
     0
175
     0
176
   256
177
   256
178
    40
  0
DIMSTYLE
  2
TECHNICAL_OSAKA$6
 70
     0
  3

  4
"
  5
OPEN30
  6

  7

 40
1.0
 41
2.5
 42
1.0
 43
10.0
 44
1.0
 45
0.0
 46
0.0
 47
0.1
 48
0.1
140
2.7999999999999989
141
0.0
142
0.0
143
0.0393701
144
1.0
145
0.0
146
0.71
147
1.5
 71
     0
 72
     0
 73
     0
 74
     0
 75
     0
 76
     0
 77
     0
 78
     8
170
     0
171
     2
172
     1
173
     0
174
     0
175
     0
176
   256
177
   256
178
    40
  0
DIMSTYLE
  2
TECHNICAL_OSAKA$7
 70
     0
  3

  4
"
  5
OPEN30
  6

  7

 40
1.0
 41
2.5
 42
1.0
 43
10.0
 44
1.0
 45
0.0
 46
0.0
 47
0.1
 48
0.1
140
2.7999999999999989
141
0.0
142
0.0
143
0.0393701
144
1.0
145
0.0
146
0.71
147
1.5
 71
     0
 72
     0
 73
     0
 74
     0
 75
     0
 76
     0
 77
     3
 78
     8
170
     0
171
     2
172
     1
173
     0
174
     0
175
     0
176
   256
177
   256
178
    40
  0
DIMSTYLE
  2
TECHNICAL_OSAKA$SF
 70
     0
  3

  4
"
  5
OPEN30
  6
OPEN30
  7
OPEN30
 40
1.0
 41
2.5
 42
1.0
 43
10.0
 44
1.0
 45
0.0
 46
0.0
 47
0.1
 48
0.1
140
3.5
141
0.0
142
0.0
143
0.0393701
144
1.0
145
0.0
146
0.71
147
1.5
 71
     0
 72
     0
 73
     0
 74
     0
 75
     1
 76
     1
 77
     3
 78
     8
170
     0
171
     2
172
     1
173
     0
174
     0
175
     0
176
   256
177
   256
178
    40
  0
DIMSTYLE
  2
TECHNICAL_OSAKA$SH
 70
     0
  3

  4
"
  5
OPEN30
  6
GENAXEH
  7
OPEN30
 40
1.0
 41
2.5
 42
1.0
 43
10.0
 44
1.0
 45
0.0
 46
0.0
 47
0.1
 48
0.1
140
3.5
141
0.0
142
0.0
143
0.0393701
144
2.0
145
0.0
146
0.71
147
1.5
 71
     0
 72
     0
 73
     0
 74
     0
 75
     1
 76
     1
 77
     3
 78
     8
170
     0
171
     2
172
     1
173
     1
174
     0
175
     0
176
   256
177
   256
178
    40
  0
DIMSTYLE
  2
AM_ANSI
 70
     0
  3

  4
mm
  5

  6

  7

 40
1.0
 41
0.12
 42
0.05
 43
0.5
 44
0.1
 45
0.0
 46
0.0
 47
0.1
 48
0.1
140
0.12
141
0.0
142
0.0
143
25.3999999999999986
144
1.0
145
0.0
146
0.71
147
0.06
 71
     0
 72
     0
 73
     1
 74
     1
 75
     0
 76
     0
 77
     0
 78
     7
170
     0
171
     2
172
     0
173
     0
174
     0
175
     0
176
   256
177
   256
178
     2
  0
DIMSTYLE
  2
AM_ANSI$3
 70
     0
  3

  4
mm
  5

  6

  7

 40
1.0
 41
0.12
 42
0.05
 43
0.5
 44
0.1
 45
0.0
 46
0.0
 47
0.1
 48
0.1
140
0.12
141
0.0
142
0.0
143
25.3999999999999986
144
1.0
145
0.0
146
0.71
147
0.06
 71
     0
 72
     0
 73
     1
 74
     1
 75
     0
 76
     0
 77
     0
 78
     7
170
     0
171
     2
172
     0
173
     0
174
     0
175
     0
176
   256
177
   256
178
     2
  0
DIMSTYLE
  2
AM_ANSI$4
 70
     0
  3

  4
mm
  5

  6

  7

 40
1.0
 41
0.12
 42
0.05
 43
0.5
 44
0.1
 45
0.0
 46
0.0
 47
0.1
 48
0.1
140
0.12
141
0.0
142
0.0
143
25.3999999999999986
144
1.0
145
0.0
146
0.71
147
0.06
 71
     0
 72
     0
 73
     1
 74
     1
 75
     0
 76
     0
 77
     0
 78
     7
170
     0
171
     2
172
     0
173
     0
174
     0
175
     0
176
   256
177
   256
178
     2
  0
DIMSTYLE
  2
AM_ANSI$7
 70
     0
  3

  4
mm
  5

  6

  7

 40
1.0
 41
0.12
 42
0.05
 43
0.5
 44
0.1
 45
0.0
 46
0.0
 47
0.1
 48
0.1
140
0.12
141
0.0
142
0.0
143
25.3999999999999986
144
1.0
145
0.0
146
0.71
147
0.06
 71
     0
 72
     0
 73
     1
 74
     1
 75
     0
 76
     0
 77
     0
 78
     7
170
     0
171
     2
172
     0
173
     0
174
     0
175
     0
176
   256
177
   256
178
     2
  0
DIMSTYLE
  2
AM_ANSI$SF
 70
     0
  3

  4
mm
  5

  6

  7

 40
1.0
 41
0.12
 42
0.05
 43
0.5
 44
0.1
 45
0.0
 46
0.0
 47
0.1
 48
0.1
140
0.12
141
0.0
142
0.0
143
25.3999999999999986
144
1.0
145
0.0
146
0.71
147
0.06
 71
     0
 72
     0
 73
     1
 74
     1
 75
     1
 76
     1
 77
     0
 78
     7
170
     0
171
     2
172
     0
173
     0
174
     0
175
     0
176
   256
177
   256
178
     2
  0
DIMSTYLE
  2
AM_ANSI$SH
 70
     0
  3

  4
mm
  5

  6

  7

 40
1.0
 41
0.12
 42
0.05
 43
0.5
 44
0.1
 45
0.0
 46
0.0
 47
0.1
 48
0.1
140
0.12
141
0.0
142
0.0
143
25.3999999999999986
144
1.0
145
0.0
146
0.71
147
0.06
 71
     0
 72
     0
 73
     1
 74
     1
 75
     1
 76
     1
 77
     0
 78
     7
170
     0
171
     2
172
     0
173
     1
174
     0
175
     0
176
   256
177
   256
178
     2
  0
ENDTAB
  0
ENDSEC
  0
SECTION
  2
BLOCKS
  0
BLOCK
  8
0
  2
$MODEL_SPACE
 70
     0
 10
0.0
 20
0.0
 30
0.0
  3
$MODEL_SPACE
  1

  0
ENDBLK
  5
1C
  8
0
  0
BLOCK
 67
     1
  8
0
  2
$PAPER_SPACE
 70
     0
 10
0.0
 20
0.0
 30
0.0
  3
$PAPER_SPACE
  1

  0
ENDBLK
  5
19
 67
     1
  8
0
  0
BLOCK
  8
0
  2
_OPEN
 70
     0
 10
0.0
 20
0.0
 30
0.0
  3
_OPEN
  1

  0
LINE
  5
595
  8
0
  6
BYBLOCK
 62
     0
 10
-1.0
 20
0.1666666666666666
 30
0.0
 11
0.0
 21
0.0
 31
0.0
  0
LINE
  5
596
  8
0
  6
BYBLOCK
 62
     0
 10
-1.0
 20
-0.1666666666666666
 30
0.0
 11
0.0
 21
0.0
 31
0.0
  0
LINE
  5
597
  8
0
  6
BYBLOCK
 62
     0
 10
0.0
 20
0.0
 30
0.0
 11
-1.0
 21
0.0
 31
0.0
  0
ENDBLK
  5
599
  8
0
  0
BLOCK
  8
0
  2
GENAXEH
 70
     0
 10
0.0
 20
0.0
 30
0.0
  3
GENAXEH
  1

  0
LINE
  5
6E8
  8
0
 10
-1.0
 20
0.0
 30
0.0
 11
1.0
 21
0.0
 31
0.0
  0
ENDBLK
  5
6EA
  8
0
  0
BLOCK
  8
0
  2
_OPEN30
 70
     0
 10
0.0
 20
0.0
 30
0.0
  3
_OPEN30
  1

  0
LINE
  5
E8F
  8
0
  6
BYBLOCK
 62
     0
 10
-1.0
 20
0.26794919
 30
0.0
 11
0.0
 21
0.0
 31
0.0
  0
LINE
  5
E90
  8
0
  6
BYBLOCK
 62
     0
 10
0.0
 20
0.0
 30
0.0
 11
-1.0
 21
-0.26794919
 31
0.0
  0
LINE
  5
E91
  8
0
  6
BYBLOCK
 62
     0
 10
0.0
 20
0.0
 30
0.0
 11
-1.0
 21
0.0
 31
0.0
  0
ENDBLK
  5
E93
  8
0
  0
BLOCK
  8
0
  2
_ACMOPEN15
 70
     0
 10
0.0
 20
0.0
 30
0.0
  3
_ACMOPEN15
  1

  0
LINE
  5
1359
  8
245
 62
     0
 10
-1.0
 20
0.0
 30
0.0
 11
0.0
 21
0.0
 31
0.0
  0
LINE
  5
135A
  8
245
 62
     0
 10
-1.0
 20
-0.131652497
 30
0.0
 11
0.0
 21
0.0
 31
0.0
  0
LINE
  5
135B
  8
245
 62
     0
 10
0.0
 20
0.0
 30
0.0
 11
-1.0
 21
0.131652497
 31
0.0
  0
ENDBLK
  5
1358
  8
0
  0
ENDSEC
  0
SECTION
  2
ENTITIES
  0
LINE
  5
1452
  8
240
  6
CONTINUOUS
 10
26.9999999999998899
 20
-31.5000000000004299
 30
0.0
 11
26.9999999999998792
 21
-26.5445817036664096
 31
0.0
  0
LINE
  5
1453
  8
240
  6
CONTINUOUS
 10
-65.4000000000001194
 20
-12.6875000000000302
 30
0.0
 11
-65.4000000000000909
 21
12.6875000000002007
 31
0.0
  0
LINE
  5
1454
  8
240
  6
CONTINUOUS
 10
0.9999999999997442
 20
-31.4999999999996305
 30
0.0
 11
0.9999999999998574
 21
-22.2250000000000512
 31
0.0
  0
LINE
  5
1455
  8
241
  6
CONTINUOUS
 10
-0.0000000000000853
 20
-22.2250000000000014
 30
0.0
 11
0.0000000000000853
 21
22.2250000000001187
 31
0.0
  0
LINE
  5
1456
  8
240
  6
CONTINUOUS
 10
-0.0000000000001137
 20
-22.2250000000000014
 30
0.0
 11
-65.4000000000001194
 21
-12.6875000000000302
 31
0.0
  0
LINE
  5
1457
  8
240
  6
CONTINUOUS
 10
26.9999999999998899
 20
-31.5000000000004299
 30
0.0
 11
21.6344943473333089
 21
-31.5000000000007105
 31
0.0
  0
LINE
  5
1458
  8
243
  6
HIDDEN2
 10
22.9999999999998899
 20
-22.4999999999999716
 30
0.0
 11
22.9999999999998899
 21
-31.4999999999999716
 31
0.0
  0
LINE
  5
1459
  8
240
  6
CONTINUOUS
 10
0.9999999999997442
 20
-31.4999999999996305
 30
0.0
 11
11.5655056526661006
 21
-31.5000000000002984
 31
0.0
  0
LINE
  5
145A
  8
243
  6
HIDDEN2
 10
22.9999999999998899
 20
-22.4999999999999716
 30
0.0
 11
0.9999999999998864
 21
-22.4999999999999716
 31
0.0
  0
LINE
  5
145B
  8
245
  6
CENTER2
 10
-66.4000000000001762
 20
0.0000000000000853
 30
0.0
 11
90.7979731882276155
 21
0.0000000000000415
 31
0.0
  0
LINE
  5
145C
  8
240
  6
CONTINUOUS
 10
14.4522569986148604
 20
-26.499999999999801
 30
0.0
 11
11.5655056526662392
 21
-31.5000000000004299
 31
0.0
  0
LINE
  5
145D
  8
240
  6
CONTINUOUS
 10
18.7477430013853983
 20
-26.5000000000000284
 30
0.0
 11
21.6344943473343392
 21
-31.5000000000004299
 31
0.0
  0
LINE
  5
145E
  8
240
  6
CONTINUOUS
 10
14.4522569986145299
 20
-26.4999999999995204
 30
0.0
 11
18.7477430013853983
 21
-26.5000000000000284
 31
0.0
  0
LINE
  5
145F
  8
241
  6
CONTINUOUS
 10
11.5655056526661006
 20
31.5000000000004299
 30
0.0
 11
11.5655056526662392
 21
-31.5000000000004299
 31
0.0
  0
LINE
  5
1460
  8
241
  6
CONTINUOUS
 10
14.4522569986145299
 20
-26.4999999999995204
 30
0.0
 11
14.4522569986144003
 21
26.4999999999993996
 31
0.0
  0
LINE
  5
1461
  8
241
  6
CONTINUOUS
 10
18.7477430013852917
 20
-26.4999999999998614
 30
0.0
 11
18.7477430013853983
 21
26.4999999999999716
 31
0.0
  0
LINE
  5
1462
  8
241
  6
CONTINUOUS
 10
21.6344943473333089
 20
-31.5000000000007105
 30
0.0
 11
21.6344943473333693
 21
31.5000000000006608
 31
0.0
  0
LINE
  5
1463
  8
240
  6
CONTINUOUS
 10
-0.0000000000000853
 20
-22.2250000000000014
 30
0.0
 11
0.9999999999998574
 21
-22.2250000000000512
 31
0.0
  0
LINE
  5
1464
  8
241
  6
CONTINUOUS
 10
0.9999999999998574
 20
-22.2249999999998202
 30
0.0
 11
0.9999999999998574
 21
22.2249999999998202
 31
0.0
  0
LINE
  5
1465
  8
240
  6
CONTINUOUS
 10
0.9999999999998292
 20
31.4999999999996909
 30
0.0
 11
0.9999999999999148
 21
22.2250000000000512
 31
0.0
  0
LINE
  5
1466
  8
240
  6
CONTINUOUS
 10
-0.0000000000000568
 20
22.2250000000000014
 30
0.0
 11
-65.4000000000000909
 21
12.6875000000002007
 31
0.0
  0
LINE
  5
1467
  8
240
  6
CONTINUOUS
 10
26.9999999999999396
 20
31.5000000000003801
 30
0.0
 11
21.6344943473333693
 21
31.5000000000007105
 31
0.0
  0
LINE
  5
1468
  8
243
  6
HIDDEN2
 10
22.9999999999999396
 20
22.4999999999999183
 30
0.0
 11
23.0
 21
31.4999999999999112
 31
0.0
  0
LINE
  5
1469
  8
240
  6
CONTINUOUS
 10
0.9999999999998292
 20
31.4999999999996909
 30
0.0
 11
11.5655056526661895
 21
31.5000000000003801
 31
0.0
  0
LINE
  5
146A
  8
243
  6
HIDDEN2
 10
22.9999999999999396
 20
22.4999999999999183
 30
0.0
 11
0.9999999999999429
 21
22.5000000000000284
 31
0.0
  0
LINE
  5
146B
  8
240
  6
CONTINUOUS
 10
14.4522569986149794
 20
26.499999999999801
 30
0.0
 11
11.5655056526663298
 21
31.5000000000004299
 31
0.0
  0
LINE
  5
146C
  8
240
  6
CONTINUOUS
 10
18.7477430013855084
 20
26.5000000000000284
 30
0.0
 11
21.6344943473344493
 21
31.5000000000003801
 31
0.0
  0
LINE
  5
146D
  8
240
  6
CONTINUOUS
 10
14.4522569986145903
 20
26.49999999999946
 30
0.0
 11
18.7477430013855084
 21
26.5000000000000284
 31
0.0
  0
LINE
  5
146E
  8
240
  6
CONTINUOUS
 10
-0.0000000000000284
 20
22.2250000000000512
 30
0.0
 11
0.9999999999999148
 21
22.2250000000000512
 31
0.0
  0
LINE
  5
146F
  8
247
  6
CONTINUOUS
 10
7.999999999999857
 20
-18.2500000000699991
 30
0.0
 11
7.999999999999857
 21
-11.5576923080299991
 31
0.0
  0
ARC
  5
1470
  8
247
  6
CONTINUOUS
 10
6.2500000000698321
 20
-18.2500000000699991
 30
0.0
 40
1.7499999999299991
 50
180.0
 51
0.0
  0
ARC
  5
1471
  8
247
  6
CONTINUOUS
 10
6.2500000000698321
 20
-11.5576923080299991
 30
0.0
 40
1.7499999999299991
 50
0.0
 51
180.0
  0
LINE
  5
1472
  8
247
  6
CONTINUOUS
 10
4.5000000001398632
 20
-17.3846153847199787
 30
0.0
 11
7.5000000000198659
 21
-18.2448515419619888
 31
0.0
  0
LINE
  5
1473
  8
247
  6
CONTINUOUS
 10
5.923076923159865
 20
-16.4849838183357917
 30
0.0
 11
5.923076923159865
 21
-17.7926761259758095
 31
0.0
  0
ARC
  5
1474
  8
247
  6
CONTINUOUS
 10
5.0495986677028384
 20
-16.1451438160897602
 30
0.0
 40
0.5538165441895349
 50
72.9978896752917734
 51
172.9241662185135908
  0
ARC
  5
1475
  8
247
  6
CONTINUOUS
 10
4.9360330444656313
 20
-16.5668783230287602
 30
0.0
 40
0.9904354236226808
 50
4.7429368522022122
 51
73.8492262732662965
1001
GENIUS_GENOBJ-N-FIL_13
1002
{
1000
OWNER
1000
GEN
1002
}
1001
GENIUS_GENODEF_13
1002
{
1000
HIER
1070
     0
1002
}
1002
{
1000
MANEDIT
1070
     0
1002
}
1002
{
1000
NOSEL
1070
     0
1002
}
1002
{
1000
BEHIND
1070
     0
1002
}
1002
{
1000
OTHER
1070
     0
1002
}
1002
{
1000
REACTOR
1002
}
  0
LINE
  5
1476
  8
247
  6
CONTINUOUS
 10
7.5000000000198659
 20
-16.9371592343220208
 30
0.0
 11
7.5000000000198659
 21
-18.2448515419619888
 31
0.0
  0
LINE
  5
1477
  8
247
  6
CONTINUOUS
 10
4.5000000001398632
 20
-17.3846153847199787
 30
0.0
 11
4.5000000001398632
 21
-16.0769230770799503
 31
0.0
  0
ARC
  5
1478
  8
247
  6
CONTINUOUS
 10
6.4820242326653954
 20
-16.56091963654697
 30
0.0
 40
0.5640818586791229
 50
65.990941652528889
 51
172.2634434590690944
  0
ARC
  5
1479
  8
247
  6
CONTINUOUS
 10
6.4874290391864227
 20
-17.0382626853470605
 30
0.0
 40
1.0176059446230981
 50
5.701985164259785
 51
77.2773384368223759
1001
GENIUS_GENOBJ-N-FIL_13
1002
{
1000
OWNER
1000
GEN
1002
}
1001
GENIUS_GENODEF_13
1002
{
1000
HIER
1070
     0
1002
}
1002
{
1000
MANEDIT
1070
     0
1002
}
1002
{
1000
NOSEL
1070
     0
1002
}
1002
{
1000
BEHIND
1070
     0
1002
}
1002
{
1000
OTHER
1070
     0
1002
}
1002
{
1000
REACTOR
1002
}
  0
LINE
  5
147A
  8
247
  6
CONTINUOUS
 10
7.5000000000198659
 20
-15.2833130805419994
 30
0.0
 11
4.5000000001398632
 21
-14.4230769232999894
 31
0.0
  0
LINE
  5
147B
  8
247
  6
CONTINUOUS
 10
4.5000000001398632
 20
-12.00000000032
 30
0.0
 11
4.5000000001398632
 21
-12.5657366194565991
 31
0.0
  0
LINE
  5
147C
  8
247
  6
CONTINUOUS
 10
7.5000000000198659
 20
-13.4615384617999592
 30
0.0
 11
7.5000000000198659
 21
-12.8461538464399894
 31
0.0
  0
ARC
  5
147D
  8
247
  6
CONTINUOUS
 10
6.5832851359732274
 20
-11.7087912091228308
 30
0.0
 40
2.2526500823422122
 50
202.3594881415291127
 51
254.9932485428460893
  0
ARC
  5
147E
  8
247
  6
CONTINUOUS
 10
5.3083126551943831
 20
-12.3740694792131993
 30
0.0
 40
0.8906723995727782
 50
94.9945893190753168
 51
155.1663289573039037
1001
GENIUS_GENOBJ-N-FIL_13
1002
{
1000
OWNER
1000
GEN
1002
}
1001
GENIUS_GENODEF_13
1002
{
1000
HIER
1070
     0
1002
}
1002
{
1000
MANEDIT
1070
     0
1002
}
1002
{
1000
NOSEL
1070
     0
1002
}
1002
{
1000
BEHIND
1070
     0
1002
}
1002
{
1000
OTHER
1070
     0
1002
}
1002
{
1000
REACTOR
1002
}
  0
ARC
  5
147F
  8
247
  6
CONTINUOUS
 10
6.1601458886676381
 20
-13.2264588862125496
 30
0.0
 40
1.392781735586712
 50
15.8460965557808002
 51
82.3251370041690649
  0
ARC
  5
1480
  8
247
  6
CONTINUOUS
 10
6.4592434315271401
 20
-12.6422127258403805
 30
0.0
 40
1.324563662670287
 50
249.7136016704968995
 51
321.7887456564092759
1001
GENIUS_GENOBJ-N-FIL_13
1002
{
1000
OWNER
1000
GEN
1002
}
1001
GENIUS_GENODEF_13
1002
{
1000
HIER
1070
     0
1002
}
1002
{
1000
MANEDIT
1070
     0
1002
}
1002
{
1000
NOSEL
1070
     0
1002
}
1002
{
1000
BEHIND
1070
     0
1002
}
1002
{
1000
OTHER
1070
     0
1002
}
1002
{
1000
REACTOR
1002
}
  0
LINE
  5
1481
  8
247
  6
CONTINUOUS
 10
6.3461538462198321
 20
-12.53846153876
 30
0.0
 11
6.3461538462198321
 21
-11.84615384648
 31
0.0
  0
LINE
  5
1482
  8
250
  6
CONTINUOUS
 10
-34.1368727750733001
 20
-19.2016533171059507
 30
0.0
 11
-32.7000000000001023
 21
-17.4562499999999794
 31
0.0
  0
LINE
  5
1483
  8
250
  6
CONTINUOUS
 10
-33.4931272249268801
 20
-19.5733199837726204
 30
0.0
 11
-32.7000000000001023
 21
-17.4562499999999794
 31
0.0
  0
LINE
  5
1484
  8
250
  6
CONTINUOUS
 10
-32.7000000000001023
 20
-17.4562499999999794
 30
0.0
 11
-33.8150000000001185
 21
-19.3874866504392784
 31
0.0
  0
LINE
  5
1485
  8
250
  6
CONTINUOUS
 10
-33.8150000000001185
 20
-19.3874866504392784
 30
0.0
 11
-38.3631300681913103
 21
-27.2650790079781906
 31
0.0
1001
ACAD
1000
DSTYLE
1002
{
1070
   140
1040
4.0
1070
   178
1070
   256
1002
}
  0
TEXT
  5
1486
  8
250
  6
CONTINUOUS
 10
-53.8297967348579505
 20
-26.2650790079781906
 30
0.0
 40
2.799999999999998
  1
BBT40
  7
YOKO
1001
ITEMNAME
1000
LNSP3
  0
LINE
  5
1487
  8
250
  6
CONTINUOUS
 10
-38.3631300681913103
 20
-27.2650790079781906
 30
0.0
 11
-56.0964634015246375
 21
-27.2650790079781906
 31
0.0
1001
ITEMNAME
1000
LNSP2
  0
LINE
  5
1488
  8
247
  6
CONTINUOUS
 10
4.500000000139833
 20
-18.2500000000699991
 30
0.0
 11
4.500000000139833
 21
-17.5769230770200409
 31
0.0
  0
LINE
  5
148D
  8
240
  6
CONTINUOUS
 10
26.9999999999997797
 20
26.5445817036665517
 30
0.0
 11
26.9999999999997691
 21
31.5000000000003801
 31
0.0
  0
LINE
  5
148E
  8
241
  6
CONTINUOUS
 10
26.9999999999999609
 20
-26.5445817036664202
 30
0.0
 11
26.9999999999997691
 21
26.5445817036665517
 31
0.0
  0
LINE
  5
148F
  8
240
  6
CONTINUOUS
 10
80.2000000000001307
 20
11.3999999999977994
 30
0.0
 11
80.199999999999946
 21
-11.3999999999979007
 31
0.0
  0
LINE
  5
1490
  8
240
  6
CONTINUOUS
 10
78.2947441116745608
 20
-12.4999999999997993
 30
0.0
 11
67.1306152422728815
 21
-12.4999999999999094
 31
0.0
  0
LINE
  5
1491
  8
240
  6
CONTINUOUS
 10
60.4999999999997513
 20
-17.49999999999973
 30
0.0
 11
60.4999999999995808
 21
-13.4999999999908304
 31
0.0
  0
LINE
  5
1492
  8
241
  6
CONTINUOUS
 10
64.6000000000007049
 20
-13.4999999999979803
 30
0.0
 11
64.6000000000000654
 21
13.4999999999976001
 31
0.0
1001
GRPNAME
1000
PASTMD0T
  0
LINE
  5
1493
  8
241
  6
CONTINUOUS
 10
65.7000000000003865
 20
-13.4999999999998295
 30
0.0
 11
65.6999999999952706
 21
13.4999999999994404
 31
0.0
1001
GRPNAME
1000
PASTMD0T
  0
LINE
  5
1494
  8
242
  6
CONTINUOUS
 10
68.7000000000001734
 20
-12.4999999999998597
 30
0.0
 11
68.7000000000176954
 21
12.4999999999998899
 31
0.0
  0
ARC
  5
1495
  8
240
  6
CONTINUOUS
 10
67.1306152422728815
 20
-12.89999999999986
 30
0.0
 40
0.4
 50
90.0
 51
149.9999999999994031
  0
LINE
  5
1496
  8
240
  6
CONTINUOUS
 10
60.4999999999995808
 20
-13.4999999999908304
 30
0.0
 11
66.3223248654051645
 21
-13.5000000000004796
 31
0.0
  0
LINE
  5
1497
  8
240
  6
CONTINUOUS
 10
66.7842050807591079
 20
-12.6999999999998394
 30
0.0
 11
66.3223248654051645
 21
-13.5000000000004796
 31
0.0
  0
LINE
  5
1498
  8
241
  6
CONTINUOUS
 10
66.8996751345974445
 20
-12.4999999999999201
 30
0.0
 11
66.8996751345974445
 21
12.5734013676288807
 31
0.0
  0
LINE
  5
1499
  8
241
  6
CONTINUOUS
 10
66.3223248654071824
 20
-13.4999999999983498
 30
0.0
 11
66.3223248654161637
 21
13.5000000000004707
 31
0.0
  0
LINE
  5
149A
  8
242
  6
CONTINUOUS
 10
68.7000000000007134
 20
-11.7499999999998792
 30
0.0
 11
79.5937822173522846
 21
-11.7499999999998597
 31
0.0
  0
LINE
  5
149B
  8
241
  6
CONTINUOUS
 10
78.2947441116740634
 20
-12.4999999999988791
 30
0.0
 11
78.2947441116743903
 21
12.4999999999997904
 31
0.0
  0
LINE
  5
149C
  8
240
  6
CONTINUOUS
 10
80.199999999999946
 20
-11.3999999999979007
 30
0.0
 11
78.2947441116740634
 21
-12.4999999999988791
 31
0.0
  0
LINE
  5
149D
  8
241
  6
CONTINUOUS
 10
60.4999999999995808
 20
13.4999999999908002
 30
0.0
 11
60.4999999999995808
 21
-13.4999999999908304
 31
0.0
  0
LINE
  5
149E
  8
240
  6
CONTINUOUS
 10
78.2947441116745608
 20
12.4999999999997904
 30
0.0
 11
67.1306152422728815
 21
12.4999999999999005
 31
0.0
  0
LINE
  5
149F
  8
240
  6
CONTINUOUS
 10
60.4999999999997584
 20
17.4999999999998188
 30
0.0
 11
60.4999999999995808
 21
13.4999999999908002
 31
0.0
  0
ARC
  5
14A0
  8
240
  6
CONTINUOUS
 10
67.1306152422728815
 20
12.8999999999998494
 30
0.0
 40
0.4
 50
210.0000000000003979
 51
270.0
  0
LINE
  5
14A1
  8
240
  6
CONTINUOUS
 10
60.4999999999995808
 20
13.4999999999908002
 30
0.0
 11
66.3223248654051645
 21
13.5000000000004707
 31
0.0
  0
LINE
  5
14A2
  8
240
  6
CONTINUOUS
 10
66.7842050807591079
 20
12.6999999999998199
 30
0.0
 11
66.3223248654051645
 21
13.5000000000004707
 31
0.0
  0
LINE
  5
14A3
  8
242
  6
CONTINUOUS
 10
68.7000000000007134
 20
11.7499999999998703
 30
0.0
 11
79.5937822173522846
 21
11.7499999999998401
 31
0.0
  0
LINE
  5
14A4
  8
240
  6
CONTINUOUS
 10
80.2000000000001307
 20
11.3999999999977994
 30
0.0
 11
78.2947441116740634
 21
12.4999999999988791
 31
0.0
  0
LINE
  5
14A5
  8
246
  6
PHANTOM2
 10
90.0000000000000853
 20
-17.4999999999999289
 30
0.0
 11
89.9999999999999147
 21
17.5
 31
0.0
1001
GRPNAME
1000
PASTMD01
  0
LINE
  5
14A6
  8
246
  6
PHANTOM2
 10
89.9999999999999147
 20
17.5
 30
0.0
 11
63.5000152587890483
 21
17.5
 31
0.0
  0
LINE
  5
14A7
  8
250
  6
CONTINUOUS
 10
90.5000000000000568
 20
-17.4999999999999289
 30
0.0
 11
105.0
 21
-17.4999999999999289
 31
0.0
  0
LINE
  5
14A8
  8
250
  6
CONTINUOUS
 10
90.4999999999999147
 20
17.5
 30
0.0
 11
105.0
 21
17.5
 31
0.0
  0
LINE
  5
14A9
  8
250
  6
CONTINUOUS
 10
104.0
 20
-15.4999999999999307
 30
0.0
 11
104.0
 21
15.5
 31
0.0
  0
INSERT
  5
14AA
  8
250
  6
CONTINUOUS
  2
_OPEN
 10
104.0
 20
-17.4999999999999289
 30
0.0
 41
2.0
 42
2.0
 43
2.0
 50
270.0
  0
INSERT
  5
14AB
  8
250
  6
CONTINUOUS
  2
_OPEN
 10
104.0
 20
17.5
 30
0.0
 41
2.0
 42
2.0
 43
2.0
 50
90.0
  0
LINE
  5
14AC
  8
243
  6
HIDDEN2
 10
58.2000000000014523
 20
7.158123781483078
 30
0.0
 11
80.2000000000000171
 21
10.2500221449357003
 31
0.0
  0
LINE
  5
14AD
  8
246
  6
PHANTOM2
 10
89.9999999999999147
 20
-17.5000000000000107
 30
0.0
 11
63.5000152587890483
 21
-17.5000000000000107
 31
0.0
  0
LINE
  5
14AE
  8
243
  6
HIDDEN2
 10
58.2000000000014523
 20
-7.1581237814830851
 30
0.0
 11
80.2000000000000171
 21
-10.2500221449357092
 31
0.0
  0
TEXT
  5
14AF
  8
250
  6
CONTINUOUS
 10
102.9999999999999005
 20
-7.5360717098401819
 30
0.0
 40
2.799999999999998
  1
\U+2205
 50
90.0
  0
TEXT
  5
14B0
  8
250
  6
CONTINUOUS
 10
102.9999999999999005
 20
-5.0027383765068469
 30
0.0
 40
2.799999999999998
  1
1.378
 50
90.0
  0
TEXT
  5
14B1
  8
241
  6
CONTINUOUS
 10
-70.0
 20
63.0000000000000426
 30
0.0
 40
5.0
  1
BBT40-MEGAER20-90NL
  7
YOKO
 11
-70.0
 21
63.0000000000000426
 31
0.0
 73
     1
  0
LINE
  5
1502
  8
240
  6
CONTINUOUS
 10
60.4999999999997584
 20
17.4999999999998188
 30
0.0
 11
33.6646406676192811
 21
17.5000000000009699
 31
0.0
  0
LINE
  5
1503
  8
240
  6
CONTINUOUS
 10
60.4999999999997513
 20
-17.49999999999973
 30
0.0
 11
33.6646406676202616
 21
-17.4999999999991083
 31
0.0
  0
LINE
  5
1505
  8
241
  6
CONTINUOUS
 10
30.1999999999999886
 20
18.894966706912399
 30
0.0
 11
30.2000000000002693
 21
-18.8949667069108891
 31
0.0
  0
LINE
  5
1507
  8
240
  6
CONTINUOUS
 10
28.9661775636905894
 20
-20.7898992833708007
 30
0.0
 11
27.1206147584280508
 21
-25.8605414170150709
 31
0.0
  0
ARC
  5
1508
  8
240
  6
CONTINUOUS
 10
28.9999999999998614
 20
-26.5445817036664096
 30
0.0
 40
2.0
 50
159.9999999999998863
 51
180.0
  0
LINE
  5
150B
  8
240
  6
CONTINUOUS
 10
28.9661775636899499
 20
20.7898992833726517
 30
0.0
 11
27.1206147584280188
 21
25.8605414170152201
 31
0.0
  0
ARC
  5
150C
  8
240
  6
CONTINUOUS
 10
28.9999999999998295
 20
26.5445817036665588
 30
0.0
 40
2.0
 50
180.0
 51
200.0
  0
ARC
  5
1529
  8
240
  6
CONTINUOUS
 10
33.6646406676195014
 20
22.5000000000009699
 30
0.0
 40
5.0
 50
199.9999999999996874
 51
269.9999999999976126
  0
ARC
  5
152A
  8
240
  6
CONTINUOUS
 10
33.664640667620148
 20
-22.4999999999991083
 30
0.0
 40
5.0
 50
89.9999999999986784
 51
160.0000000000003126
  0
LINE
  5
182E
  8
250
  6
CONTINUOUS
 10
89.9999999999999147
 20
18.0
 30
0.0
 11
89.9999999999999147
 21
50.0
 31
0.0
  0
LINE
  5
182F
  8
250
  6
CONTINUOUS
 10
-35.4000000000000909
 20
8.5000000000000604
 30
0.0
 11
-35.4000000000000909
 21
50.0
 31
0.0
  0
LINE
  5
1830
  8
250
  6
CONTINUOUS
 10
87.769999999999925
 20
49.0
 30
0.0
 11
-33.170000000000087
 21
49.0
 31
0.0
  0
LINE
  5
1834
  8
250
  6
CONTINUOUS
 10
89.9999999999999147
 20
18.0
 30
0.0
 11
89.9999999999999147
 21
43.0000000000000284
 31
0.0
  0
LINE
  5
1835
  8
250
  6
CONTINUOUS
 10
-0.0000000000000568
 20
22.7250000000000014
 30
0.0
 11
-0.0000000000000555
 21
43.0000000000000284
 31
0.0
  0
LINE
  5
1836
  8
250
  6
CONTINUOUS
 10
87.769999999999925
 20
42.0000000000000213
 30
0.0
 11
2.229999999999944
 21
42.0000000000000213
 31
0.0
  0
TEXT
  5
183A
  8
250
  6
CONTINUOUS
 10
38.9999999999999289
 20
43.0000000000000284
 30
0.0
 40
2.7999999999999989
  1
3.543
  0
LINE
  5
183B
  8
250
  6
CONTINUOUS
 10
87.769999999999925
 20
42.371666666666691
 30
0.0
 11
89.9999999999999147
 21
42.0000000000000213
 31
0.0
  0
LINE
  5
183C
  8
250
  6
CONTINUOUS
 10
87.769999999999925
 20
41.6283333333333587
 30
0.0
 11
89.9999999999999147
 21
42.0000000000000213
 31
0.0
  0
LINE
  5
183D
  8
250
  6
CONTINUOUS
 10
89.9999999999999147
 20
42.0000000000000213
 30
0.0
 11
87.769999999999925
 21
42.0000000000000213
 31
0.0
  0
LINE
  5
183E
  8
250
  6
CONTINUOUS
 10
2.229999999999944
 20
41.6283333333333587
 30
0.0
 11
-0.0000000000000556
 21
42.0000000000000213
 31
0.0
  0
LINE
  5
183F
  8
250
  6
CONTINUOUS
 10
2.229999999999944
 20
42.371666666666691
 30
0.0
 11
-0.0000000000000556
 21
42.0000000000000213
 31
0.0
  0
LINE
  5
1840
  8
250
  6
CONTINUOUS
 10
-0.0000000000000556
 20
42.0000000000000213
 30
0.0
 11
2.229999999999944
 21
42.0000000000000213
 31
0.0
  0
LINE
  5
1841
  8
250
  6
CONTINUOUS
 10
-33.170000000000087
 20
48.6283333333333303
 30
0.0
 11
-35.4000000000000909
 21
49.0
 31
0.0
  0
LINE
  5
1842
  8
250
  6
CONTINUOUS
 10
-33.170000000000087
 20
49.3716666666666697
 30
0.0
 11
-35.4000000000000909
 21
49.0
 31
0.0
  0
LINE
  5
1843
  8
250
  6
CONTINUOUS
 10
-35.4000000000000909
 20
49.0
 30
0.0
 11
-33.170000000000087
 21
49.0
 31
0.0
  0
LINE
  5
1844
  8
250
  6
CONTINUOUS
 10
87.769999999999925
 20
49.3716666666666697
 30
0.0
 11
89.9999999999999147
 21
49.0
 31
0.0
  0
LINE
  5
1845
  8
250
  6
CONTINUOUS
 10
87.769999999999925
 20
48.6283333333333303
 30
0.0
 11
89.9999999999999147
 21
49.0
 31
0.0
  0
LINE
  5
1846
  8
250
  6
CONTINUOUS
 10
89.9999999999999147
 20
49.0
 30
0.0
 11
87.769999999999925
 21
49.0
 31
0.0
  0
TEXT
  5
1847
  8
250
  6
CONTINUOUS
 10
15.6999999999999105
 20
51.2000000000000028
 30
0.0
 40
2.7999999999999989
  1
(max.4.93)
  0
VIEWPORT
  5
22
 67
     1
  8
0
 10
261.517699115044195
 20
148.5
 30
0.0
 40
523.0353982300885036
 41
297.0
 68
     1
 69
     1
1001
ACAD
1000
MVIEW
1002
{
1070
    16
1010
0.0
1020
0.0
1030
0.0
1010
0.0
1020
0.0
1030
1.0
1040
0.0
1040
297.0
1040
261.517699115044195
1040
148.5
1040
50.0
1040
0.0
1040
0.0
1070
     0
1070
   100
1070
     1
1070
     1
1070
     0
1070
     0
1070
     0
1070
     0
1040
0.0
1040
0.0
1040
0.0
1040
1.0
1040
1.0
1040
10.0
1040
10.0
1070
     0
1002
{
1002
}
1002
}
1001
GENIUS_GENODEF_13
1002
{
1000
HIER
1070
     0
1002
}
1002
{
1000
MANEDIT
1070
     0
1002
}
1002
{
1000
NOSEL
1070
     0
1002
}
1002
{
1000
BEHIND
1070
     0
1002
}
1002
{
1000
OTHER
1070
     0
1002
}
1002
{
1000
REACTOR
1002
}
1001
GENIUS_GENOBJ-N-SDF_13
1002
{
1000
OWNER
1000
GEN
1002
}
1001
GENIUS_GENSCREG_15
1000
PF
1040
1.0
1000
DF
1040
1.0
1000
MIN
1011
0.0
1021
0.0
1031
0.0
1021
0.0
1031
0.0
1000
MAX
1011
523.0353982300885036
1021
0.0
1031
0.0
1021
297.0
1031
0.0
1000
FLAGS
1070
     4
  0
ENDSEC
  0
EOF
