  0
SECTION
  2
HEADER
  9
$ACADVER
  1
AC1009
  9
$INSBASE
 10
0.0
 20
0.0
 30
0.0
  9
$EXTMIN
 10
-66.400000000000176
 20
-31.500000000000711
 30
0.0
  9
$EXTMAX
 10
103.1999999999999
 20
68.000000000000057
 30
0.0
  9
$LIMMIN
 10
0.0
 20
0.0
  9
$LIMMAX
 10
297.0
 20
210.0
  9
$ORTHOMODE
 70
     0
  9
$REGENMODE
 70
     1
  9
$FILLMODE
 70
     1
  9
$QTEXTMODE
 70
     0
  9
$MIRRTEXT
 70
     1
  9
$DRAGMODE
 70
     2
  9
$LTSCALE
 40
10.0
  9
$OSMODE
 70
    37
  9
$ATTMODE
 70
     1
  9
$TEXTSIZE
 40
3.0
  9
$TRACEWID
 40
1.0
  9
$TEXTSTYLE
  7
YOKO
  9
$CLAYER
  8
240
  9
$CELTYPE
  6
BYLAYER
  9
$CECOLOR
 62
   256
  9
$DIMSCALE
 40
1.0
  9
$DIMASZ
 40
2.2299999999999991
  9
$DIMEXO
 40
0.5
  9
$DIMDLI
 40
7.0
  9
$DIMRND
 40
0.0
  9
$DIMDLE
 40
0.0
  9
$DIMEXE
 40
1.0
  9
$DIMTP
 40
0.0
  9
$DIMTM
 40
0.01
  9
$DIMTXT
 40
2.7999999999999989
  9
$DIMCEN
 40
0.0
  9
$DIMTSZ
 40
0.0
  9
$DIMTOL
 70
     0
  9
$DIMLIM
 70
     0
  9
$DIMTIH
 70
     0
  9
$DIMTOH
 70
     0
  9
$DIMSE1
 70
     0
  9
$DIMSE2
 70
     0
  9
$DIMTAD
 70
     3
  9
$DIMZIN
 70
     9
  9
$DIMBLK
  1
OPEN
  9
$DIMASO
 70
     1
  9
$DIMSHO
 70
     1
  9
$DIMPOST
  1

  9
$DIMAPOST
  1

  9
$DIMALT
 70
     0
  9
$DIMALTD
 70
     2
  9
$DIMALTF
 40
25.399999999999999
  9
$DIMLFAC
 40
1.0
  9
$DIMTOFL
 70
     1
  9
$DIMTVP
 40
0.0
  9
$DIMTIX
 70
     1
  9
$DIMSOXD
 70
     0
  9
$DIMSAH
 70
     0
  9
$DIMBLK1
  1

  9
$DIMBLK2
  1

  9
$DIMSTYLE
  2
BIGT
  9
$DIMCLRD
 70
   256
  9
$DIMCLRE
 70
   256
  9
$DIMCLRT
 70
    40
  9
$DIMTFAC
 40
1.0
  9
$DIMGAP
 40
1.0
  9
$LUNITS
 70
     2
  9
$LUPREC
 70
     6
  9
$SKETCHINC
 40
1.0
  9
$FILLETRAD
 40
0.0
  9
$AUNITS
 70
     0
  9
$AUPREC
 70
     6
  9
$MENU
  1
.
  9
$ELEVATION
 40
0.0
  9
$PELEVATION
 40
0.0
  9
$THICKNESS
 40
0.0
  9
$LIMCHECK
 70
     0
  9
$BLIPMODE
 70
     0
  9
$CHAMFERA
 40
0.2
  9
$CHAMFERB
 40
0.2
  9
$SKPOLY
 70
     0
  9
$TDCREATE
 40
2458136.6482329168
  9
$TDUPDATE
 40
2458138.6064007059
  9
$TDINDWG
 40
0.0059356713
  9
$TDUSRTIMER
 40
0.0059356481
  9
$USRTIMER
 70
     1
  9
$ANGBASE
 50
0.0
  9
$ANGDIR
 70
     0
  9
$PDMODE
 70
     1
  9
$PDSIZE
 40
0.0
  9
$PLINEWID
 40
0.0
  9
$COORDS
 70
     1
  9
$SPLFRAME
 70
     0
  9
$SPLINETYPE
 70
     6
  9
$SPLINESEGS
 70
     4
  9
$ATTDIA
 70
     1
  9
$ATTREQ
 70
     1
  9
$HANDLING
 70
     1
  9
$HANDSEED
  5
4556
  9
$SURFTAB1
 70
     6
  9
$SURFTAB2
 70
     6
  9
$SURFTYPE
 70
     6
  9
$SURFU
 70
     6
  9
$SURFV
 70
     6
  9
$UCSNAME
  2

  9
$UCSORG
 10
0.0
 20
0.0
 30
0.0
  9
$UCSXDIR
 10
1.0
 20
0.0
 30
0.0
  9
$UCSYDIR
 10
0.0
 20
1.0
 30
0.0
  9
$PUCSNAME
  2

  9
$PUCSORG
 10
0.0
 20
0.0
 30
0.0
  9
$PUCSXDIR
 10
1.0
 20
0.0
 30
0.0
  9
$PUCSYDIR
 10
0.0
 20
1.0
 30
0.0
  9
$USERI1
 70
     1
  9
$USERI2
 70
     0
  9
$USERI3
 70
     0
  9
$USERI4
 70
     0
  9
$USERI5
 70
     0
  9
$USERR1
 40
0.0
  9
$USERR2
 40
0.0
  9
$USERR3
 40
0.0
  9
$USERR4
 40
0.0
  9
$USERR5
 40
0.0
  9
$WORLDVIEW
 70
     1
  9
$SHADEDGE
 70
     3
  9
$SHADEDIF
 70
    70
  9
$TILEMODE
 70
     1
  9
$MAXACTVP
 70
    16
  9
$PLIMCHECK
 70
     0
  9
$PEXTMIN
 10
1.0000000000000000E+020
 20
1.0000000000000000E+020
 30
1.0000000000000000E+020
  9
$PEXTMAX
 10
-1.0000000000000000E+020
 20
-1.0000000000000000E+020
 30
-1.0000000000000000E+020
  9
$PLIMMIN
 10
0.0
 20
0.0
  9
$PLIMMAX
 10
420.0
 20
297.0
  9
$UNITMODE
 70
     0
  9
$VISRETAIN
 70
     1
  9
$PLINEGEN
 70
     0
  9
$PSLTSCALE
 70
     1
  0
ENDSEC
  0
SECTION
  2
TABLES
  0
TABLE
  2
VPORT
 70
     1
  0
VPORT
  2
*ACTIVE
 70
     0
 10
0.0
 20
0.0
 11
1.0
 21
1.0
 12
28.915867657552781
 22
46.665999910597058
 13
0.0
 23
0.0
 14
7.0
 24
7.0
 15
7.0
 25
7.0
 16
0.0
 26
0.0
 36
1.0
 17
0.0
 27
0.0
 37
0.0
 40
238.59514641731991
 41
1.4533622559652919
 42
50.0
 43
0.0
 44
0.0
 50
0.0
 51
0.0
 71
     0
 72
  2000
 73
     1
 74
     0
 75
     0
 76
     1
 77
     0
 78
     0
  0
ENDTAB
  0
TABLE
  2
LTYPE
 70
    21
  0
LTYPE
  2
CONTINUOUS
 70
     0
  3
Solid line
 72
    65
 73
     0
 40
0.0
  0
LTYPE
  2
CENTER2
 70
     0
  3
___ _ ___ _ ___ _ ___ _ ___ _ ___ _ ___ _ ___ _
 72
    65
 73
     4
 40
1.125
 49
0.75
 49
-0.125
 49
0.125
 49
-0.125
  0
LTYPE
  2
HIDDEN2
 70
     0
  3
_ _ _ _ _ _ _ _ _ _ _ _ _ _ _ _ _ _ _ _ _ _ _ _
 72
    65
 73
     2
 40
0.1875
 49
0.125
 49
-0.0625
  0
LTYPE
  2
AM_ISO02W050
 70
     0
  3
__ __ __ __ __ __ __ __ __ __ __ __ __ __ __
 72
    65
 73
     2
 40
7.5
 49
6.0
 49
-1.5
  0
LTYPE
  2
AMCONSTR
 70
     0
  3
_______________________
 72
    65
 73
     2
 40
9999.0
 49
9999.0
 49
0.0
  0
LTYPE
  2
ACISOWELD
 70
     0
  3
_ _ _ _ _
 72
    65
 73
     2
 40
2.0
 49
2.0
 49
-1.0
  0
LTYPE
  2
ACISOTGB
 70
     0
  3
__ . . __ . .
 72
    65
 73
     6
 40
9.0
 49
4.0
 49
-1.0
 49
1.0
 49
-1.0
 49
1.0
 49
-1.0
  0
LTYPE
  2
ACISOTGL
 70
     0
  3
_ _ _ _ _
 72
    65
 73
     2
 40
3.0
 49
2.0
 49
-1.0
  0
LTYPE
  2
AM_ISO08W050
 70
     0
  3
____ . ____ . ____ . ____ . ____ . ____ . ____
 72
    65
 73
     4
 40
18.0
 49
12.0
 49
-1.5
 49
3.0
 49
-1.5
  0
LTYPE
  2
AM_ISO09W050
 70
     0
  3
_____ . . _____ . . _____ . . ____ .. ____
 72
    65
 73
     6
 40
22.5
 49
12.0
 49
-1.5
 49
3.0
 49
-1.5
 49
3.0
 49
-1.5
  0
LTYPE
  2
AM_ISO08W050X2
 70
     0
  3
__ . __ . __ . __ . __ . __
 72
    65
 73
     4
 40
9.0
 49
6.0
 49
-0.75
 49
1.5
 49
-0.75
  0
LTYPE
  2
AM_ISO02W050X2
 70
     0
  3
 _ _ _ _ _ _ _ _ _ _ _ _
 72
    65
 73
     2
 40
3.75
 49
3.0
 49
-0.75
  0
LTYPE
  2
AMZIGZAG
 70
     0
  3
/\/-/\/-/\/-/\/-/\/-/\/
 72
    65
 73
     2
 40
11.0001
 49
0.0001
 49
-11.0
  0
ENDTAB
  0
TABLE
  2
LAYER
 70
     8
  0
LAYER
  2
0
 70
     0
 62
     7
  6
CONTINUOUS
  0
LAYER
  2
DEFPOINTS
 70
     0
 62
     7
  6
CONTINUOUS
  0
LAYER
  2
245
 70
     0
 62
     2
  6
CENTER2
  0
LAYER
  2
240
 70
     0
 62
     4
  6
CONTINUOUS
  0
LAYER
  2
241
 70
     0
 62
   211
  6
CONTINUOUS
  0
LAYER
  2
243
 70
     0
 62
   211
  6
HIDDEN2
  0
LAYER
  2
247
 70
     0
 62
    60
  6
CONTINUOUS
  0
LAYER
  2
250
 70
     0
 62
     3
  6
CONTINUOUS
  0
ENDTAB
  0
TABLE
  2
STYLE
 70
     8
  0
STYLE
  2
STANDARD
 70
     0
 40
0.0
 41
1.0
 50
0.0
 71
     0
 42
3.0
  3
romans.shx
  4
extfont.shx
  0
STYLE
  2
ACISOGDT
 70
     0
 40
0.0
 41
1.0
 50
0.0
 71
     0
 42
3.0
  3
amgdt.shx
  4
extfont.shx
  0
STYLE
  2
YOKO
 70
     0
 40
0.0
 41
1.0
 50
0.0
 71
     0
 42
3.0
  3
romans.shx
  4
extfont.shx
  0
STYLE
  2

 70
     1
 40
0.0
 41
1.0
 50
0.0
 71
     0
 42
3.0
  3
genltshp.shx
  4

  0
ENDTAB
  0
TABLE
  2
VIEW
 70
     0
  0
ENDTAB
  0
TABLE
  2
UCS
 70
     0
  0
ENDTAB
  0
TABLE
  2
APPID
 70
    43
  0
APPID
  2
ACAD
 70
     0
  0
APPID
  2
GLOBAL
 70
     0
  0
APPID
  2
DETAIL
 70
     0
  0
APPID
  2
GRPNAME
 70
     0
  0
APPID
  2
GPARA
 70
     0
  0
APPID
  2
MCAD_NO_VIS
 70
     0
  0
APPID
  2
ACAD_TEMP_GRAPHIC
 70
     0
  0
APPID
  2
ACATTRIBSERVICES
 70
     0
  0
APPID
  2
GENIUS_GENSCREG_15
 70
     0
  0
APPID
  2
GENIUS_GENODEF_13
 70
     0
  0
APPID
  2
GENIUS_GENOBJ-N-SDF_13
 70
     0
  0
APPID
  2
GENIUS_GENREC_14
 70
     0
  0
APPID
  2
GENIUS_GENOBJ-N-REC_13
 70
     0
  0
APPID
  2
GENIUS_GENDIMSH_14
 70
     0
  0
APPID
  2
GENIUS_GENOBJ-N-DIM_13
 70
     0
  0
APPID
  2
GENIUS_GENDIM_13
 70
     0
  0
APPID
  2
GENIUS_GENDTOL_13
 70
     0
  0
APPID
  2
GENIUS_GENOLIS_13
 70
     0
  0
APPID
  2
GENIUS_GENOENT_13
 70
     0
  0
APPID
  2
GENIUS_GENOBJ-F-FEM_13
 70
     0
  0
APPID
  2
GENIUS_GENOREF_13
 70
     0
  0
APPID
  2
GENIUS_GEFFEM_13
 70
     0
  0
APPID
  2
GENIUS_GEFFEMP_13
 70
     0
  0
APPID
  2
AD_DRAW
 70
     0
  0
APPID
  2
DESIGNERASSEMBLIES
 70
     0
  0
APPID
  2
ACADM_DIM_EDIT
 70
     0
  0
APPID
  2
AMDT_DM_ADJ
 70
     0
  0
APPID
  2
ITEMNAME
 70
     0
  0
APPID
  2
GENIUS_GENOBJ-N-FIL_13
 70
     0
  0
APPID
  2
GENIUS_GENFIL_13
 70
     0
  0
APPID
  2
GENIUS_GENOBJ-N-CHA_13
 70
     0
  0
APPID
  2
ACAECLAYERSTANDARD
 70
     0
  0
APPID
  2
ACAD_NAV_VCDISPLAY
 70
     0
  0
APPID
  2
ASK_MEN_XD
 70
     0
  0
APPID
  2
ACAD_DSTYLE_DIMJAG
 70
     0
  0
APPID
  2
ACAD_DSTYLE_DIMBREAK
 70
     0
  0
APPID
  2
ACAD_EXEMPT_FROM_CAD_STANDARDS
 70
     0
  0
APPID
  2
ACAD_DSTYLE_DIMINSPECT
 70
     0
  0
APPID
  2
ACAD_MLEADERVER
 70
     0
  0
APPID
  2
ACAD_DSTYLE_DIMARC_LENGTH_
 70
     0
  0
APPID
  2
ACAD_DSTYLE_DIM_LINETYPE
 70
     0
  0
APPID
  2
ACAD_DSTYLE_DIM_EXT1_LINETYPE
 70
     0
  0
APPID
  2
ACAD_DSTYLE_DIM_EXT2_LINETYPE
 70
     0
  0
ENDTAB
  0
TABLE
  2
DIMSTYLE
 70
    29
  0
DIMSTYLE
  2
BIGT
 70
     0
  3

  4

  5
OPEN
  6

  7

 40
1.0
 41
2.2299999999999991
 42
0.5
 43
7.0
 44
1.0
 45
0.0
 46
0.0
 47
0.0
 48
0.01
140
2.7999999999999989
141
0.0
142
0.0
143
25.399999999999999
144
1.0
145
0.0
146
1.0
147
1.0
 71
     0
 72
     0
 73
     0
 74
     0
 75
     0
 76
     0
 77
     3
 78
     9
170
     0
171
     2
172
     1
173
     0
174
     1
175
     0
176
   256
177
   256
178
    40
  0
DIMSTYLE
  2
AM_ISO
 70
     0
  3

  4
"
  5

  6

  7

 40
1.0
 41
2.5
 42
1.0
 43
10.0
 44
1.0
 45
0.0
 46
0.0
 47
0.1
 48
0.1
140
3.5
141
0.0
142
0.0
143
0.0393701
144
1.0
145
0.0
146
0.71
147
1.5
 71
     0
 72
     0
 73
     0
 74
     0
 75
     0
 76
     0
 77
     1
 78
     8
170
     0
171
     2
172
     1
173
     0
174
     0
175
     0
176
   256
177
   256
178
     2
  0
DIMSTYLE
  2
AM_ISO$3
 70
     0
  3

  4
"
  5

  6

  7

 40
1.0
 41
2.5
 42
1.0
 43
10.0
 44
1.0
 45
0.0
 46
0.0
 47
0.1
 48
0.1
140
3.5
141
0.0
142
0.0
143
0.0393701
144
1.0
145
0.0
146
0.71
147
1.5
 71
     0
 72
     0
 73
     0
 74
     1
 75
     0
 76
     0
 77
     1
 78
     8
170
     0
171
     2
172
     0
173
     0
174
     0
175
     0
176
   256
177
   256
178
     2
  0
DIMSTYLE
  2
AM_ISO$4
 70
     0
  3

  4
"
  5

  6

  7

 40
1.0
 41
2.5
 42
1.0
 43
10.0
 44
1.0
 45
0.0
 46
0.0
 47
0.1
 48
0.1
140
3.5
141
0.0
142
0.0
143
0.0393701
144
1.0
145
0.0
146
0.71
147
1.5
 71
     0
 72
     0
 73
     0
 74
     1
 75
     0
 76
     0
 77
     1
 78
     8
170
     0
171
     2
172
     0
173
     0
174
     0
175
     0
176
   256
177
   256
178
     2
  0
DIMSTYLE
  2
AM_ISO$6
 70
     0
  3

  4
"
  5

  6

  7

 40
1.0
 41
2.5
 42
1.0
 43
10.0
 44
1.0
 45
0.0
 46
0.0
 47
0.1
 48
0.1
140
3.5
141
0.0
142
0.0
143
0.0393701
144
1.0
145
0.0
146
0.71
147
1.5
 71
     0
 72
     0
 73
     0
 74
     0
 75
     0
 76
     0
 77
     0
 78
     8
170
     0
171
     2
172
     1
173
     0
174
     0
175
     0
176
   256
177
   256
178
     2
  0
DIMSTYLE
  2
AM_ISO$7
 70
     0
  3

  4
"
  5

  6

  7

 40
1.0
 41
2.5
 42
1.0
 43
10.0
 44
1.0
 45
0.0
 46
0.0
 47
0.1
 48
0.1
140
5.0
141
0.0
142
0.0
143
0.0393701
144
1.0
145
0.0
146
0.71
147
1.5
 71
     0
 72
     0
 73
     0
 74
     0
 75
     0
 76
     0
 77
     1
 78
     8
170
     0
171
     2
172
     1
173
     0
174
     0
175
     0
176
   256
177
   256
178
     2
  0
DIMSTYLE
  2
AM_ISO$SF
 70
     0
  3

  4
"
  5

  6

  7

 40
1.0
 41
2.5
 42
1.0
 43
10.0
 44
1.0
 45
0.0
 46
0.0
 47
0.1
 48
0.1
140
3.5
141
0.0
142
0.0
143
0.0393701
144
1.0
145
0.0
146
0.71
147
1.5
 71
     0
 72
     0
 73
     0
 74
     0
 75
     1
 76
     1
 77
     1
 78
     8
170
     0
171
     2
172
     1
173
     0
174
     0
175
     0
176
   256
177
   256
178
     2
  0
DIMSTYLE
  2
AM_ISO$SH
 70
     0
  3

  4
"
  5

  6
GENAXEH
  7

 40
1.0
 41
2.5
 42
1.0
 43
10.0
 44
1.0
 45
0.0
 46
0.0
 47
0.1
 48
0.1
140
3.5
141
0.0
142
0.0
143
0.0393701
144
2.0
145
0.0
146
0.71
147
1.5
 71
     0
 72
     0
 73
     0
 74
     0
 75
     1
 76
     1
 77
     1
 78
     8
170
     0
171
     2
172
     1
173
     1
174
     0
175
     0
176
   256
177
   256
178
     2
  0
ENDTAB
  0
ENDSEC
  0
SECTION
  2
BLOCKS
  0
BLOCK
  8
0
  2
$MODEL_SPACE
 70
     0
 10
0.0
 20
0.0
 30
0.0
  3
$MODEL_SPACE
  1

  0
ENDBLK
  5
1C
  8
0
  0
BLOCK
 67
     1
  8
0
  2
$PAPER_SPACE
 70
     0
 10
0.0
 20
0.0
 30
0.0
  3
$PAPER_SPACE
  1

  0
ENDBLK
  5
19
 67
     1
  8
0
  0
BLOCK
  8
0
  2
_OPEN
 70
     0
 10
0.0
 20
0.0
 30
0.0
  3
_OPEN
  1

  0
LINE
  5
3E1A
  8
0
  6
BYBLOCK
 62
     0
 10
-1.0
 20
0.1666666666666666
 30
0.0
 11
0.0
 21
0.0
 31
0.0
  0
LINE
  5
3E1B
  8
0
  6
BYBLOCK
 62
     0
 10
-1.0
 20
-0.1666666666666666
 30
0.0
 11
0.0
 21
0.0
 31
0.0
  0
LINE
  5
3E1C
  8
0
  6
BYBLOCK
 62
     0
 10
0.0
 20
0.0
 30
0.0
 11
-1.0
 21
0.0
 31
0.0
  0
ENDBLK
  5
3E1D
  8
0
  0
BLOCK
  8
0
  2
GENAXEH
 70
     0
 10
0.0
 20
0.0
 30
0.0
  3
GENAXEH
  1

  0
LINE
  5
3E45
  8
0
 10
-1.0
 20
0.0
 30
0.0
 11
1.0
 21
0.0
 31
0.0
  0
ENDBLK
  5
3E46
  8
0
  0
ENDSEC
  0
SECTION
  2
ENTITIES
  0
LINE
  5
4300
  8
240
  6
CONTINUOUS
 10
26.99999999999989
 20
-31.50000000000043
 30
0.0
 11
26.999999999999901
 21
-30.67542648054415
 31
0.0
  0
LINE
  5
4301
  8
240
  6
CONTINUOUS
 10
-65.400000000000119
 20
-12.68750000000003
 30
0.0
 11
-65.400000000000091
 21
12.687500000000201
 31
0.0
  0
LINE
  5
4302
  8
240
  6
CONTINUOUS
 10
0.9999999999997442
 20
-31.499999999999631
 30
0.0
 11
0.9999999999998575
 21
-22.225000000000051
 31
0.0
  0
LINE
  5
4303
  8
241
  6
CONTINUOUS
 10
-0.0000000000000853
 20
-22.225000000000001
 30
0.0
 11
0.0000000000000853
 21
22.225000000000119
 31
0.0
  0
LINE
  5
4304
  8
240
  6
CONTINUOUS
 10
-0.0000000000001137
 20
-22.225000000000001
 30
0.0
 11
-65.400000000000119
 21
-12.68750000000003
 31
0.0
  0
LINE
  5
4305
  8
240
  6
CONTINUOUS
 10
26.99999999999989
 20
-31.50000000000043
 30
0.0
 11
21.634494347333309
 21
-31.500000000000711
 31
0.0
  0
LINE
  5
4306
  8
243
  6
HIDDEN2
 10
22.99999999999989
 20
-22.499999999999972
 30
0.0
 11
22.99999999999989
 21
-31.499999999999972
 31
0.0
  0
LINE
  5
4307
  8
240
  6
CONTINUOUS
 10
0.9999999999997442
 20
-31.499999999999631
 30
0.0
 11
11.565505652666101
 21
-31.500000000000309
 31
0.0
  0
LINE
  5
4308
  8
243
  6
HIDDEN2
 10
22.99999999999989
 20
-22.499999999999972
 30
0.0
 11
0.9999999999998864
 21
-22.499999999999972
 31
0.0
  0
LINE
  5
4309
  8
245
  6
CENTER2
 10
-66.400000000000176
 20
0.0000000000000853
 30
0.0
 11
79.816017151670621
 21
0.0
 31
0.0
  0
LINE
  5
430A
  8
240
  6
CONTINUOUS
 10
14.45225699861486
 20
-26.499999999999801
 30
0.0
 11
11.565505652666239
 21
-31.50000000000043
 31
0.0
  0
LINE
  5
430B
  8
240
  6
CONTINUOUS
 10
18.747743001385398
 20
-26.500000000000028
 30
0.0
 11
21.634494347334339
 21
-31.50000000000043
 31
0.0
  0
LINE
  5
430C
  8
240
  6
CONTINUOUS
 10
14.45225699861453
 20
-26.49999999999952
 30
0.0
 11
18.747743001385398
 21
-26.500000000000028
 31
0.0
  0
LINE
  5
430D
  8
241
  6
CONTINUOUS
 10
11.565505652666101
 20
31.50000000000043
 30
0.0
 11
11.565505652666239
 21
-31.50000000000043
 31
0.0
  0
LINE
  5
430E
  8
241
  6
CONTINUOUS
 10
14.45225699861453
 20
-26.49999999999952
 30
0.0
 11
14.452256998614409
 21
26.4999999999994
 31
0.0
  0
LINE
  5
430F
  8
241
  6
CONTINUOUS
 10
18.747743001385292
 20
-26.499999999999861
 30
0.0
 11
18.747743001385398
 21
26.499999999999972
 31
0.0
  0
LINE
  5
4310
  8
241
  6
CONTINUOUS
 10
21.634494347333309
 20
-31.500000000000711
 30
0.0
 11
21.634494347333369
 21
31.500000000000661
 31
0.0
  0
LINE
  5
4311
  8
240
  6
CONTINUOUS
 10
-0.0000000000000853
 20
-22.225000000000001
 30
0.0
 11
0.9999999999998575
 21
-22.225000000000051
 31
0.0
  0
LINE
  5
4312
  8
241
  6
CONTINUOUS
 10
0.9999999999998575
 20
-22.22499999999982
 30
0.0
 11
0.9999999999998575
 21
22.22499999999982
 31
0.0
  0
LINE
  5
4313
  8
240
  6
CONTINUOUS
 10
0.9999999999998293
 20
31.499999999999691
 30
0.0
 11
0.9999999999999149
 21
22.225000000000051
 31
0.0
  0
LINE
  5
4314
  8
240
  6
CONTINUOUS
 10
-0.0000000000000568
 20
22.225000000000001
 30
0.0
 11
-65.400000000000091
 21
12.687500000000201
 31
0.0
  0
LINE
  5
4315
  8
240
  6
CONTINUOUS
 10
26.99999999999994
 20
31.50000000000038
 30
0.0
 11
21.634494347333369
 21
31.500000000000711
 31
0.0
  0
LINE
  5
4316
  8
243
  6
HIDDEN2
 10
22.99999999999994
 20
22.499999999999918
 30
0.0
 11
23.0
 21
31.499999999999911
 31
0.0
  0
LINE
  5
4317
  8
240
  6
CONTINUOUS
 10
0.9999999999998293
 20
31.499999999999691
 30
0.0
 11
11.565505652666189
 21
31.50000000000038
 31
0.0
  0
LINE
  5
4318
  8
243
  6
HIDDEN2
 10
22.99999999999994
 20
22.499999999999918
 30
0.0
 11
0.9999999999999431
 21
22.500000000000028
 31
0.0
  0
LINE
  5
4319
  8
240
  6
CONTINUOUS
 10
14.452256998614979
 20
26.499999999999801
 30
0.0
 11
11.56550565266633
 21
31.50000000000043
 31
0.0
  0
LINE
  5
431A
  8
240
  6
CONTINUOUS
 10
18.747743001385508
 20
26.500000000000028
 30
0.0
 11
21.634494347334449
 21
31.50000000000038
 31
0.0
  0
LINE
  5
431B
  8
240
  6
CONTINUOUS
 10
14.45225699861459
 20
26.49999999999946
 30
0.0
 11
18.747743001385508
 21
26.500000000000028
 31
0.0
  0
LINE
  5
431C
  8
240
  6
CONTINUOUS
 10
-0.0000000000000284
 20
22.225000000000051
 30
0.0
 11
0.9999999999999149
 21
22.225000000000051
 31
0.0
  0
LINE
  5
431D
  8
247
  6
CONTINUOUS
 10
7.999999999999857
 20
-18.250000000069999
 30
0.0
 11
7.999999999999857
 21
-11.557692308029999
 31
0.0
  0
ARC
  5
431E
  8
247
  6
CONTINUOUS
 10
6.2500000000698321
 20
-18.250000000069999
 30
0.0
 40
1.7499999999299991
 50
180.0
 51
0.0
  0
ARC
  5
431F
  8
247
  6
CONTINUOUS
 10
6.2500000000698321
 20
-11.557692308029999
 30
0.0
 40
1.7499999999299991
 50
0.0
 51
180.0
  0
LINE
  5
4320
  8
247
  6
CONTINUOUS
 10
4.5000000001398632
 20
-17.384615384719979
 30
0.0
 11
7.5000000000198659
 21
-18.244851541961989
 31
0.0
  0
LINE
  5
4321
  8
247
  6
CONTINUOUS
 10
5.923076923159865
 20
-16.484983818335792
 30
0.0
 11
5.923076923159865
 21
-17.792676125975809
 31
0.0
  0
ARC
  5
4322
  8
247
  6
CONTINUOUS
 10
5.0495986677028384
 20
-16.14514381608976
 30
0.0
 40
0.5538165441895349
 50
72.997889675291773
 51
172.92416621851359
  0
ARC
  5
4323
  8
247
  6
CONTINUOUS
 10
4.9360330444656313
 20
-16.56687832302876
 30
0.0
 40
0.9904354236226808
 50
4.7429368522022122
 51
73.849226273266297
1001
GENIUS_GENOBJ-N-FIL_13
1002
{
1000
OWNER
1000
GEN
1002
}
1001
GENIUS_GENODEF_13
1002
{
1000
HIER
1070
     0
1002
}
1002
{
1000
MANEDIT
1070
     0
1002
}
1002
{
1000
NOSEL
1070
     0
1002
}
1002
{
1000
BEHIND
1070
     0
1002
}
1002
{
1000
OTHER
1070
     0
1002
}
1002
{
1000
REACTOR
1002
}
  0
LINE
  5
4324
  8
247
  6
CONTINUOUS
 10
7.5000000000198659
 20
-16.937159234322021
 30
0.0
 11
7.5000000000198659
 21
-18.244851541961989
 31
0.0
  0
LINE
  5
4325
  8
247
  6
CONTINUOUS
 10
4.5000000001398632
 20
-17.384615384719979
 30
0.0
 11
4.5000000001398632
 21
-16.07692307707995
 31
0.0
  0
ARC
  5
4326
  8
247
  6
CONTINUOUS
 10
6.4820242326653954
 20
-16.56091963654697
 30
0.0
 40
0.5640818586791229
 50
65.990941652528889
 51
172.26344345906909
  0
ARC
  5
4327
  8
247
  6
CONTINUOUS
 10
6.4874290391864227
 20
-17.03826268534706
 30
0.0
 40
1.0176059446230981
 50
5.701985164259785
 51
77.277338436822376
1001
GENIUS_GENOBJ-N-FIL_13
1002
{
1000
OWNER
1000
GEN
1002
}
1001
GENIUS_GENODEF_13
1002
{
1000
HIER
1070
     0
1002
}
1002
{
1000
MANEDIT
1070
     0
1002
}
1002
{
1000
NOSEL
1070
     0
1002
}
1002
{
1000
BEHIND
1070
     0
1002
}
1002
{
1000
OTHER
1070
     0
1002
}
1002
{
1000
REACTOR
1002
}
  0
LINE
  5
4328
  8
247
  6
CONTINUOUS
 10
7.5000000000198659
 20
-15.283313080541999
 30
0.0
 11
4.5000000001398632
 21
-14.423076923299989
 31
0.0
  0
LINE
  5
4329
  8
247
  6
CONTINUOUS
 10
4.5000000001398632
 20
-12.00000000032
 30
0.0
 11
4.5000000001398632
 21
-12.565736619456599
 31
0.0
  0
LINE
  5
432A
  8
247
  6
CONTINUOUS
 10
7.5000000000198659
 20
-13.461538461799959
 30
0.0
 11
7.5000000000198659
 21
-12.846153846439989
 31
0.0
  0
ARC
  5
432B
  8
247
  6
CONTINUOUS
 10
6.5832851359732274
 20
-11.708791209122831
 30
0.0
 40
2.2526500823422122
 50
202.35948814152911
 51
254.99324854284609
  0
ARC
  5
432C
  8
247
  6
CONTINUOUS
 10
5.3083126551943831
 20
-12.374069479213199
 30
0.0
 40
0.8906723995727782
 50
94.994589319075317
 51
155.1663289573039
1001
GENIUS_GENOBJ-N-FIL_13
1002
{
1000
OWNER
1000
GEN
1002
}
1001
GENIUS_GENODEF_13
1002
{
1000
HIER
1070
     0
1002
}
1002
{
1000
MANEDIT
1070
     0
1002
}
1002
{
1000
NOSEL
1070
     0
1002
}
1002
{
1000
BEHIND
1070
     0
1002
}
1002
{
1000
OTHER
1070
     0
1002
}
1002
{
1000
REACTOR
1002
}
  0
ARC
  5
432D
  8
247
  6
CONTINUOUS
 10
6.160145888667639
 20
-13.22645888621255
 30
0.0
 40
1.392781735586712
 50
15.8460965557808
 51
82.325137004169065
  0
ARC
  5
432E
  8
247
  6
CONTINUOUS
 10
6.4592434315271401
 20
-12.64221272584038
 30
0.0
 40
1.324563662670287
 50
249.7136016704969
 51
321.78874565640928
1001
GENIUS_GENOBJ-N-FIL_13
1002
{
1000
OWNER
1000
GEN
1002
}
1001
GENIUS_GENODEF_13
1002
{
1000
HIER
1070
     0
1002
}
1002
{
1000
MANEDIT
1070
     0
1002
}
1002
{
1000
NOSEL
1070
     0
1002
}
1002
{
1000
BEHIND
1070
     0
1002
}
1002
{
1000
OTHER
1070
     0
1002
}
1002
{
1000
REACTOR
1002
}
  0
LINE
  5
432F
  8
247
  6
CONTINUOUS
 10
6.3461538462198321
 20
-12.53846153876
 30
0.0
 11
6.3461538462198321
 21
-11.84615384648
 31
0.0
  0
LINE
  5
4330
  8
250
  6
CONTINUOUS
 10
-34.1368727750733
 20
-19.201653317105951
 30
0.0
 11
-32.700000000000102
 21
-17.456249999999979
 31
0.0
  0
LINE
  5
4331
  8
250
  6
CONTINUOUS
 10
-33.49312722492688
 20
-19.57331998377262
 30
0.0
 11
-32.700000000000102
 21
-17.456249999999979
 31
0.0
  0
LINE
  5
4332
  8
250
  6
CONTINUOUS
 10
-32.700000000000102
 20
-17.456249999999979
 30
0.0
 11
-33.815000000000111
 21
-19.387486650439278
 31
0.0
  0
LINE
  5
4333
  8
250
  6
CONTINUOUS
 10
-33.815000000000111
 20
-19.387486650439278
 30
0.0
 11
-38.36313006819131
 21
-27.265079007978191
 31
0.0
1001
ACAD
1000
DSTYLE
1002
{
1070
   140
1040
4.0
1070
   178
1070
   256
1002
}
  0
TEXT
  5
4334
  8
250
  6
CONTINUOUS
 10
-53.82979673485795
 20
-26.265079007978191
 30
0.0
 40
2.799999999999998
  1
BBT40
  7
YOKO
1001
ITEMNAME
1000
LNSP3
  0
LINE
  5
4335
  8
250
  6
CONTINUOUS
 10
-38.36313006819131
 20
-27.265079007978191
 30
0.0
 11
-56.096463401524652
 21
-27.265079007978191
 31
0.0
1001
ITEMNAME
1000
LNSP2
  0
LINE
  5
4336
  8
247
  6
CONTINUOUS
 10
4.500000000139833
 20
-18.250000000069999
 30
0.0
 11
4.500000000139833
 21
-17.576923077020041
 31
0.0
  0
LINE
  5
4337
  8
241
  6
CONTINUOUS
 10
31.70000000000168
 20
-27.5
 30
0.0
 11
31.699999999997701
 21
27.500000000000171
 31
0.0
  0
LINE
  5
433C
  8
240
  6
CONTINUOUS
 10
26.999999999999901
 20
30.675426480544228
 30
0.0
 11
26.999999999999769
 21
31.50000000000038
 31
0.0
  0
LINE
  5
433D
  8
241
  6
CONTINUOUS
 10
26.999999999999901
 20
30.675426480544111
 30
0.0
 11
26.999999999999901
 21
-30.675426480544139
 31
0.0
  0
TEXT
  5
433E
  8
241
  6
CONTINUOUS
 10
-65.400000000000063
 20
63.000000000000057
 30
0.0
 40
5.0
  1
BBT40-MEGA.750DS-3A
  7
YOKO
 11
-65.400000000000063
 21
63.000000000000057
 31
0.0
 73
     1
  0
LINE
  5
4353
  8
240
  6
CONTINUOUS
 10
38.871250119524568
 20
-27.50000000000048
 30
0.0
 11
31.700000000000578
 21
-27.500000000000909
 31
0.0
  0
LINE
  5
4354
  8
240
  6
CONTINUOUS
 10
78.200000000000315
 20
-16.799999999986792
 30
0.0
 11
78.199999999999704
 21
16.79999999998644
 31
0.0
  0
LINE
  5
4355
  8
240
  6
CONTINUOUS
 10
78.200000000000315
 20
-16.799999999986792
 30
0.0
 11
76.199999999997985
 21
-16.80000000000064
 31
0.0
  0
LINE
  5
4356
  8
241
  6
CONTINUOUS
 10
76.200000000002305
 20
16.800000000002939
 30
0.0
 11
76.199999999998283
 21
-16.80000000000328
 31
0.0
  0
LINE
  5
4357
  8
240
  6
CONTINUOUS
 10
78.199999999999704
 20
16.79999999998644
 30
0.0
 11
76.199999999997104
 21
16.800000000000299
 31
0.0
  0
LINE
  5
4358
  8
243
  6
HIDDEN2
 10
3.7443809190339148
 20
9.5250000000001318
 30
0.0
 11
78.199999999999818
 21
9.5250000000000945
 31
0.0
1001
GRPNAME
1000
PASTMD1D
  0
LINE
  5
4359
  8
240
  6
CONTINUOUS
 10
47.049677244252322
 20
-25.0
 30
0.0
 11
66.583829031912515
 21
-25.00000000000011
 31
0.0
  0
LINE
  5
435A
  8
240
  6
CONTINUOUS
 10
74.226060429975036
 20
-22.218455247729839
 30
0.0
 11
66.583829031910284
 21
-25.00000000000119
 31
0.0
  0
ARC
  5
435B
  8
240
  6
CONTINUOUS
 10
73.199999999997701
 20
-19.39937738537224
 30
0.0
 40
3.0
 50
290.00000000000688
 51
359.99999999999352
  0
LINE
  5
435C
  8
240
  6
CONTINUOUS
 10
76.199999999997701
 20
-19.399377385372581
 30
0.0
 11
76.199999999997985
 21
-16.80000000000064
 31
0.0
  0
LINE
  5
435D
  8
241
  6
CONTINUOUS
 10
66.583829031910284
 20
-25.00000000000119
 30
0.0
 11
66.583829031909787
 21
25.000000000001389
 31
0.0
  0
LINE
  5
435E
  8
240
  6
CONTINUOUS
 10
41.556784025457418
 20
-25.64289321881326
 30
0.0
 11
40.285463681897262
 21
-26.91421356237343
 31
0.0
  0
ARC
  5
435F
  8
240
  6
CONTINUOUS
 10
38.871250119524177
 20
-25.50000000000021
 30
0.0
 40
2.0
 50
270.0
 51
315.00000000000028
1001
ASK_MEN_XD
1005
0
1070
     1
1005
0
1070
     1
  0
LINE
  5
4360
  8
241
  6
CONTINUOUS
 10
39.699677244270497
 20
-27.32035944224906
 30
0.0
 11
39.699677244270497
 21
27.320359442249259
 31
0.0
  0
LINE
  5
4361
  8
240
  6
CONTINUOUS
 10
47.049677244252322
 20
-25.0
 30
0.0
 11
46.699677244271051
 21
-25.349999999999788
 31
0.0
1001
GRPNAME
1000
PASTMD1P
  0
LINE
  5
4362
  8
241
  6
CONTINUOUS
 10
46.699677244270717
 20
-25.349999999999842
 30
0.0
 11
46.699677244270923
 21
25.34999999999987
 31
0.0
  0
LINE
  5
4363
  8
240
  6
CONTINUOUS
 10
46.699677244270717
 20
-25.349999999999842
 30
0.0
 11
42.263890806643971
 21
-25.349999999999788
 31
0.0
  0
ARC
  5
4364
  8
240
  6
CONTINUOUS
 10
42.263890806643971
 20
-26.349999999999781
 30
0.0
 40
1.0
 50
90.0
 51
135.0000000000002
1001
ASK_MEN_XD
1005
435E
1070
     1
1005
4363
1070
     1
  0
LINE
  5
4365
  8
241
  6
CONTINUOUS
 10
41.849677244270858
 20
-25.349999999999788
 30
0.0
 11
41.849677244270637
 21
25.349999999999799
 31
0.0
  0
LINE
  5
4366
  8
243
  6
HIDDEN2
 10
3.7443809190339148
 20
-9.5250000000000501
 30
0.0
 11
78.200000000000117
 21
-9.5250000000001585
 31
0.0
1001
GRPNAME
1000
PASTMD1D
  0
LINE
  5
4367
  8
240
  6
CONTINUOUS
 10
47.049677244252351
 20
25.000000000000021
 30
0.0
 11
66.583829031912543
 21
25.000000000000089
 31
0.0
  0
LINE
  5
4368
  8
240
  6
CONTINUOUS
 10
74.226060429975135
 20
22.218455247729811
 30
0.0
 11
66.583829031910355
 21
25.00000000000118
 31
0.0
  0
ARC
  5
4369
  8
240
  6
CONTINUOUS
 10
73.199999999997715
 20
19.399377385372208
 30
0.0
 40
3.0
 50
359.99999999999329
 51
69.999999999993037
  0
LINE
  5
436A
  8
240
  6
CONTINUOUS
 10
31.700000000002181
 20
27.500000000000171
 30
0.0
 11
38.871250119524248
 21
27.500000000000249
 31
0.0
  0
LINE
  5
436B
  8
240
  6
CONTINUOUS
 10
41.556784025457453
 20
25.64289321881331
 30
0.0
 11
40.285463681897333
 21
26.914213562373501
 31
0.0
  0
ARC
  5
436C
  8
240
  6
CONTINUOUS
 10
38.871250119524241
 20
25.50000000000027
 30
0.0
 40
2.0
 50
44.999999999999538
 51
90.0
1001
ASK_MEN_XD
1005
0
1070
     1
1005
0
1070
     1
  0
LINE
  5
436D
  8
240
  6
CONTINUOUS
 10
47.049677244252351
 20
25.000000000000021
 30
0.0
 11
46.699677244271101
 21
25.349999999999831
 31
0.0
1001
GRPNAME
1000
PASTMD1P
  0
LINE
  5
436E
  8
240
  6
CONTINUOUS
 10
46.699677244270802
 20
25.349999999999881
 30
0.0
 11
42.263890806643992
 21
25.349999999999842
 31
0.0
  0
ARC
  5
436F
  8
240
  6
CONTINUOUS
 10
42.263890806643992
 20
26.349999999999859
 30
0.0
 40
1.0
 50
224.9999999999994
 51
270.0
1001
ASK_MEN_XD
1005
435E
1070
     1
1005
4363
1070
     1
  0
LINE
  5
4370
  8
250
  6
CONTINUOUS
 10
96.199999999999903
 20
-9.5250000000001691
 30
0.0
 11
78.700000000000117
 21
-9.5250000000001585
 31
0.0
  0
LINE
  5
4371
  8
250
  6
CONTINUOUS
 10
96.199999999999903
 20
9.5250000000000732
 30
0.0
 11
78.699999999999818
 21
9.5250000000000945
 31
0.0
  0
LINE
  5
4372
  8
250
  6
CONTINUOUS
 10
95.199999999999903
 20
-8.0000000000000373
 30
0.0
 11
95.199999999999903
 21
8.0000000000000089
 31
0.0
  0
INSERT
  5
4373
  8
250
  6
CONTINUOUS
  2
_OPEN
 10
95.199999999999903
 20
-9.5250000000001691
 30
0.0
 41
2.0
 42
2.0
 43
2.0
 50
270.0
  0
INSERT
  5
4374
  8
250
  6
CONTINUOUS
  2
_OPEN
 10
95.199999999999903
 20
9.5250000000000732
 30
0.0
 41
2.0
 42
2.0
 43
2.0
 50
90.0
  0
LINE
  5
4376
  8
250
  6
CONTINUOUS
 10
67.083829031910284
 20
-25.00000000000011
 30
0.0
 11
103.1999999999999
 21
-25.00000000000011
 31
0.0
  0
LINE
  5
4377
  8
250
  6
CONTINUOUS
 10
67.083829031909787
 20
25.000000000000089
 30
0.0
 11
103.1999999999999
 21
25.000000000000071
 31
0.0
  0
LINE
  5
4378
  8
250
  6
CONTINUOUS
 10
102.1999999999999
 20
-23.00000000000011
 30
0.0
 11
102.1999999999999
 21
23.000000000000071
 31
0.0
  0
INSERT
  5
4379
  8
250
  6
CONTINUOUS
  2
_OPEN
 10
102.1999999999999
 20
-25.00000000000011
 30
0.0
 41
2.0
 42
2.0
 43
2.0
 50
270.0
  0
INSERT
  5
437A
  8
250
  6
CONTINUOUS
  2
_OPEN
 10
102.1999999999999
 20
25.000000000000071
 30
0.0
 41
2.0
 42
2.0
 43
2.0
 50
90.0
  0
LINE
  5
437C
  8
240
  6
CONTINUOUS
 10
76.199999999998226
 20
16.800000000000299
 30
0.0
 11
76.199999999997701
 21
19.39937738537186
 31
0.0
  0
TEXT
  5
437D
  8
250
  6
CONTINUOUS
 10
80.949271175934925
 20
13.61351784167762
 30
0.0
 40
2.799999999999998
  1
Coolant
  7
YOKO
 11
80.949271175934925
 21
13.61351784167762
 31
0.0
 73
     1
  0
LINE
  5
437E
  8
250
  6
CONTINUOUS
 10
94.478562284154606
 20
12.371666666666741
 30
0.0
 11
96.70856228415461
 21
12.000000000000069
 31
0.0
  0
LINE
  5
437F
  8
250
  6
CONTINUOUS
 10
94.478562284154606
 20
11.6283333333334
 30
0.0
 11
96.70856228415461
 21
12.000000000000069
 31
0.0
  0
LINE
  5
4380
  8
250
  6
CONTINUOUS
 10
96.70856228415461
 20
12.000000000000069
 30
0.0
 11
94.478562284154606
 21
12.000000000000069
 31
0.0
  0
LINE
  5
4381
  8
250
  6
CONTINUOUS
 10
94.478562284154606
 20
12.000000000000069
 30
0.0
 11
81.199999999998937
 21
12.000000000000069
 31
0.0
  0
LINE
  5
4382
  8
250
  6
CONTINUOUS
 10
94.478562284155416
 20
-11.62833333333332
 30
0.0
 11
96.708562284155391
 21
-11.99999999999998
 31
0.0
  0
LINE
  5
4383
  8
250
  6
CONTINUOUS
 10
94.478562284155416
 20
-12.371666666666661
 30
0.0
 11
96.708562284155391
 21
-11.99999999999998
 31
0.0
  0
LINE
  5
4384
  8
250
  6
CONTINUOUS
 10
96.708562284155391
 20
-11.99999999999998
 30
0.0
 11
94.478562284155416
 21
-11.99999999999998
 31
0.0
  0
LINE
  5
4385
  8
250
  6
CONTINUOUS
 10
94.478562284155416
 20
-11.99999999999998
 30
0.0
 11
81.199999999999704
 21
-11.99999999999998
 31
0.0
  0
TEXT
  5
4386
  8
250
  6
CONTINUOUS
 10
80.786900841792317
 20
-16.81554567599937
 30
0.0
 40
2.799999999999998
  1
Coolant
  7
YOKO
 11
80.786900841792317
 21
-16.81554567599937
 31
0.0
 73
     1
  0
ARC
  5
43A7
  8
240
  6
CONTINUOUS
 10
27.799999999999901
 20
-30.67542648054415
 30
0.0
 40
0.8
 50
120.0000000000005
 51
180.0
  0
ARC
  5
43A8
  8
240
  6
CONTINUOUS
 10
27.799999999999901
 20
30.675426480544239
 30
0.0
 40
0.8
 50
180.0000000000002
 51
239.99999999999949
  0
LINE
  5
43A9
  8
241
  6
CONTINUOUS
 10
28.98038475772935
 20
-29.07017059221802
 30
0.0
 11
28.98038475773027
 21
29.070170592216989
 31
0.0
  0
LINE
  5
43AA
  8
241
  6
CONTINUOUS
 10
30.019615242270248
 20
-28.470170592219731
 30
0.0
 11
30.019615242271438
 21
28.470170592217489
 31
0.0
  0
LINE
  5
43AC
  8
240
  6
CONTINUOUS
 10
31.700000000000578
 20
-27.500000000000909
 30
0.0
 11
27.39999999999992
 21
-29.982606157516571
 31
0.0
  0
LINE
  5
43AD
  8
240
  6
CONTINUOUS
 10
31.700000000002181
 20
27.500000000000171
 30
0.0
 11
27.39999999999926
 21
29.98260615751553
 31
0.0
  0
LINE
  5
4426
  8
250
  6
CONTINUOUS
 10
78.199999999999704
 20
17.29999999998644
 30
0.0
 11
78.199999999999704
 21
50.000000000602967
 31
0.0
  0
LINE
  5
4427
  8
250
  6
CONTINUOUS
 10
-8.7999999999997272
 20
10.725000000000099
 30
0.0
 11
-8.7999999999997254
 21
50.000000000602959
 31
0.0
  0
LINE
  5
4428
  8
250
  6
CONTINUOUS
 10
75.9699999999997
 20
49.000000000602967
 30
0.0
 11
-6.5699999999997241
 21
49.000000000602967
 31
0.0
  0
LINE
  5
442C
  8
250
  6
CONTINUOUS
 10
78.199999999999704
 20
17.29999999998644
 30
0.0
 11
78.199999999999704
 21
43.000000000541981
 31
0.0
  0
LINE
  5
442D
  8
250
  6
CONTINUOUS
 10
-0.0000000000000568
 20
22.725000000000001
 30
0.0
 11
-0.0000000000000555
 21
43.000000000541981
 31
0.0
  0
LINE
  5
442E
  8
250
  6
CONTINUOUS
 10
75.9699999999997
 20
42.000000000541981
 30
0.0
 11
2.229999999999944
 21
42.000000000541981
 31
0.0
  0
TEXT
  5
4432
  8
250
  6
CONTINUOUS
 10
28.699999999999989
 20
50.000000000602967
 30
0.0
 40
2.7999999999999989
  1
(max.3.42)
  0
LINE
  5
4433
  8
250
  6
CONTINUOUS
 10
-6.5699999999997241
 20
48.628333333936311
 30
0.0
 11
-8.7999999999997254
 21
49.000000000602967
 31
0.0
  0
LINE
  5
4434
  8
250
  6
CONTINUOUS
 10
-6.5699999999997241
 20
49.371666667269643
 30
0.0
 11
-8.7999999999997254
 21
49.000000000602967
 31
0.0
  0
LINE
  5
4435
  8
250
  6
CONTINUOUS
 10
-8.7999999999997254
 20
49.000000000602967
 30
0.0
 11
-6.5699999999997241
 21
49.000000000602967
 31
0.0
  0
LINE
  5
4436
  8
250
  6
CONTINUOUS
 10
75.9699999999997
 20
49.371666667269643
 30
0.0
 11
78.199999999999704
 21
49.000000000602967
 31
0.0
  0
LINE
  5
4437
  8
250
  6
CONTINUOUS
 10
75.9699999999997
 20
48.628333333936311
 30
0.0
 11
78.199999999999704
 21
49.000000000602967
 31
0.0
  0
LINE
  5
4438
  8
250
  6
CONTINUOUS
 10
78.199999999999704
 20
49.000000000602967
 30
0.0
 11
75.9699999999997
 21
49.000000000602967
 31
0.0
  0
TEXT
  5
4439
  8
250
  6
CONTINUOUS
 10
33.166666666666487
 20
43.000000000541981
 30
0.0
 40
2.7999999999999989
  1
3.08
  0
LINE
  5
443A
  8
250
  6
CONTINUOUS
 10
2.229999999999944
 20
41.628333333875297
 30
0.0
 11
-0.0000000000000556
 21
42.000000000541981
 31
0.0
  0
LINE
  5
443B
  8
250
  6
CONTINUOUS
 10
2.229999999999944
 20
42.37166666720865
 30
0.0
 11
-0.0000000000000556
 21
42.000000000541981
 31
0.0
  0
LINE
  5
443C
  8
250
  6
CONTINUOUS
 10
-0.0000000000000556
 20
42.000000000541981
 30
0.0
 11
2.229999999999944
 21
42.000000000541981
 31
0.0
  0
LINE
  5
443D
  8
250
  6
CONTINUOUS
 10
75.9699999999997
 20
42.37166666720865
 30
0.0
 11
78.199999999999704
 21
42.000000000541981
 31
0.0
  0
LINE
  5
443E
  8
250
  6
CONTINUOUS
 10
75.9699999999997
 20
41.628333333875297
 30
0.0
 11
78.199999999999704
 21
42.000000000541981
 31
0.0
  0
LINE
  5
443F
  8
250
  6
CONTINUOUS
 10
78.199999999999704
 20
42.000000000541981
 30
0.0
 11
75.9699999999997
 21
42.000000000541981
 31
0.0
  0
TEXT
  5
444B
  8
250
 10
94.011654542728792
 20
-6.3339597083229231
 30
0.0
 40
2.799999999999998
  1
\U+2205
 50
90.0
  0
TEXT
  5
444C
  8
250
 10
94.011654542728792
 20
-3.8006263749895912
 30
0.0
 40
2.799999999999998
  1
.750
 50
90.0
  0
TEXT
  5
444D
  8
250
 10
101.01165454272881
 20
-6.3339597083229791
 30
0.0
 40
2.799999999999998
  1
\U+2205
 50
90.0
  0
TEXT
  5
444E
  8
250
 10
101.01165454272881
 20
-3.8006263749896481
 30
0.0
 40
2.799999999999998
  1
1.969
 50
90.0
  0
VIEWPORT
  5
22
 67
     1
  8
0
 10
261.51769911504419
 20
148.5
 30
0.0
 40
523.0353982300885
 41
297.0
 68
     1
 69
     1
1001
ACAD
1000
MVIEW
1002
{
1070
    16
1010
0.0
1020
0.0
1030
0.0
1010
0.0
1020
0.0
1030
1.0
1040
0.0
1040
297.0
1040
261.51769911504419
1040
148.5
1040
50.0
1040
0.0
1040
0.0
1070
     0
1070
   100
1070
     1
1070
     1
1070
     0
1070
     0
1070
     0
1070
     0
1040
0.0
1040
0.0
1040
0.0
1040
1.0
1040
1.0
1040
10.0
1040
10.0
1070
     0
1002
{
1002
}
1002
}
1001
GENIUS_GENODEF_13
1002
{
1000
HIER
1070
     0
1002
}
1002
{
1000
MANEDIT
1070
     0
1002
}
1002
{
1000
NOSEL
1070
     0
1002
}
1002
{
1000
BEHIND
1070
     0
1002
}
1002
{
1000
OTHER
1070
     0
1002
}
1002
{
1000
REACTOR
1002
}
1001
GENIUS_GENOBJ-N-SDF_13
1002
{
1000
OWNER
1000
GEN
1002
}
1001
GENIUS_GENSCREG_15
1000
PF
1040
1.0
1000
DF
1040
1.0
1000
MIN
1011
0.0
1021
0.0
1031
0.0
1021
0.0
1031
0.0
1000
MAX
1011
523.0353982300885
1021
0.0
1031
0.0
1021
297.0
1031
0.0
1000
FLAGS
1070
     4
  0
ENDSEC
  0
EOF
