  0
SECTION
  2
HEADER
  9
$ACADVER
  1
AC1009
  9
$INSBASE
 10
0.0
 20
0.0
 30
0.0
  9
$EXTMIN
 10
-66.400000000000006
 20
-31.500000000000711
 30
0.0
  9
$EXTMAX
 10
107.40020254
 20
68.0
 30
0.0
  9
$LIMMIN
 10
0.0
 20
0.0
  9
$LIMMAX
 10
297.0
 20
210.0
  9
$ORTHOMODE
 70
     1
  9
$REGENMODE
 70
     1
  9
$FILLMODE
 70
     1
  9
$QTEXTMODE
 70
     0
  9
$MIRRTEXT
 70
     1
  9
$DRAGMODE
 70
     2
  9
$LTSCALE
 40
10.0
  9
$OSMODE
 70
    37
  9
$ATTMODE
 70
     1
  9
$TEXTSIZE
 40
3.0
  9
$TRACEWID
 40
1.0
  9
$TEXTSTYLE
  7
YOKO
  9
$CLAYER
  8
240
  9
$CELTYPE
  6
BYLAYER
  9
$CECOLOR
 62
   256
  9
$DIMSCALE
 40
1.0
  9
$DIMASZ
 40
2.2299999999999991
  9
$DIMEXO
 40
0.5
  9
$DIMDLI
 40
7.0
  9
$DIMRND
 40
0.0
  9
$DIMDLE
 40
0.0
  9
$DIMEXE
 40
1.0
  9
$DIMTP
 40
0.0
  9
$DIMTM
 40
0.01
  9
$DIMTXT
 40
2.7999999999999989
  9
$DIMCEN
 40
0.0
  9
$DIMTSZ
 40
0.0
  9
$DIMTOL
 70
     0
  9
$DIMLIM
 70
     0
  9
$DIMTIH
 70
     0
  9
$DIMTOH
 70
     0
  9
$DIMSE1
 70
     0
  9
$DIMSE2
 70
     0
  9
$DIMTAD
 70
     3
  9
$DIMZIN
 70
     9
  9
$DIMBLK
  1
OPEN
  9
$DIMASO
 70
     1
  9
$DIMSHO
 70
     1
  9
$DIMPOST
  1

  9
$DIMAPOST
  1

  9
$DIMALT
 70
     0
  9
$DIMALTD
 70
     2
  9
$DIMALTF
 40
25.399999999999999
  9
$DIMLFAC
 40
1.0
  9
$DIMTOFL
 70
     1
  9
$DIMTVP
 40
0.0
  9
$DIMTIX
 70
     1
  9
$DIMSOXD
 70
     0
  9
$DIMSAH
 70
     0
  9
$DIMBLK1
  1

  9
$DIMBLK2
  1

  9
$DIMSTYLE
  2
BIGT
  9
$DIMCLRD
 70
   256
  9
$DIMCLRE
 70
   256
  9
$DIMCLRT
 70
    40
  9
$DIMTFAC
 40
1.0
  9
$DIMGAP
 40
1.0
  9
$LUNITS
 70
     2
  9
$LUPREC
 70
     6
  9
$SKETCHINC
 40
1.0
  9
$FILLETRAD
 40
0.0
  9
$AUNITS
 70
     0
  9
$AUPREC
 70
     6
  9
$MENU
  1
.
  9
$ELEVATION
 40
0.0
  9
$PELEVATION
 40
0.0
  9
$THICKNESS
 40
0.0
  9
$LIMCHECK
 70
     0
  9
$BLIPMODE
 70
     0
  9
$CHAMFERA
 40
0.2
  9
$CHAMFERB
 40
0.2
  9
$SKPOLY
 70
     0
  9
$TDCREATE
 40
2458136.7232258799
  9
$TDUPDATE
 40
2458138.6050552782
  9
$TDINDWG
 40
0.0113859491
  9
$TDUSRTIMER
 40
0.0113859259
  9
$USRTIMER
 70
     1
  9
$ANGBASE
 50
0.0
  9
$ANGDIR
 70
     0
  9
$PDMODE
 70
     1
  9
$PDSIZE
 40
0.0
  9
$PLINEWID
 40
0.0
  9
$COORDS
 70
     1
  9
$SPLFRAME
 70
     0
  9
$SPLINETYPE
 70
     6
  9
$SPLINESEGS
 70
     4
  9
$ATTDIA
 70
     1
  9
$ATTREQ
 70
     1
  9
$HANDLING
 70
     1
  9
$HANDSEED
  5
4E30
  9
$SURFTAB1
 70
     6
  9
$SURFTAB2
 70
     6
  9
$SURFTYPE
 70
     6
  9
$SURFU
 70
     6
  9
$SURFV
 70
     6
  9
$UCSNAME
  2

  9
$UCSORG
 10
0.0
 20
0.0
 30
0.0
  9
$UCSXDIR
 10
1.0
 20
0.0
 30
0.0
  9
$UCSYDIR
 10
0.0
 20
1.0
 30
0.0
  9
$PUCSNAME
  2

  9
$PUCSORG
 10
0.0
 20
0.0
 30
0.0
  9
$PUCSXDIR
 10
1.0
 20
0.0
 30
0.0
  9
$PUCSYDIR
 10
0.0
 20
1.0
 30
0.0
  9
$USERI1
 70
     1
  9
$USERI2
 70
     0
  9
$USERI3
 70
     0
  9
$USERI4
 70
     0
  9
$USERI5
 70
     0
  9
$USERR1
 40
0.0
  9
$USERR2
 40
0.0
  9
$USERR3
 40
0.0
  9
$USERR4
 40
0.0
  9
$USERR5
 40
0.0
  9
$WORLDVIEW
 70
     1
  9
$SHADEDGE
 70
     3
  9
$SHADEDIF
 70
    70
  9
$TILEMODE
 70
     1
  9
$MAXACTVP
 70
    16
  9
$PLIMCHECK
 70
     0
  9
$PEXTMIN
 10
1.0000000000000000E+020
 20
1.0000000000000000E+020
 30
1.0000000000000000E+020
  9
$PEXTMAX
 10
-1.0000000000000000E+020
 20
-1.0000000000000000E+020
 30
-1.0000000000000000E+020
  9
$PLIMMIN
 10
0.0
 20
0.0
  9
$PLIMMAX
 10
420.0
 20
297.0
  9
$UNITMODE
 70
     0
  9
$VISRETAIN
 70
     1
  9
$PLINEGEN
 70
     0
  9
$PSLTSCALE
 70
     1
  0
ENDSEC
  0
SECTION
  2
TABLES
  0
TABLE
  2
VPORT
 70
     1
  0
VPORT
  2
*ACTIVE
 70
     0
 10
0.0
 20
0.0
 11
1.0
 21
1.0
 12
28.77505196085815
 22
17.736041497759121
 13
0.0
 23
0.0
 14
7.0
 24
7.0
 15
7.0
 25
7.0
 16
0.0
 26
0.0
 36
1.0
 17
0.0
 27
0.0
 37
0.0
 40
195.8218538500908
 41
1.4533622559652919
 42
50.0
 43
0.0
 44
0.0
 50
0.0
 51
0.0
 71
     0
 72
  2000
 73
     1
 74
     0
 75
     0
 76
     1
 77
     0
 78
     0
  0
ENDTAB
  0
TABLE
  2
LTYPE
 70
    21
  0
LTYPE
  2
CONTINUOUS
 70
     0
  3
Solid line
 72
    65
 73
     0
 40
0.0
  0
LTYPE
  2
CENTER2
 70
     0
  3
___ _ ___ _ ___ _ ___ _ ___ _ ___ _ ___ _ ___ _
 72
    65
 73
     4
 40
1.125
 49
0.75
 49
-0.125
 49
0.125
 49
-0.125
  0
LTYPE
  2
HIDDEN2
 70
     0
  3
_ _ _ _ _ _ _ _ _ _ _ _ _ _ _ _ _ _ _ _ _ _ _ _
 72
    65
 73
     2
 40
0.1875
 49
0.125
 49
-0.0625
  0
LTYPE
  2
AM_ISO02W050
 70
     0
  3
__ __ __ __ __ __ __ __ __ __ __ __ __ __ __
 72
    65
 73
     2
 40
7.5
 49
6.0
 49
-1.5
  0
LTYPE
  2
AMCONSTR
 70
     0
  3
_______________________
 72
    65
 73
     2
 40
9999.0
 49
9999.0
 49
0.0
  0
LTYPE
  2
ACISOWELD
 70
     0
  3
_ _ _ _ _
 72
    65
 73
     2
 40
2.0
 49
2.0
 49
-1.0
  0
LTYPE
  2
ACISOTGB
 70
     0
  3
__ . . __ . .
 72
    65
 73
     6
 40
9.0
 49
4.0
 49
-1.0
 49
1.0
 49
-1.0
 49
1.0
 49
-1.0
  0
LTYPE
  2
ACISOTGL
 70
     0
  3
_ _ _ _ _
 72
    65
 73
     2
 40
3.0
 49
2.0
 49
-1.0
  0
LTYPE
  2
AM_ISO08W050
 70
     0
  3
____ . ____ . ____ . ____ . ____ . ____ . ____
 72
    65
 73
     4
 40
18.0
 49
12.0
 49
-1.5
 49
3.0
 49
-1.5
  0
LTYPE
  2
AM_ISO09W050
 70
     0
  3
_____ . . _____ . . _____ . . ____ .. ____
 72
    65
 73
     6
 40
22.5
 49
12.0
 49
-1.5
 49
3.0
 49
-1.5
 49
3.0
 49
-1.5
  0
LTYPE
  2
AM_ISO08W050X2
 70
     0
  3
__ . __ . __ . __ . __ . __
 72
    65
 73
     4
 40
9.0
 49
6.0
 49
-0.75
 49
1.5
 49
-0.75
  0
LTYPE
  2
AM_ISO02W050X2
 70
     0
  3
 _ _ _ _ _ _ _ _ _ _ _ _
 72
    65
 73
     2
 40
3.75
 49
3.0
 49
-0.75
  0
LTYPE
  2
AMZIGZAG
 70
     0
  3
/\/-/\/-/\/-/\/-/\/-/\/
 72
    65
 73
     2
 40
11.0001
 49
0.0001
 49
-11.0
  0
ENDTAB
  0
TABLE
  2
LAYER
 70
     8
  0
LAYER
  2
0
 70
     0
 62
     7
  6
CONTINUOUS
  0
LAYER
  2
DEFPOINTS
 70
     0
 62
     7
  6
CONTINUOUS
  0
LAYER
  2
245
 70
     0
 62
     2
  6
CENTER2
  0
LAYER
  2
240
 70
     0
 62
     4
  6
CONTINUOUS
  0
LAYER
  2
241
 70
     0
 62
   211
  6
CONTINUOUS
  0
LAYER
  2
243
 70
     0
 62
   211
  6
HIDDEN2
  0
LAYER
  2
247
 70
     0
 62
    60
  6
CONTINUOUS
  0
LAYER
  2
250
 70
     0
 62
     3
  6
CONTINUOUS
  0
ENDTAB
  0
TABLE
  2
STYLE
 70
     8
  0
STYLE
  2
STANDARD
 70
     0
 40
0.0
 41
1.0
 50
0.0
 71
     0
 42
3.0
  3
romans.shx
  4
extfont.shx
  0
STYLE
  2
ACISOGDT
 70
     0
 40
0.0
 41
1.0
 50
0.0
 71
     0
 42
3.0
  3
amgdt.shx
  4
extfont.shx
  0
STYLE
  2
YOKO
 70
     0
 40
0.0
 41
1.0
 50
0.0
 71
     0
 42
3.0
  3
romans.shx
  4
extfont.shx
  0
STYLE
  2

 70
     1
 40
0.0
 41
1.0
 50
0.0
 71
     0
 42
3.0
  3
genltshp.shx
  4

  0
ENDTAB
  0
TABLE
  2
VIEW
 70
     0
  0
ENDTAB
  0
TABLE
  2
UCS
 70
     0
  0
ENDTAB
  0
TABLE
  2
APPID
 70
    40
  0
APPID
  2
ACAD
 70
     0
  0
APPID
  2
GLOBAL
 70
     0
  0
APPID
  2
DETAIL
 70
     0
  0
APPID
  2
GRPNAME
 70
     0
  0
APPID
  2
GPARA
 70
     0
  0
APPID
  2
MCAD_NO_VIS
 70
     0
  0
APPID
  2
ACAD_TEMP_GRAPHIC
 70
     0
  0
APPID
  2
ACATTRIBSERVICES
 70
     0
  0
APPID
  2
GENIUS_GENSCREG_15
 70
     0
  0
APPID
  2
GENIUS_GENODEF_13
 70
     0
  0
APPID
  2
GENIUS_GENOBJ-N-SDF_13
 70
     0
  0
APPID
  2
GENIUS_GENREC_14
 70
     0
  0
APPID
  2
GENIUS_GENOBJ-N-REC_13
 70
     0
  0
APPID
  2
GENIUS_GENDIMSH_14
 70
     0
  0
APPID
  2
GENIUS_GENOBJ-N-DIM_13
 70
     0
  0
APPID
  2
GENIUS_GENDIM_13
 70
     0
  0
APPID
  2
GENIUS_GENDTOL_13
 70
     0
  0
APPID
  2
GENIUS_GENOLIS_13
 70
     0
  0
APPID
  2
GENIUS_GENOENT_13
 70
     0
  0
APPID
  2
GENIUS_GENOBJ-F-FEM_13
 70
     0
  0
APPID
  2
GENIUS_GENOREF_13
 70
     0
  0
APPID
  2
GENIUS_GEFFEM_13
 70
     0
  0
APPID
  2
GENIUS_GEFFEMP_13
 70
     0
  0
APPID
  2
AD_DRAW
 70
     0
  0
APPID
  2
DESIGNERASSEMBLIES
 70
     0
  0
APPID
  2
ACADM_DIM_EDIT
 70
     0
  0
APPID
  2
AMDT_DM_ADJ
 70
     0
  0
APPID
  2
ITEMNAME
 70
     0
  0
APPID
  2
GENIUS_GENOBJ-N-FIL_13
 70
     0
  0
APPID
  2
GENIUS_GENFIL_13
 70
     0
  0
APPID
  2
GENIUS_GENOBJ-N-CHA_13
 70
     0
  0
APPID
  2
ACAECLAYERSTANDARD
 70
     0
  0
APPID
  2
ACAD_NAV_VCDISPLAY
 70
     0
  0
APPID
  2
ASK_MEN_XD
 70
     0
  0
APPID
  2
ACAD_EXEMPT_FROM_CAD_STANDARDS
 70
     0
  0
APPID
  2
ACAD_PSEXT
 70
     0
  0
APPID
  2
ACAD_DSTYLE_DIMJAG
 70
     0
  0
APPID
  2
ACAD_DSTYLE_DIMBREAK
 70
     0
  0
APPID
  2
ACAD_DSTYLE_DIMINSPECT
 70
     0
  0
APPID
  2
ACAD_MLEADERVER
 70
     0
  0
ENDTAB
  0
TABLE
  2
DIMSTYLE
 70
    29
  0
DIMSTYLE
  2
BIGT
 70
     0
  3

  4

  5
OPEN
  6

  7

 40
1.0
 41
2.2299999999999991
 42
0.5
 43
7.0
 44
1.0
 45
0.0
 46
0.0
 47
0.0
 48
0.01
140
2.7999999999999989
141
0.0
142
0.0
143
25.399999999999999
144
1.0
145
0.0
146
1.0
147
1.0
 71
     0
 72
     0
 73
     0
 74
     0
 75
     0
 76
     0
 77
     3
 78
     9
170
     0
171
     2
172
     1
173
     0
174
     1
175
     0
176
   256
177
   256
178
    40
  0
DIMSTYLE
  2
AM_ISO
 70
     0
  3

  4
"
  5

  6

  7

 40
1.0
 41
2.5
 42
1.0
 43
10.0
 44
1.0
 45
0.0
 46
0.0
 47
0.1
 48
0.1
140
3.5
141
0.0
142
0.0
143
0.0393701
144
1.0
145
0.0
146
0.71
147
1.5
 71
     0
 72
     0
 73
     0
 74
     0
 75
     0
 76
     0
 77
     1
 78
     8
170
     0
171
     2
172
     1
173
     0
174
     0
175
     0
176
   256
177
   256
178
     2
  0
DIMSTYLE
  2
AM_ISO$3
 70
     0
  3

  4
"
  5

  6

  7

 40
1.0
 41
2.5
 42
1.0
 43
10.0
 44
1.0
 45
0.0
 46
0.0
 47
0.1
 48
0.1
140
3.5
141
0.0
142
0.0
143
0.0393701
144
1.0
145
0.0
146
0.71
147
1.5
 71
     0
 72
     0
 73
     0
 74
     1
 75
     0
 76
     0
 77
     1
 78
     8
170
     0
171
     2
172
     0
173
     0
174
     0
175
     0
176
   256
177
   256
178
     2
  0
DIMSTYLE
  2
AM_ISO$4
 70
     0
  3

  4
"
  5

  6

  7

 40
1.0
 41
2.5
 42
1.0
 43
10.0
 44
1.0
 45
0.0
 46
0.0
 47
0.1
 48
0.1
140
3.5
141
0.0
142
0.0
143
0.0393701
144
1.0
145
0.0
146
0.71
147
1.5
 71
     0
 72
     0
 73
     0
 74
     1
 75
     0
 76
     0
 77
     1
 78
     8
170
     0
171
     2
172
     0
173
     0
174
     0
175
     0
176
   256
177
   256
178
     2
  0
DIMSTYLE
  2
AM_ISO$6
 70
     0
  3

  4
"
  5

  6

  7

 40
1.0
 41
2.5
 42
1.0
 43
10.0
 44
1.0
 45
0.0
 46
0.0
 47
0.1
 48
0.1
140
3.5
141
0.0
142
0.0
143
0.0393701
144
1.0
145
0.0
146
0.71
147
1.5
 71
     0
 72
     0
 73
     0
 74
     0
 75
     0
 76
     0
 77
     0
 78
     8
170
     0
171
     2
172
     1
173
     0
174
     0
175
     0
176
   256
177
   256
178
     2
  0
DIMSTYLE
  2
AM_ISO$7
 70
     0
  3

  4
"
  5

  6

  7

 40
1.0
 41
2.5
 42
1.0
 43
10.0
 44
1.0
 45
0.0
 46
0.0
 47
0.1
 48
0.1
140
5.0
141
0.0
142
0.0
143
0.0393701
144
1.0
145
0.0
146
0.71
147
1.5
 71
     0
 72
     0
 73
     0
 74
     0
 75
     0
 76
     0
 77
     1
 78
     8
170
     0
171
     2
172
     1
173
     0
174
     0
175
     0
176
   256
177
   256
178
     2
  0
DIMSTYLE
  2
AM_ISO$SF
 70
     0
  3

  4
"
  5

  6

  7

 40
1.0
 41
2.5
 42
1.0
 43
10.0
 44
1.0
 45
0.0
 46
0.0
 47
0.1
 48
0.1
140
3.5
141
0.0
142
0.0
143
0.0393701
144
1.0
145
0.0
146
0.71
147
1.5
 71
     0
 72
     0
 73
     0
 74
     0
 75
     1
 76
     1
 77
     1
 78
     8
170
     0
171
     2
172
     1
173
     0
174
     0
175
     0
176
   256
177
   256
178
     2
  0
DIMSTYLE
  2
AM_ISO$SH
 70
     0
  3

  4
"
  5

  6
GENAXEH
  7

 40
1.0
 41
2.5
 42
1.0
 43
10.0
 44
1.0
 45
0.0
 46
0.0
 47
0.1
 48
0.1
140
3.5
141
0.0
142
0.0
143
0.0393701
144
2.0
145
0.0
146
0.71
147
1.5
 71
     0
 72
     0
 73
     0
 74
     0
 75
     1
 76
     1
 77
     1
 78
     8
170
     0
171
     2
172
     1
173
     1
174
     0
175
     0
176
   256
177
   256
178
     2
  0
ENDTAB
  0
ENDSEC
  0
SECTION
  2
BLOCKS
  0
BLOCK
  8
0
  2
$MODEL_SPACE
 70
     0
 10
0.0
 20
0.0
 30
0.0
  3
$MODEL_SPACE
  1

  0
ENDBLK
  5
1C
  8
0
  0
BLOCK
 67
     1
  8
0
  2
$PAPER_SPACE
 70
     0
 10
0.0
 20
0.0
 30
0.0
  3
$PAPER_SPACE
  1

  0
ENDBLK
  5
19
 67
     1
  8
0
  0
BLOCK
  8
0
  2
_OPEN
 70
     0
 10
0.0
 20
0.0
 30
0.0
  3
_OPEN
  1

  0
LINE
  5
3E1A
  8
0
  6
BYBLOCK
 62
     0
 10
-1.0
 20
0.1666666666666666
 30
0.0
 11
0.0
 21
0.0
 31
0.0
  0
LINE
  5
3E1B
  8
0
  6
BYBLOCK
 62
     0
 10
-1.0
 20
-0.1666666666666666
 30
0.0
 11
0.0
 21
0.0
 31
0.0
  0
LINE
  5
3E1C
  8
0
  6
BYBLOCK
 62
     0
 10
0.0
 20
0.0
 30
0.0
 11
-1.0
 21
0.0
 31
0.0
  0
ENDBLK
  5
3E1D
  8
0
  0
BLOCK
  8
0
  2
GENAXEH
 70
     0
 10
0.0
 20
0.0
 30
0.0
  3
GENAXEH
  1

  0
LINE
  5
3E45
  8
0
 10
-1.0
 20
0.0
 30
0.0
 11
1.0
 21
0.0
 31
0.0
  0
ENDBLK
  5
3E46
  8
0
  0
ENDSEC
  0
SECTION
  2
ENTITIES
  0
TEXT
  5
4716
  8
241
  6
CONTINUOUS
 10
-65.400000000000006
 20
63.0
 30
0.0
 40
5.0
  1
BBT40-HMC.750S-3.5
  7
YOKO
 11
-65.400000000000006
 21
63.0
 31
0.0
 73
     1
  0
LINE
  5
4717
  8
245
  6
CENTER2
 10
-66.400000000000006
 20
0.0
 30
0.0
 11
90.228048165828667
 21
0.0
 31
0.0
  0
LINE
  5
471E
  8
250
  6
CONTINUOUS
 10
89.400000000000006
 20
9.5250000000001425
 30
0.0
 11
100.40020254
 21
9.5250000000001425
 31
0.0
  0
LINE
  5
471F
  8
250
  6
CONTINUOUS
 10
99.400202540000009
 20
-7.769999999999996
 30
0.0
 11
99.400202540000009
 21
7.769999999999996
 31
0.0
  0
LINE
  5
4720
  8
250
  6
CONTINUOUS
 10
63.600000000000009
 20
-25.0
 30
0.0
 11
107.40020254
 21
-25.0
 31
0.0
  0
LINE
  5
4721
  8
250
  6
CONTINUOUS
 10
63.600000000000009
 20
25.0
 30
0.0
 11
107.40020254
 21
25.0
 31
0.0
  0
LINE
  5
4722
  8
250
  6
CONTINUOUS
 10
106.40020254
 20
-22.77
 30
0.0
 11
106.40020254
 21
22.77
 31
0.0
  0
TEXT
  5
4723
  8
250
  6
CONTINUOUS
 10
98.400202540000024
 20
-6.0809730181824131
 30
0.0
 40
2.799999999999998
  1
\U+2205.750
 50
90.0
1001
ACAD
1000
MTEXTBEGIN
1070
    73
1070
     1
1070
    44
1040
1.0
1070
    74
1070
     0
1000
MTEXTEND
  0
LINE
  5
4724
  8
250
  6
CONTINUOUS
 10
99.02853587333334
 20
7.2950000000001394
 30
0.0
 11
99.400202540000009
 21
9.5250000000001425
 31
0.0
  0
LINE
  5
4725
  8
250
  6
CONTINUOUS
 10
99.771869206666665
 20
7.2950000000001394
 30
0.0
 11
99.400202540000009
 21
9.5250000000001425
 31
0.0
  0
LINE
  5
4726
  8
250
  6
CONTINUOUS
 10
99.400202540000009
 20
9.5250000000001425
 30
0.0
 11
99.400202540000009
 21
7.2950000000001394
 31
0.0
  0
TEXT
  5
4727
  8
250
  6
CONTINUOUS
 10
105.40020254
 20
-6.8056020278827933
 30
0.0
 40
2.799999999999998
  1
\U+22051.969
 50
90.0
1001
ACAD
1000
MTEXTBEGIN
1070
    73
1070
     1
1070
    44
1040
1.0
1070
    74
1070
     0
1000
MTEXTEND
  0
LINE
  5
4728
  8
250
  6
CONTINUOUS
 10
106.0285358733333
 20
22.77
 30
0.0
 11
106.40020254
 21
25.0
 31
0.0
  0
LINE
  5
4729
  8
250
  6
CONTINUOUS
 10
106.77186920666669
 20
22.77
 30
0.0
 11
106.40020254
 21
25.0
 31
0.0
  0
LINE
  5
472A
  8
250
  6
CONTINUOUS
 10
106.40020254
 20
25.0
 30
0.0
 11
106.40020254
 21
22.77
 31
0.0
  0
LINE
  5
472B
  8
250
  6
CONTINUOUS
 10
106.77186920666669
 20
-22.77
 30
0.0
 11
106.40020254
 21
-25.0
 31
0.0
  0
LINE
  5
472C
  8
250
  6
CONTINUOUS
 10
106.0285358733333
 20
-22.77
 30
0.0
 11
106.40020254
 21
-25.0
 31
0.0
  0
LINE
  5
472D
  8
250
  6
CONTINUOUS
 10
106.40020254
 20
-25.0
 30
0.0
 11
106.40020254
 21
-22.77
 31
0.0
  0
LINE
  5
473C
  8
250
  6
CONTINUOUS
 10
89.400000000000034
 20
-9.5250000000001975
 30
0.0
 11
100.40020254
 21
-9.5250000000001975
 31
0.0
  0
LINE
  5
473D
  8
250
  6
CONTINUOUS
 10
99.028535873333354
 20
-7.2950000000001944
 30
0.0
 11
99.400202540000024
 21
-9.5250000000001975
 31
0.0
  0
LINE
  5
473E
  8
250
  6
CONTINUOUS
 10
99.771869206666693
 20
-7.2950000000001944
 30
0.0
 11
99.400202540000024
 21
-9.5250000000001975
 31
0.0
  0
LINE
  5
473F
  8
250
  6
CONTINUOUS
 10
99.400202540000024
 20
-9.5250000000001975
 30
0.0
 11
99.400202540000024
 21
-7.2950000000001944
 31
0.0
  0
LINE
  5
4740
  8
240
  6
CONTINUOUS
 10
26.99999999999989
 20
-31.50000000000043
 30
0.0
 11
26.99999999999989
 21
-27.350000000000009
 31
0.0
  0
LINE
  5
4741
  8
240
  6
CONTINUOUS
 10
-65.400000000000119
 20
-12.68750000000003
 30
0.0
 11
-65.400000000000091
 21
12.687500000000201
 31
0.0
  0
LINE
  5
4742
  8
240
  6
CONTINUOUS
 10
0.9999999999997442
 20
-31.499999999999631
 30
0.0
 11
0.9999999999998575
 21
-22.225000000000051
 31
0.0
  0
LINE
  5
4743
  8
241
  6
CONTINUOUS
 10
-0.0000000000000853
 20
-22.225000000000001
 30
0.0
 11
0.0000000000000853
 21
22.225000000000119
 31
0.0
  0
LINE
  5
4744
  8
240
  6
CONTINUOUS
 10
-0.0000000000001137
 20
-22.225000000000001
 30
0.0
 11
-65.400000000000119
 21
-12.68750000000003
 31
0.0
  0
LINE
  5
4745
  8
240
  6
CONTINUOUS
 10
26.99999999999989
 20
-31.50000000000043
 30
0.0
 11
21.634494347333309
 21
-31.500000000000711
 31
0.0
  0
LINE
  5
4746
  8
243
  6
HIDDEN2
 10
22.99999999999989
 20
-22.499999999999972
 30
0.0
 11
22.99999999999989
 21
-31.499999999999972
 31
0.0
  0
LINE
  5
4747
  8
240
  6
CONTINUOUS
 10
0.9999999999997442
 20
-31.499999999999631
 30
0.0
 11
11.565505652666101
 21
-31.500000000000309
 31
0.0
  0
LINE
  5
4748
  8
243
  6
HIDDEN2
 10
22.99999999999989
 20
-22.499999999999972
 30
0.0
 11
0.9999999999998864
 21
-22.499999999999972
 31
0.0
  0
LINE
  5
4749
  8
240
  6
CONTINUOUS
 10
14.45225699861486
 20
-26.499999999999801
 30
0.0
 11
11.565505652666239
 21
-31.50000000000043
 31
0.0
  0
LINE
  5
474A
  8
240
  6
CONTINUOUS
 10
18.747743001385398
 20
-26.500000000000028
 30
0.0
 11
21.634494347334339
 21
-31.50000000000043
 31
0.0
  0
LINE
  5
474B
  8
240
  6
CONTINUOUS
 10
14.45225699861453
 20
-26.49999999999952
 30
0.0
 11
18.747743001385398
 21
-26.500000000000028
 31
0.0
  0
LINE
  5
474C
  8
241
  6
CONTINUOUS
 10
11.565505652666101
 20
31.50000000000043
 30
0.0
 11
11.565505652666239
 21
-31.50000000000043
 31
0.0
  0
LINE
  5
474D
  8
241
  6
CONTINUOUS
 10
14.45225699861453
 20
-26.49999999999952
 30
0.0
 11
14.452256998614409
 21
26.4999999999994
 31
0.0
  0
LINE
  5
474E
  8
241
  6
CONTINUOUS
 10
18.747743001385292
 20
-26.499999999999861
 30
0.0
 11
18.747743001385398
 21
26.499999999999972
 31
0.0
  0
LINE
  5
474F
  8
241
  6
CONTINUOUS
 10
21.634494347333309
 20
-31.500000000000711
 30
0.0
 11
21.634494347333369
 21
31.500000000000661
 31
0.0
  0
LINE
  5
4750
  8
240
  6
CONTINUOUS
 10
-0.0000000000000853
 20
-22.225000000000001
 30
0.0
 11
0.9999999999998575
 21
-22.225000000000051
 31
0.0
  0
LINE
  5
4751
  8
241
  6
CONTINUOUS
 10
0.9999999999998575
 20
-22.22499999999982
 30
0.0
 11
0.9999999999998575
 21
22.22499999999982
 31
0.0
  0
LINE
  5
4752
  8
240
  6
CONTINUOUS
 10
0.9999999999998293
 20
31.499999999999691
 30
0.0
 11
0.9999999999999149
 21
22.225000000000051
 31
0.0
  0
LINE
  5
4753
  8
240
  6
CONTINUOUS
 10
-0.0000000000000568
 20
22.225000000000001
 30
0.0
 11
-65.400000000000091
 21
12.687500000000201
 31
0.0
  0
LINE
  5
4754
  8
240
  6
CONTINUOUS
 10
26.99999999999994
 20
31.50000000000038
 30
0.0
 11
21.634494347333369
 21
31.500000000000711
 31
0.0
  0
LINE
  5
4755
  8
243
  6
HIDDEN2
 10
22.99999999999994
 20
22.499999999999918
 30
0.0
 11
23.0
 21
31.499999999999911
 31
0.0
  0
LINE
  5
4756
  8
240
  6
CONTINUOUS
 10
0.9999999999998293
 20
31.499999999999691
 30
0.0
 11
11.565505652666189
 21
31.50000000000038
 31
0.0
  0
LINE
  5
4757
  8
243
  6
HIDDEN2
 10
22.99999999999994
 20
22.499999999999918
 30
0.0
 11
0.9999999999999431
 21
22.500000000000028
 31
0.0
  0
LINE
  5
4758
  8
240
  6
CONTINUOUS
 10
14.452256998614979
 20
26.499999999999801
 30
0.0
 11
11.56550565266633
 21
31.50000000000043
 31
0.0
  0
LINE
  5
4759
  8
240
  6
CONTINUOUS
 10
18.747743001385508
 20
26.500000000000028
 30
0.0
 11
21.634494347334449
 21
31.50000000000038
 31
0.0
  0
LINE
  5
475A
  8
240
  6
CONTINUOUS
 10
14.45225699861459
 20
26.49999999999946
 30
0.0
 11
18.747743001385508
 21
26.500000000000028
 31
0.0
  0
LINE
  5
475B
  8
240
  6
CONTINUOUS
 10
-0.0000000000000284
 20
22.225000000000051
 30
0.0
 11
0.9999999999999149
 21
22.225000000000051
 31
0.0
  0
LINE
  5
475C
  8
247
  6
CONTINUOUS
 10
7.999999999999857
 20
-18.250000000069999
 30
0.0
 11
7.999999999999857
 21
-11.557692308029999
 31
0.0
  0
ARC
  5
475D
  8
247
  6
CONTINUOUS
 10
6.2500000000698321
 20
-18.250000000069999
 30
0.0
 40
1.7499999999299991
 50
180.0
 51
0.0
  0
ARC
  5
475E
  8
247
  6
CONTINUOUS
 10
6.2500000000698321
 20
-11.557692308029999
 30
0.0
 40
1.7499999999299991
 50
0.0
 51
180.0
  0
LINE
  5
475F
  8
247
  6
CONTINUOUS
 10
4.5000000001398632
 20
-17.384615384719979
 30
0.0
 11
7.5000000000198659
 21
-18.244851541961989
 31
0.0
  0
LINE
  5
4760
  8
247
  6
CONTINUOUS
 10
5.923076923159865
 20
-16.484983818335792
 30
0.0
 11
5.923076923159865
 21
-17.792676125975809
 31
0.0
  0
ARC
  5
4761
  8
247
  6
CONTINUOUS
 10
5.0495986677028384
 20
-16.14514381608976
 30
0.0
 40
0.5538165441895349
 50
72.997889675291773
 51
172.92416621851359
  0
ARC
  5
4762
  8
247
  6
CONTINUOUS
 10
4.9360330444656313
 20
-16.56687832302876
 30
0.0
 40
0.9904354236226808
 50
4.7429368522022122
 51
73.849226273266297
1001
GENIUS_GENOBJ-N-FIL_13
1002
{
1000
OWNER
1000
GEN
1002
}
1001
GENIUS_GENODEF_13
1002
{
1000
HIER
1070
     0
1002
}
1002
{
1000
MANEDIT
1070
     0
1002
}
1002
{
1000
NOSEL
1070
     0
1002
}
1002
{
1000
BEHIND
1070
     0
1002
}
1002
{
1000
OTHER
1070
     0
1002
}
1002
{
1000
REACTOR
1002
}
  0
LINE
  5
4763
  8
247
  6
CONTINUOUS
 10
7.5000000000198659
 20
-16.937159234322021
 30
0.0
 11
7.5000000000198659
 21
-18.244851541961989
 31
0.0
  0
LINE
  5
4764
  8
247
  6
CONTINUOUS
 10
4.5000000001398632
 20
-17.384615384719979
 30
0.0
 11
4.5000000001398632
 21
-16.07692307707995
 31
0.0
  0
ARC
  5
4765
  8
247
  6
CONTINUOUS
 10
6.4820242326653954
 20
-16.56091963654697
 30
0.0
 40
0.5640818586791229
 50
65.990941652528889
 51
172.26344345906909
  0
ARC
  5
4766
  8
247
  6
CONTINUOUS
 10
6.4874290391864227
 20
-17.03826268534706
 30
0.0
 40
1.0176059446230981
 50
5.701985164259785
 51
77.277338436822376
1001
GENIUS_GENOBJ-N-FIL_13
1002
{
1000
OWNER
1000
GEN
1002
}
1001
GENIUS_GENODEF_13
1002
{
1000
HIER
1070
     0
1002
}
1002
{
1000
MANEDIT
1070
     0
1002
}
1002
{
1000
NOSEL
1070
     0
1002
}
1002
{
1000
BEHIND
1070
     0
1002
}
1002
{
1000
OTHER
1070
     0
1002
}
1002
{
1000
REACTOR
1002
}
  0
LINE
  5
4767
  8
247
  6
CONTINUOUS
 10
7.5000000000198659
 20
-15.283313080541999
 30
0.0
 11
4.5000000001398632
 21
-14.423076923299989
 31
0.0
  0
LINE
  5
4768
  8
247
  6
CONTINUOUS
 10
4.5000000001398632
 20
-12.00000000032
 30
0.0
 11
4.5000000001398632
 21
-12.565736619456599
 31
0.0
  0
LINE
  5
4769
  8
247
  6
CONTINUOUS
 10
7.5000000000198659
 20
-13.461538461799959
 30
0.0
 11
7.5000000000198659
 21
-12.846153846439989
 31
0.0
  0
ARC
  5
476A
  8
247
  6
CONTINUOUS
 10
6.5832851359732274
 20
-11.708791209122831
 30
0.0
 40
2.2526500823422122
 50
202.35948814152911
 51
254.99324854284609
  0
ARC
  5
476B
  8
247
  6
CONTINUOUS
 10
5.3083126551943831
 20
-12.374069479213199
 30
0.0
 40
0.8906723995727782
 50
94.994589319075317
 51
155.1663289573039
1001
GENIUS_GENOBJ-N-FIL_13
1002
{
1000
OWNER
1000
GEN
1002
}
1001
GENIUS_GENODEF_13
1002
{
1000
HIER
1070
     0
1002
}
1002
{
1000
MANEDIT
1070
     0
1002
}
1002
{
1000
NOSEL
1070
     0
1002
}
1002
{
1000
BEHIND
1070
     0
1002
}
1002
{
1000
OTHER
1070
     0
1002
}
1002
{
1000
REACTOR
1002
}
  0
ARC
  5
476C
  8
247
  6
CONTINUOUS
 10
6.1601458886676381
 20
-13.22645888621255
 30
0.0
 40
1.392781735586712
 50
15.8460965557808
 51
82.325137004169065
  0
ARC
  5
476D
  8
247
  6
CONTINUOUS
 10
6.4592434315271401
 20
-12.64221272584038
 30
0.0
 40
1.324563662670287
 50
249.7136016704969
 51
321.78874565640928
1001
GENIUS_GENOBJ-N-FIL_13
1002
{
1000
OWNER
1000
GEN
1002
}
1001
GENIUS_GENODEF_13
1002
{
1000
HIER
1070
     0
1002
}
1002
{
1000
MANEDIT
1070
     0
1002
}
1002
{
1000
NOSEL
1070
     0
1002
}
1002
{
1000
BEHIND
1070
     0
1002
}
1002
{
1000
OTHER
1070
     0
1002
}
1002
{
1000
REACTOR
1002
}
  0
LINE
  5
476E
  8
247
  6
CONTINUOUS
 10
6.3461538462198321
 20
-12.53846153876
 30
0.0
 11
6.3461538462198321
 21
-11.84615384648
 31
0.0
  0
LINE
  5
476F
  8
250
  6
CONTINUOUS
 10
-34.1368727750733
 20
-19.201653317105951
 30
0.0
 11
-32.700000000000102
 21
-17.456249999999979
 31
0.0
  0
LINE
  5
4770
  8
250
  6
CONTINUOUS
 10
-33.49312722492688
 20
-19.57331998377262
 30
0.0
 11
-32.700000000000102
 21
-17.456249999999979
 31
0.0
  0
LINE
  5
4771
  8
250
  6
CONTINUOUS
 10
-32.700000000000102
 20
-17.456249999999979
 30
0.0
 11
-33.815000000000111
 21
-19.387486650439278
 31
0.0
  0
LINE
  5
4772
  8
250
  6
CONTINUOUS
 10
-33.815000000000111
 20
-19.387486650439278
 30
0.0
 11
-38.36313006819131
 21
-27.265079007978191
 31
0.0
1001
ACAD
1000
DSTYLE
1002
{
1070
   140
1040
4.0
1070
   178
1070
   256
1002
}
  0
TEXT
  5
4773
  8
250
  6
CONTINUOUS
 10
-53.82979673485795
 20
-26.265079007978191
 30
0.0
 40
2.799999999999998
  1
BBT40
  7
YOKO
1001
ITEMNAME
1000
LNSP3
  0
LINE
  5
4774
  8
250
  6
CONTINUOUS
 10
-38.36313006819131
 20
-27.265079007978191
 30
0.0
 11
-56.096463401524652
 21
-27.265079007978191
 31
0.0
1001
ITEMNAME
1000
LNSP2
  0
LINE
  5
4775
  8
247
  6
CONTINUOUS
 10
4.500000000139833
 20
-18.250000000069999
 30
0.0
 11
4.500000000139833
 21
-17.576923077020041
 31
0.0
  0
LINE
  5
4776
  8
240
  6
CONTINUOUS
 10
26.99999999999978
 20
27.350000000000001
 30
0.0
 11
26.999999999999769
 21
31.50000000000038
 31
0.0
  0
LINE
  5
4777
  8
241
  6
CONTINUOUS
 10
26.99999999999978
 20
27.350000000000001
 30
0.0
 11
26.99999999999989
 21
-27.350000000000001
 31
0.0
  0
LINE
  5
4779
  8
240
  6
CONTINUOUS
 10
45.100000000001991
 20
-25.49999999999994
 30
0.0
 11
45.100000000001991
 21
-25.34999999999846
 31
0.0
  0
LINE
  5
477C
  8
240
  6
CONTINUOUS
 10
45.100000000001991
 20
25.5
 30
0.0
 11
45.100000000001991
 21
25.349999999998431
 31
0.0
  0
LINE
  5
477E
  8
243
  6
HIDDEN2
 10
24.766025403784429
 20
9.5250000000001531
 30
0.0
 11
88.900000000000105
 21
9.5250000000000696
 31
0.0
1001
GRPNAME
1000
PASTMD1D
  0
LINE
  5
477F
  8
240
  6
CONTINUOUS
 10
45.100000000002737
 20
-25.34999999999846
 30
0.0
 11
49.099999999998708
 21
-25.350000000000129
 31
0.0
  0
LINE
  5
4780
  8
240
  6
CONTINUOUS
 10
82.358328632277477
 20
-23.899271249506011
 30
0.0
 11
75.666025403789547
 21
-24.249999999999371
 31
0.0
  0
POLYLINE
  5
4781
  8
241
  6
CONTINUOUS
 66
     1
 10
0.0
 20
0.0
 30
0.0
 70
     8
  0
VERTEX
  5
4782
  8
241
  6
CONTINUOUS
 10
73.200000000000074
 20
-14.4712
 30
0.0
 70
    32
  0
VERTEX
  5
4783
  8
241
  6
CONTINUOUS
 10
73.26140000000008
 20
-14.470499999999999
 30
0.0
 70
    32
  0
VERTEX
  5
4784
  8
241
  6
CONTINUOUS
 10
73.322700000000083
 20
-14.4686
 30
0.0
 70
    32
  0
VERTEX
  5
4785
  8
241
  6
CONTINUOUS
 10
73.383900000000082
 20
-14.465299999999999
 30
0.0
 70
    32
  0
VERTEX
  5
4786
  8
241
  6
CONTINUOUS
 10
73.445000000000107
 20
-14.460699999999999
 30
0.0
 70
    32
  0
VERTEX
  5
4787
  8
241
  6
CONTINUOUS
 10
73.5060000000001
 20
-14.4549
 30
0.0
 70
    32
  0
VERTEX
  5
4788
  8
241
  6
CONTINUOUS
 10
73.5668000000001
 20
-14.447699999999999
 30
0.0
 70
    32
  0
VERTEX
  5
4789
  8
241
  6
CONTINUOUS
 10
73.62740000000008
 20
-14.439299999999999
 30
0.0
 70
    32
  0
VERTEX
  5
478A
  8
241
  6
CONTINUOUS
 10
73.687700000000092
 20
-14.429600000000001
 30
0.0
 70
    32
  0
VERTEX
  5
478B
  8
241
  6
CONTINUOUS
 10
73.747800000000083
 20
-14.4186
 30
0.0
 70
    32
  0
VERTEX
  5
478C
  8
241
  6
CONTINUOUS
 10
73.807500000000104
 20
-14.4063
 30
0.0
 70
    32
  0
VERTEX
  5
478D
  8
241
  6
CONTINUOUS
 10
73.866800000000083
 20
-14.3927
 30
0.0
 70
    32
  0
VERTEX
  5
478E
  8
241
  6
CONTINUOUS
 10
73.925700000000091
 20
-14.3779
 30
0.0
 70
    32
  0
VERTEX
  5
478F
  8
241
  6
CONTINUOUS
 10
73.984200000000072
 20
-14.3619
 30
0.0
 70
    32
  0
VERTEX
  5
4790
  8
241
  6
CONTINUOUS
 10
74.042200000000079
 20
-14.3446
 30
0.0
 70
    32
  0
VERTEX
  5
4791
  8
241
  6
CONTINUOUS
 10
74.099700000000084
 20
-14.3261
 30
0.0
 70
    32
  0
VERTEX
  5
4792
  8
241
  6
CONTINUOUS
 10
74.156700000000086
 20
-14.3064
 30
0.0
 70
    32
  0
VERTEX
  5
4793
  8
241
  6
CONTINUOUS
 10
74.213100000000082
 20
-14.285399999999999
 30
0.0
 70
    32
  0
VERTEX
  5
4794
  8
241
  6
CONTINUOUS
 10
74.268900000000087
 20
-14.263299999999999
 30
0.0
 70
    32
  0
VERTEX
  5
4795
  8
241
  6
CONTINUOUS
 10
74.324000000000083
 20
-14.24
 30
0.0
 70
    32
  0
VERTEX
  5
4796
  8
241
  6
CONTINUOUS
 10
74.378500000000074
 20
-14.2155
 30
0.0
 70
    32
  0
VERTEX
  5
4797
  8
241
  6
CONTINUOUS
 10
74.432200000000094
 20
-14.1899
 30
0.0
 70
    32
  0
VERTEX
  5
4798
  8
241
  6
CONTINUOUS
 10
74.48530000000008
 20
-14.1631
 30
0.0
 70
    32
  0
VERTEX
  5
4799
  8
241
  6
CONTINUOUS
 10
74.537500000000094
 20
-14.135300000000001
 30
0.0
 70
    32
  0
VERTEX
  5
479A
  8
241
  6
CONTINUOUS
 10
74.588900000000081
 20
-14.106299999999999
 30
0.0
 70
    32
  0
VERTEX
  5
479B
  8
241
  6
CONTINUOUS
 10
74.639500000000083
 20
-14.0762
 30
0.0
 70
    32
  0
VERTEX
  5
479C
  8
241
  6
CONTINUOUS
 10
74.689200000000085
 20
-14.0451
 30
0.0
 70
    32
  0
VERTEX
  5
479D
  8
241
  6
CONTINUOUS
 10
74.738100000000088
 20
-14.0129
 30
0.0
 70
    32
  0
VERTEX
  5
479E
  8
241
  6
CONTINUOUS
 10
74.786000000000101
 20
-13.979699999999999
 30
0.0
 70
    32
  0
VERTEX
  5
479F
  8
241
  6
CONTINUOUS
 10
74.83290000000008
 20
-13.945499999999999
 30
0.0
 70
    32
  0
VERTEX
  5
47A0
  8
241
  6
CONTINUOUS
 10
74.878900000000101
 20
-13.910299999999999
 30
0.0
 70
    32
  0
VERTEX
  5
47A1
  8
241
  6
CONTINUOUS
 10
74.923900000000089
 20
-13.8742
 30
0.0
 70
    32
  0
VERTEX
  5
47A2
  8
241
  6
CONTINUOUS
 10
74.967800000000082
 20
-13.837
 30
0.0
 70
    32
  0
VERTEX
  5
47A3
  8
241
  6
CONTINUOUS
 10
75.010600000000096
 20
-13.798999999999999
 30
0.0
 70
    32
  0
VERTEX
  5
47A4
  8
241
  6
CONTINUOUS
 10
75.052400000000091
 20
-13.7601
 30
0.0
 70
    32
  0
VERTEX
  5
47A5
  8
241
  6
CONTINUOUS
 10
75.093000000000075
 20
-13.7203
 30
0.0
 70
    32
  0
VERTEX
  5
47A6
  8
241
  6
CONTINUOUS
 10
75.132500000000107
 20
-13.679600000000001
 30
0.0
 70
    32
  0
VERTEX
  5
47A7
  8
241
  6
CONTINUOUS
 10
75.170900000000074
 20
-13.6381
 30
0.0
 70
    32
  0
VERTEX
  5
47A8
  8
241
  6
CONTINUOUS
 10
75.208000000000084
 20
-13.595800000000001
 30
0.0
 70
    32
  0
VERTEX
  5
47A9
  8
241
  6
CONTINUOUS
 10
75.244000000000099
 20
-13.5528
 30
0.0
 70
    32
  0
VERTEX
  5
47AA
  8
241
  6
CONTINUOUS
 10
75.2787000000001
 20
-13.509
 30
0.0
 70
    32
  0
VERTEX
  5
47AB
  8
241
  6
CONTINUOUS
 10
75.312100000000072
 20
-13.464399999999999
 30
0.0
 70
    32
  0
VERTEX
  5
47AC
  8
241
  6
CONTINUOUS
 10
75.344300000000089
 20
-13.4192
 30
0.0
 70
    32
  0
VERTEX
  5
47AD
  8
241
  6
CONTINUOUS
 10
75.375200000000092
 20
-13.3733
 30
0.0
 70
    32
  0
VERTEX
  5
47AE
  8
241
  6
CONTINUOUS
 10
75.40480000000008
 20
-13.326700000000001
 30
0.0
 70
    32
  0
VERTEX
  5
47AF
  8
241
  6
CONTINUOUS
 10
75.433100000000081
 20
-13.279500000000001
 30
0.0
 70
    32
  0
VERTEX
  5
47B0
  8
241
  6
CONTINUOUS
 10
75.460000000000093
 20
-13.2318
 30
0.0
 70
    32
  0
VERTEX
  5
47B1
  8
241
  6
CONTINUOUS
 10
75.485500000000087
 20
-13.1835
 30
0.0
 70
    32
  0
VERTEX
  5
47B2
  8
241
  6
CONTINUOUS
 10
75.50970000000008
 20
-13.134600000000001
 30
0.0
 70
    32
  0
VERTEX
  5
47B3
  8
241
  6
CONTINUOUS
 10
75.532500000000084
 20
-13.0853
 30
0.0
 70
    32
  0
VERTEX
  5
47B4
  8
241
  6
CONTINUOUS
 10
75.553900000000084
 20
-13.035500000000001
 30
0.0
 70
    32
  0
VERTEX
  5
47B5
  8
241
  6
CONTINUOUS
 10
75.573800000000091
 20
-12.985300000000001
 30
0.0
 70
    32
  0
VERTEX
  5
47B6
  8
241
  6
CONTINUOUS
 10
75.592400000000112
 20
-12.9346
 30
0.0
 70
    32
  0
VERTEX
  5
47B7
  8
241
  6
CONTINUOUS
 10
75.609400000000079
 20
-12.883599999999999
 30
0.0
 70
    32
  0
VERTEX
  5
47B8
  8
241
  6
CONTINUOUS
 10
75.625100000000089
 20
-12.8322
 30
0.0
 70
    32
  0
VERTEX
  5
47B9
  8
241
  6
CONTINUOUS
 10
75.639300000000105
 20
-12.7805
 30
0.0
 70
    32
  0
VERTEX
  5
47BA
  8
241
  6
CONTINUOUS
 10
75.6520000000001
 20
-12.7285
 30
0.0
 70
    32
  0
VERTEX
  5
47BB
  8
241
  6
CONTINUOUS
 10
75.663200000000074
 20
-12.676299999999999
 30
0.0
 70
    32
  0
VERTEX
  5
47BC
  8
241
  6
CONTINUOUS
 10
75.672900000000098
 20
-12.623799999999999
 30
0.0
 70
    32
  0
VERTEX
  5
47BD
  8
241
  6
CONTINUOUS
 10
75.681200000000075
 20
-12.571099999999999
 30
0.0
 70
    32
  0
VERTEX
  5
47BE
  8
241
  6
CONTINUOUS
 10
75.688000000000073
 20
-12.5183
 30
0.0
 70
    32
  0
VERTEX
  5
47BF
  8
241
  6
CONTINUOUS
 10
75.693200000000076
 20
-12.465400000000001
 30
0.0
 70
    32
  0
VERTEX
  5
47C0
  8
241
  6
CONTINUOUS
 10
75.697000000000074
 20
-12.4123
 30
0.0
 70
    32
  0
VERTEX
  5
47C1
  8
241
  6
CONTINUOUS
 10
75.699200000000076
 20
-12.3592
 30
0.0
 70
    32
  0
VERTEX
  5
47C2
  8
241
  6
CONTINUOUS
 10
75.700000000000074
 20
-12.306100000000001
 30
0.0
 70
    32
  0
VERTEX
  5
47C3
  8
241
  6
CONTINUOUS
 10
75.699200000000076
 20
-12.253
 30
0.0
 70
    32
  0
VERTEX
  5
47C4
  8
241
  6
CONTINUOUS
 10
75.697000000000074
 20
-12.1999
 30
0.0
 70
    32
  0
VERTEX
  5
47C5
  8
241
  6
CONTINUOUS
 10
75.693200000000076
 20
-12.146800000000001
 30
0.0
 70
    32
  0
VERTEX
  5
47C6
  8
241
  6
CONTINUOUS
 10
75.688000000000073
 20
-12.0939
 30
0.0
 70
    32
  0
VERTEX
  5
47C7
  8
241
  6
CONTINUOUS
 10
75.681200000000075
 20
-12.0411
 30
0.0
 70
    32
  0
VERTEX
  5
47C8
  8
241
  6
CONTINUOUS
 10
75.672900000000098
 20
-11.9884
 30
0.0
 70
    32
  0
VERTEX
  5
47C9
  8
241
  6
CONTINUOUS
 10
75.663200000000074
 20
-11.936
 30
0.0
 70
    32
  0
VERTEX
  5
47CA
  8
241
  6
CONTINUOUS
 10
75.6520000000001
 20
-11.883699999999999
 30
0.0
 70
    32
  0
VERTEX
  5
47CB
  8
241
  6
CONTINUOUS
 10
75.639300000000105
 20
-11.8317
 30
0.0
 70
    32
  0
VERTEX
  5
47CC
  8
241
  6
CONTINUOUS
 10
75.625100000000089
 20
-11.779999999999999
 30
0.0
 70
    32
  0
VERTEX
  5
47CD
  8
241
  6
CONTINUOUS
 10
75.609400000000079
 20
-11.7287
 30
0.0
 70
    32
  0
VERTEX
  5
47CE
  8
241
  6
CONTINUOUS
 10
75.592400000000112
 20
-11.6776
 30
0.0
 70
    32
  0
VERTEX
  5
47CF
  8
241
  6
CONTINUOUS
 10
75.573800000000091
 20
-11.627000000000001
 30
0.0
 70
    32
  0
VERTEX
  5
47D0
  8
241
  6
CONTINUOUS
 10
75.553900000000084
 20
-11.576700000000001
 30
0.0
 70
    32
  0
VERTEX
  5
47D1
  8
241
  6
CONTINUOUS
 10
75.532500000000084
 20
-11.526899999999999
 30
0.0
 70
    32
  0
VERTEX
  5
47D2
  8
241
  6
CONTINUOUS
 10
75.50970000000008
 20
-11.477600000000001
 30
0.0
 70
    32
  0
VERTEX
  5
47D3
  8
241
  6
CONTINUOUS
 10
75.485500000000087
 20
-11.428699999999999
 30
0.0
 70
    32
  0
VERTEX
  5
47D4
  8
241
  6
CONTINUOUS
 10
75.460000000000093
 20
-11.3804
 30
0.0
 70
    32
  0
VERTEX
  5
47D5
  8
241
  6
CONTINUOUS
 10
75.433100000000081
 20
-11.332700000000001
 30
0.0
 70
    32
  0
VERTEX
  5
47D6
  8
241
  6
CONTINUOUS
 10
75.40480000000008
 20
-11.285500000000001
 30
0.0
 70
    32
  0
VERTEX
  5
47D7
  8
241
  6
CONTINUOUS
 10
75.375200000000092
 20
-11.239000000000001
 30
0.0
 70
    32
  0
VERTEX
  5
47D8
  8
241
  6
CONTINUOUS
 10
75.344300000000089
 20
-11.193
 30
0.0
 70
    32
  0
VERTEX
  5
47D9
  8
241
  6
CONTINUOUS
 10
75.312100000000072
 20
-11.1478
 30
0.0
 70
    32
  0
VERTEX
  5
47DA
  8
241
  6
CONTINUOUS
 10
75.2787000000001
 20
-11.103300000000001
 30
0.0
 70
    32
  0
VERTEX
  5
47DB
  8
241
  6
CONTINUOUS
 10
75.244000000000099
 20
-11.0594
 30
0.0
 70
    32
  0
VERTEX
  5
47DC
  8
241
  6
CONTINUOUS
 10
75.208000000000084
 20
-11.016400000000001
 30
0.0
 70
    32
  0
VERTEX
  5
47DD
  8
241
  6
CONTINUOUS
 10
75.170900000000074
 20
-10.9741
 30
0.0
 70
    32
  0
VERTEX
  5
47DE
  8
241
  6
CONTINUOUS
 10
75.132500000000107
 20
-10.932600000000001
 30
0.0
 70
    32
  0
VERTEX
  5
47DF
  8
241
  6
CONTINUOUS
 10
75.093000000000075
 20
-10.8919
 30
0.0
 70
    32
  0
VERTEX
  5
47E0
  8
241
  6
CONTINUOUS
 10
75.052400000000091
 20
-10.8521
 30
0.0
 70
    32
  0
VERTEX
  5
47E1
  8
241
  6
CONTINUOUS
 10
75.010600000000096
 20
-10.8132
 30
0.0
 70
    32
  0
VERTEX
  5
47E2
  8
241
  6
CONTINUOUS
 10
74.967800000000082
 20
-10.7752
 30
0.0
 70
    32
  0
VERTEX
  5
47E3
  8
241
  6
CONTINUOUS
 10
74.923900000000089
 20
-10.738099999999999
 30
0.0
 70
    32
  0
VERTEX
  5
47E4
  8
241
  6
CONTINUOUS
 10
74.878900000000101
 20
-10.7019
 30
0.0
 70
    32
  0
VERTEX
  5
47E5
  8
241
  6
CONTINUOUS
 10
74.83290000000008
 20
-10.666700000000001
 30
0.0
 70
    32
  0
VERTEX
  5
47E6
  8
241
  6
CONTINUOUS
 10
74.786000000000101
 20
-10.6325
 30
0.0
 70
    32
  0
VERTEX
  5
47E7
  8
241
  6
CONTINUOUS
 10
74.738100000000088
 20
-10.599299999999999
 30
0.0
 70
    32
  0
VERTEX
  5
47E8
  8
241
  6
CONTINUOUS
 10
74.689200000000085
 20
-10.5671
 30
0.0
 70
    32
  0
VERTEX
  5
47E9
  8
241
  6
CONTINUOUS
 10
74.639500000000083
 20
-10.536
 30
0.0
 70
    32
  0
VERTEX
  5
47EA
  8
241
  6
CONTINUOUS
 10
74.588900000000081
 20
-10.5059
 30
0.0
 70
    32
  0
VERTEX
  5
47EB
  8
241
  6
CONTINUOUS
 10
74.537500000000094
 20
-10.476900000000001
 30
0.0
 70
    32
  0
VERTEX
  5
47EC
  8
241
  6
CONTINUOUS
 10
74.48530000000008
 20
-10.4491
 30
0.0
 70
    32
  0
VERTEX
  5
47ED
  8
241
  6
CONTINUOUS
 10
74.432200000000094
 20
-10.4223
 30
0.0
 70
    32
  0
VERTEX
  5
47EE
  8
241
  6
CONTINUOUS
 10
74.378500000000074
 20
-10.396699999999999
 30
0.0
 70
    32
  0
VERTEX
  5
47EF
  8
241
  6
CONTINUOUS
 10
74.324000000000083
 20
-10.372199999999999
 30
0.0
 70
    32
  0
VERTEX
  5
47F0
  8
241
  6
CONTINUOUS
 10
74.268900000000087
 20
-10.3489
 30
0.0
 70
    32
  0
VERTEX
  5
47F1
  8
241
  6
CONTINUOUS
 10
74.213100000000082
 20
-10.3268
 30
0.0
 70
    32
  0
VERTEX
  5
47F2
  8
241
  6
CONTINUOUS
 10
74.156700000000086
 20
-10.305899999999999
 30
0.0
 70
    32
  0
VERTEX
  5
47F3
  8
241
  6
CONTINUOUS
 10
74.099700000000084
 20
-10.286099999999999
 30
0.0
 70
    32
  0
VERTEX
  5
47F4
  8
241
  6
CONTINUOUS
 10
74.042200000000079
 20
-10.2676
 30
0.0
 70
    32
  0
VERTEX
  5
47F5
  8
241
  6
CONTINUOUS
 10
73.984200000000072
 20
-10.250299999999999
 30
0.0
 70
    32
  0
VERTEX
  5
47F6
  8
241
  6
CONTINUOUS
 10
73.925700000000091
 20
-10.234299999999999
 30
0.0
 70
    32
  0
VERTEX
  5
47F7
  8
241
  6
CONTINUOUS
 10
73.866800000000083
 20
-10.2195
 30
0.0
 70
    32
  0
VERTEX
  5
47F8
  8
241
  6
CONTINUOUS
 10
73.807500000000104
 20
-10.2059
 30
0.0
 70
    32
  0
VERTEX
  5
47F9
  8
241
  6
CONTINUOUS
 10
73.747800000000083
 20
-10.1937
 30
0.0
 70
    32
  0
VERTEX
  5
47FA
  8
241
  6
CONTINUOUS
 10
73.687700000000092
 20
-10.182600000000001
 30
0.0
 70
    32
  0
VERTEX
  5
47FB
  8
241
  6
CONTINUOUS
 10
73.62740000000008
 20
-10.1729
 30
0.0
 70
    32
  0
VERTEX
  5
47FC
  8
241
  6
CONTINUOUS
 10
73.5668000000001
 20
-10.1645
 30
0.0
 70
    32
  0
VERTEX
  5
47FD
  8
241
  6
CONTINUOUS
 10
73.5060000000001
 20
-10.157299999999999
 30
0.0
 70
    32
  0
VERTEX
  5
47FE
  8
241
  6
CONTINUOUS
 10
73.445000000000107
 20
-10.1515
 30
0.0
 70
    32
  0
VERTEX
  5
47FF
  8
241
  6
CONTINUOUS
 10
73.383900000000082
 20
-10.1469
 30
0.0
 70
    32
  0
VERTEX
  5
4800
  8
241
  6
CONTINUOUS
 10
73.322700000000083
 20
-10.143700000000001
 30
0.0
 70
    32
  0
VERTEX
  5
4801
  8
241
  6
CONTINUOUS
 10
73.26140000000008
 20
-10.1417
 30
0.0
 70
    32
  0
VERTEX
  5
4802
  8
241
  6
CONTINUOUS
 10
73.200000000000074
 20
-10.141
 30
0.0
 70
    32
  0
SEQEND
  5
4803
  8
241
  6
CONTINUOUS
  0
POLYLINE
  5
4804
  8
241
  6
CONTINUOUS
 66
     1
 10
0.0
 20
0.0
 30
0.0
 70
     8
  0
VERTEX
  5
4805
  8
241
  6
CONTINUOUS
 10
67.200000000000074
 20
-10.141
 30
0.0
 70
    32
  0
VERTEX
  5
4806
  8
241
  6
CONTINUOUS
 10
67.138600000000082
 20
-10.1417
 30
0.0
 70
    32
  0
VERTEX
  5
4807
  8
241
  6
CONTINUOUS
 10
67.077300000000079
 20
-10.143700000000001
 30
0.0
 70
    32
  0
VERTEX
  5
4808
  8
241
  6
CONTINUOUS
 10
67.01610000000008
 20
-10.1469
 30
0.0
 70
    32
  0
VERTEX
  5
4809
  8
241
  6
CONTINUOUS
 10
66.955000000000084
 20
-10.1515
 30
0.0
 70
    32
  0
VERTEX
  5
480A
  8
241
  6
CONTINUOUS
 10
66.894000000000091
 20
-10.157299999999999
 30
0.0
 70
    32
  0
VERTEX
  5
480B
  8
241
  6
CONTINUOUS
 10
66.83320000000009
 20
-10.1645
 30
0.0
 70
    32
  0
VERTEX
  5
480C
  8
241
  6
CONTINUOUS
 10
66.772600000000082
 20
-10.1729
 30
0.0
 70
    32
  0
VERTEX
  5
480D
  8
241
  6
CONTINUOUS
 10
66.712300000000084
 20
-10.182600000000001
 30
0.0
 70
    32
  0
VERTEX
  5
480E
  8
241
  6
CONTINUOUS
 10
66.652200000000079
 20
-10.1937
 30
0.0
 70
    32
  0
VERTEX
  5
480F
  8
241
  6
CONTINUOUS
 10
66.592500000000101
 20
-10.2059
 30
0.0
 70
    32
  0
VERTEX
  5
4810
  8
241
  6
CONTINUOUS
 10
66.533200000000107
 20
-10.2195
 30
0.0
 70
    32
  0
VERTEX
  5
4811
  8
241
  6
CONTINUOUS
 10
66.474300000000099
 20
-10.234299999999999
 30
0.0
 70
    32
  0
VERTEX
  5
4812
  8
241
  6
CONTINUOUS
 10
66.415800000000075
 20
-10.250299999999999
 30
0.0
 70
    32
  0
VERTEX
  5
4813
  8
241
  6
CONTINUOUS
 10
66.357800000000083
 20
-10.2676
 30
0.0
 70
    32
  0
VERTEX
  5
4814
  8
241
  6
CONTINUOUS
 10
66.300300000000078
 20
-10.286099999999999
 30
0.0
 70
    32
  0
VERTEX
  5
4815
  8
241
  6
CONTINUOUS
 10
66.24330000000009
 20
-10.305899999999999
 30
0.0
 70
    32
  0
VERTEX
  5
4816
  8
241
  6
CONTINUOUS
 10
66.186900000000094
 20
-10.3268
 30
0.0
 70
    32
  0
VERTEX
  5
4817
  8
241
  6
CONTINUOUS
 10
66.131100000000103
 20
-10.3489
 30
0.0
 70
    32
  0
VERTEX
  5
4818
  8
241
  6
CONTINUOUS
 10
66.076000000000079
 20
-10.372199999999999
 30
0.0
 70
    32
  0
VERTEX
  5
4819
  8
241
  6
CONTINUOUS
 10
66.021500000000074
 20
-10.396699999999999
 30
0.0
 70
    32
  0
VERTEX
  5
481A
  8
241
  6
CONTINUOUS
 10
65.967800000000096
 20
-10.4223
 30
0.0
 70
    32
  0
VERTEX
  5
481B
  8
241
  6
CONTINUOUS
 10
65.914700000000082
 20
-10.4491
 30
0.0
 70
    32
  0
VERTEX
  5
481C
  8
241
  6
CONTINUOUS
 10
65.862500000000082
 20
-10.476900000000001
 30
0.0
 70
    32
  0
VERTEX
  5
481D
  8
241
  6
CONTINUOUS
 10
65.811100000000081
 20
-10.5059
 30
0.0
 70
    32
  0
VERTEX
  5
481E
  8
241
  6
CONTINUOUS
 10
65.760500000000079
 20
-10.536
 30
0.0
 70
    32
  0
VERTEX
  5
481F
  8
241
  6
CONTINUOUS
 10
65.710800000000091
 20
-10.5671
 30
0.0
 70
    32
  0
VERTEX
  5
4820
  8
241
  6
CONTINUOUS
 10
65.661900000000088
 20
-10.599299999999999
 30
0.0
 70
    32
  0
VERTEX
  5
4821
  8
241
  6
CONTINUOUS
 10
65.614000000000104
 20
-10.6325
 30
0.0
 70
    32
  0
VERTEX
  5
4822
  8
241
  6
CONTINUOUS
 10
65.567100000000096
 20
-10.666700000000001
 30
0.0
 70
    32
  0
VERTEX
  5
4823
  8
241
  6
CONTINUOUS
 10
65.521100000000104
 20
-10.7019
 30
0.0
 70
    32
  0
VERTEX
  5
4824
  8
241
  6
CONTINUOUS
 10
65.476100000000088
 20
-10.738099999999999
 30
0.0
 70
    32
  0
VERTEX
  5
4825
  8
241
  6
CONTINUOUS
 10
65.432200000000108
 20
-10.7752
 30
0.0
 70
    32
  0
VERTEX
  5
4826
  8
241
  6
CONTINUOUS
 10
65.389400000000094
 20
-10.8132
 30
0.0
 70
    32
  0
VERTEX
  5
4827
  8
241
  6
CONTINUOUS
 10
65.347600000000085
 20
-10.8521
 30
0.0
 70
    32
  0
VERTEX
  5
4828
  8
241
  6
CONTINUOUS
 10
65.307000000000073
 20
-10.8919
 30
0.0
 70
    32
  0
VERTEX
  5
4829
  8
241
  6
CONTINUOUS
 10
65.267500000000098
 20
-10.932600000000001
 30
0.0
 70
    32
  0
VERTEX
  5
482A
  8
241
  6
CONTINUOUS
 10
65.229100000000074
 20
-10.9741
 30
0.0
 70
    32
  0
VERTEX
  5
482B
  8
241
  6
CONTINUOUS
 10
65.192000000000093
 20
-11.016400000000001
 30
0.0
 70
    32
  0
VERTEX
  5
482C
  8
241
  6
CONTINUOUS
 10
65.156000000000091
 20
-11.0594
 30
0.0
 70
    32
  0
VERTEX
  5
482D
  8
241
  6
CONTINUOUS
 10
65.121300000000105
 20
-11.103300000000001
 30
0.0
 70
    32
  0
VERTEX
  5
482E
  8
241
  6
CONTINUOUS
 10
65.087900000000076
 20
-11.1478
 30
0.0
 70
    32
  0
VERTEX
  5
482F
  8
241
  6
CONTINUOUS
 10
65.055700000000087
 20
-11.193
 30
0.0
 70
    32
  0
VERTEX
  5
4830
  8
241
  6
CONTINUOUS
 10
65.024800000000084
 20
-11.239000000000001
 30
0.0
 70
    32
  0
VERTEX
  5
4831
  8
241
  6
CONTINUOUS
 10
64.995200000000082
 20
-11.285500000000001
 30
0.0
 70
    32
  0
VERTEX
  5
4832
  8
241
  6
CONTINUOUS
 10
64.966900000000081
 20
-11.332700000000001
 30
0.0
 70
    32
  0
VERTEX
  5
4833
  8
241
  6
CONTINUOUS
 10
64.940000000000083
 20
-11.3804
 30
0.0
 70
    32
  0
VERTEX
  5
4834
  8
241
  6
CONTINUOUS
 10
64.914500000000089
 20
-11.428699999999999
 30
0.0
 70
    32
  0
VERTEX
  5
4835
  8
241
  6
CONTINUOUS
 10
64.890300000000082
 20
-11.477600000000001
 30
0.0
 70
    32
  0
VERTEX
  5
4836
  8
241
  6
CONTINUOUS
 10
64.867500000000092
 20
-11.526899999999999
 30
0.0
 70
    32
  0
VERTEX
  5
4837
  8
241
  6
CONTINUOUS
 10
64.846100000000092
 20
-11.576700000000001
 30
0.0
 70
    32
  0
VERTEX
  5
4838
  8
241
  6
CONTINUOUS
 10
64.8262000000001
 20
-11.627000000000001
 30
0.0
 70
    32
  0
VERTEX
  5
4839
  8
241
  6
CONTINUOUS
 10
64.807600000000093
 20
-11.6776
 30
0.0
 70
    32
  0
VERTEX
  5
483A
  8
241
  6
CONTINUOUS
 10
64.790600000000083
 20
-11.7287
 30
0.0
 70
    32
  0
VERTEX
  5
483B
  8
241
  6
CONTINUOUS
 10
64.774900000000088
 20
-11.779999999999999
 30
0.0
 70
    32
  0
VERTEX
  5
483C
  8
241
  6
CONTINUOUS
 10
64.760700000000099
 20
-11.8317
 30
0.0
 70
    32
  0
VERTEX
  5
483D
  8
241
  6
CONTINUOUS
 10
64.748000000000076
 20
-11.883699999999999
 30
0.0
 70
    32
  0
VERTEX
  5
483E
  8
241
  6
CONTINUOUS
 10
64.736800000000073
 20
-11.936
 30
0.0
 70
    32
  0
VERTEX
  5
483F
  8
241
  6
CONTINUOUS
 10
64.727100000000092
 20
-11.9884
 30
0.0
 70
    32
  0
VERTEX
  5
4840
  8
241
  6
CONTINUOUS
 10
64.718800000000073
 20
-12.0411
 30
0.0
 70
    32
  0
VERTEX
  5
4841
  8
241
  6
CONTINUOUS
 10
64.712000000000074
 20
-12.0939
 30
0.0
 70
    32
  0
VERTEX
  5
4842
  8
241
  6
CONTINUOUS
 10
64.706800000000072
 20
-12.146800000000001
 30
0.0
 70
    32
  0
VERTEX
  5
4843
  8
241
  6
CONTINUOUS
 10
64.703000000000074
 20
-12.1999
 30
0.0
 70
    32
  0
VERTEX
  5
4844
  8
241
  6
CONTINUOUS
 10
64.7008000000001
 20
-12.253
 30
0.0
 70
    32
  0
VERTEX
  5
4845
  8
241
  6
CONTINUOUS
 10
64.700000000000074
 20
-12.306100000000001
 30
0.0
 70
    32
  0
VERTEX
  5
4846
  8
241
  6
CONTINUOUS
 10
64.7008000000001
 20
-12.3592
 30
0.0
 70
    32
  0
VERTEX
  5
4847
  8
241
  6
CONTINUOUS
 10
64.703000000000074
 20
-12.4123
 30
0.0
 70
    32
  0
VERTEX
  5
4848
  8
241
  6
CONTINUOUS
 10
64.706800000000072
 20
-12.465400000000001
 30
0.0
 70
    32
  0
VERTEX
  5
4849
  8
241
  6
CONTINUOUS
 10
64.712000000000074
 20
-12.5183
 30
0.0
 70
    32
  0
VERTEX
  5
484A
  8
241
  6
CONTINUOUS
 10
64.718800000000073
 20
-12.571099999999999
 30
0.0
 70
    32
  0
VERTEX
  5
484B
  8
241
  6
CONTINUOUS
 10
64.727100000000092
 20
-12.623799999999999
 30
0.0
 70
    32
  0
VERTEX
  5
484C
  8
241
  6
CONTINUOUS
 10
64.736800000000073
 20
-12.676299999999999
 30
0.0
 70
    32
  0
VERTEX
  5
484D
  8
241
  6
CONTINUOUS
 10
64.748000000000076
 20
-12.7285
 30
0.0
 70
    32
  0
VERTEX
  5
484E
  8
241
  6
CONTINUOUS
 10
64.760700000000099
 20
-12.7805
 30
0.0
 70
    32
  0
VERTEX
  5
484F
  8
241
  6
CONTINUOUS
 10
64.774900000000088
 20
-12.8322
 30
0.0
 70
    32
  0
VERTEX
  5
4850
  8
241
  6
CONTINUOUS
 10
64.790600000000083
 20
-12.883599999999999
 30
0.0
 70
    32
  0
VERTEX
  5
4851
  8
241
  6
CONTINUOUS
 10
64.807600000000093
 20
-12.9346
 30
0.0
 70
    32
  0
VERTEX
  5
4852
  8
241
  6
CONTINUOUS
 10
64.8262000000001
 20
-12.985300000000001
 30
0.0
 70
    32
  0
VERTEX
  5
4853
  8
241
  6
CONTINUOUS
 10
64.846100000000092
 20
-13.035500000000001
 30
0.0
 70
    32
  0
VERTEX
  5
4854
  8
241
  6
CONTINUOUS
 10
64.867500000000092
 20
-13.0853
 30
0.0
 70
    32
  0
VERTEX
  5
4855
  8
241
  6
CONTINUOUS
 10
64.890300000000082
 20
-13.134600000000001
 30
0.0
 70
    32
  0
VERTEX
  5
4856
  8
241
  6
CONTINUOUS
 10
64.914500000000089
 20
-13.1835
 30
0.0
 70
    32
  0
VERTEX
  5
4857
  8
241
  6
CONTINUOUS
 10
64.940000000000083
 20
-13.2318
 30
0.0
 70
    32
  0
VERTEX
  5
4858
  8
241
  6
CONTINUOUS
 10
64.966900000000081
 20
-13.279500000000001
 30
0.0
 70
    32
  0
VERTEX
  5
4859
  8
241
  6
CONTINUOUS
 10
64.995200000000082
 20
-13.326700000000001
 30
0.0
 70
    32
  0
VERTEX
  5
485A
  8
241
  6
CONTINUOUS
 10
65.024800000000084
 20
-13.3733
 30
0.0
 70
    32
  0
VERTEX
  5
485B
  8
241
  6
CONTINUOUS
 10
65.055700000000087
 20
-13.4192
 30
0.0
 70
    32
  0
VERTEX
  5
485C
  8
241
  6
CONTINUOUS
 10
65.087900000000076
 20
-13.464399999999999
 30
0.0
 70
    32
  0
VERTEX
  5
485D
  8
241
  6
CONTINUOUS
 10
65.121300000000105
 20
-13.509
 30
0.0
 70
    32
  0
VERTEX
  5
485E
  8
241
  6
CONTINUOUS
 10
65.156000000000091
 20
-13.5528
 30
0.0
 70
    32
  0
VERTEX
  5
485F
  8
241
  6
CONTINUOUS
 10
65.192000000000093
 20
-13.595800000000001
 30
0.0
 70
    32
  0
VERTEX
  5
4860
  8
241
  6
CONTINUOUS
 10
65.229100000000074
 20
-13.6381
 30
0.0
 70
    32
  0
VERTEX
  5
4861
  8
241
  6
CONTINUOUS
 10
65.267500000000098
 20
-13.679600000000001
 30
0.0
 70
    32
  0
VERTEX
  5
4862
  8
241
  6
CONTINUOUS
 10
65.307000000000073
 20
-13.7203
 30
0.0
 70
    32
  0
VERTEX
  5
4863
  8
241
  6
CONTINUOUS
 10
65.347600000000085
 20
-13.7601
 30
0.0
 70
    32
  0
VERTEX
  5
4864
  8
241
  6
CONTINUOUS
 10
65.389400000000094
 20
-13.798999999999999
 30
0.0
 70
    32
  0
VERTEX
  5
4865
  8
241
  6
CONTINUOUS
 10
65.432200000000108
 20
-13.837
 30
0.0
 70
    32
  0
VERTEX
  5
4866
  8
241
  6
CONTINUOUS
 10
65.476100000000088
 20
-13.8742
 30
0.0
 70
    32
  0
VERTEX
  5
4867
  8
241
  6
CONTINUOUS
 10
65.521100000000104
 20
-13.910299999999999
 30
0.0
 70
    32
  0
VERTEX
  5
4868
  8
241
  6
CONTINUOUS
 10
65.567100000000096
 20
-13.945499999999999
 30
0.0
 70
    32
  0
VERTEX
  5
4869
  8
241
  6
CONTINUOUS
 10
65.614000000000104
 20
-13.979699999999999
 30
0.0
 70
    32
  0
VERTEX
  5
486A
  8
241
  6
CONTINUOUS
 10
65.661900000000088
 20
-14.0129
 30
0.0
 70
    32
  0
VERTEX
  5
486B
  8
241
  6
CONTINUOUS
 10
65.710800000000091
 20
-14.0451
 30
0.0
 70
    32
  0
VERTEX
  5
486C
  8
241
  6
CONTINUOUS
 10
65.760500000000079
 20
-14.0762
 30
0.0
 70
    32
  0
VERTEX
  5
486D
  8
241
  6
CONTINUOUS
 10
65.811100000000081
 20
-14.106299999999999
 30
0.0
 70
    32
  0
VERTEX
  5
486E
  8
241
  6
CONTINUOUS
 10
65.862500000000082
 20
-14.135300000000001
 30
0.0
 70
    32
  0
VERTEX
  5
486F
  8
241
  6
CONTINUOUS
 10
65.914700000000082
 20
-14.1631
 30
0.0
 70
    32
  0
VERTEX
  5
4870
  8
241
  6
CONTINUOUS
 10
65.967800000000096
 20
-14.1899
 30
0.0
 70
    32
  0
VERTEX
  5
4871
  8
241
  6
CONTINUOUS
 10
66.021500000000074
 20
-14.2155
 30
0.0
 70
    32
  0
VERTEX
  5
4872
  8
241
  6
CONTINUOUS
 10
66.076000000000079
 20
-14.24
 30
0.0
 70
    32
  0
VERTEX
  5
4873
  8
241
  6
CONTINUOUS
 10
66.131100000000103
 20
-14.263299999999999
 30
0.0
 70
    32
  0
VERTEX
  5
4874
  8
241
  6
CONTINUOUS
 10
66.186900000000094
 20
-14.285399999999999
 30
0.0
 70
    32
  0
VERTEX
  5
4875
  8
241
  6
CONTINUOUS
 10
66.24330000000009
 20
-14.3064
 30
0.0
 70
    32
  0
VERTEX
  5
4876
  8
241
  6
CONTINUOUS
 10
66.300300000000078
 20
-14.3261
 30
0.0
 70
    32
  0
VERTEX
  5
4877
  8
241
  6
CONTINUOUS
 10
66.357800000000083
 20
-14.3446
 30
0.0
 70
    32
  0
VERTEX
  5
4878
  8
241
  6
CONTINUOUS
 10
66.415800000000075
 20
-14.3619
 30
0.0
 70
    32
  0
VERTEX
  5
4879
  8
241
  6
CONTINUOUS
 10
66.474300000000099
 20
-14.3779
 30
0.0
 70
    32
  0
VERTEX
  5
487A
  8
241
  6
CONTINUOUS
 10
66.533200000000107
 20
-14.3927
 30
0.0
 70
    32
  0
VERTEX
  5
487B
  8
241
  6
CONTINUOUS
 10
66.592500000000101
 20
-14.4063
 30
0.0
 70
    32
  0
VERTEX
  5
487C
  8
241
  6
CONTINUOUS
 10
66.652200000000079
 20
-14.4186
 30
0.0
 70
    32
  0
VERTEX
  5
487D
  8
241
  6
CONTINUOUS
 10
66.712300000000084
 20
-14.429600000000001
 30
0.0
 70
    32
  0
VERTEX
  5
487E
  8
241
  6
CONTINUOUS
 10
66.772600000000082
 20
-14.439299999999999
 30
0.0
 70
    32
  0
VERTEX
  5
487F
  8
241
  6
CONTINUOUS
 10
66.83320000000009
 20
-14.447699999999999
 30
0.0
 70
    32
  0
VERTEX
  5
4880
  8
241
  6
CONTINUOUS
 10
66.894000000000091
 20
-14.4549
 30
0.0
 70
    32
  0
VERTEX
  5
4881
  8
241
  6
CONTINUOUS
 10
66.955000000000084
 20
-14.460699999999999
 30
0.0
 70
    32
  0
VERTEX
  5
4882
  8
241
  6
CONTINUOUS
 10
67.01610000000008
 20
-14.465299999999999
 30
0.0
 70
    32
  0
VERTEX
  5
4883
  8
241
  6
CONTINUOUS
 10
67.077300000000079
 20
-14.4686
 30
0.0
 70
    32
  0
VERTEX
  5
4884
  8
241
  6
CONTINUOUS
 10
67.138600000000082
 20
-14.470499999999999
 30
0.0
 70
    32
  0
VERTEX
  5
4885
  8
241
  6
CONTINUOUS
 10
67.200000000000074
 20
-14.4712
 30
0.0
 70
    32
  0
SEQEND
  5
4886
  8
241
  6
CONTINUOUS
  0
LINE
  5
4887
  8
241
  6
CONTINUOUS
 10
63.799999999999983
 20
-24.999999999999769
 30
0.0
 11
63.799999999999983
 21
24.999999999999719
 31
0.0
  0
LINE
  5
4888
  8
241
  6
CONTINUOUS
 10
75.666025403789547
 20
-24.249999999999378
 30
0.0
 11
75.666025403789433
 21
-12.66183332419507
 31
0.0
  0
LINE
  5
4889
  8
241
  6
CONTINUOUS
 10
49.099999999998708
 20
-25.350000000000801
 30
0.0
 11
49.099999999998658
 21
25.350000000000769
 31
0.0
  0
LINE
  5
488A
  8
240
  6
CONTINUOUS
 10
49.450000000000578
 20
-24.999999999999641
 30
0.0
 11
63.799999999999983
 21
-24.999999999999769
 31
0.0
  0
LINE
  5
488B
  8
240
  6
CONTINUOUS
 10
49.099999999998708
 20
-25.350000000000801
 30
0.0
 11
49.450000000000578
 21
-24.999999999999641
 31
0.0
  0
LINE
  5
488C
  8
240
  6
CONTINUOUS
 10
64.04999999999994
 20
-24.749999999999801
 30
0.0
 11
63.799999999999983
 21
-24.999999999999769
 31
0.0
  0
LINE
  5
488D
  8
240
  6
CONTINUOUS
 10
64.04999999999994
 20
-24.749999999999801
 30
0.0
 11
73.800000000000097
 21
-24.749999999999648
 31
0.0
  0
LINE
  5
488E
  8
241
  6
CONTINUOUS
 10
66.799999999999883
 20
-24.749999999999741
 30
0.0
 11
66.799999999999926
 21
-14.427430417318121
 31
0.0
  0
LINE
  5
488F
  8
241
  6
CONTINUOUS
 10
67.199999999999861
 20
-14.471173583221841
 30
0.0
 11
73.200000000000074
 21
-14.471173583221841
 31
0.0
  0
LINE
  5
4890
  8
241
  6
CONTINUOUS
 10
73.800000000000111
 20
-24.749999999999659
 30
0.0
 11
73.799999999999983
 21
-14.42743041732011
 31
0.0
  0
LINE
  5
4891
  8
240
  6
CONTINUOUS
 10
75.666025403789547
 20
-24.249999999999371
 30
0.0
 11
73.800000000000097
 21
-24.749999999999648
 31
0.0
  0
POLYLINE
  5
4892
  8
241
  6
CONTINUOUS
 66
     1
 10
0.0
 20
0.0
 30
0.0
 70
     8
  0
VERTEX
  5
4893
  8
241
  6
CONTINUOUS
 10
64.79480000000008
 20
-11.7156
 30
0.0
 70
    32
  0
VERTEX
  5
4894
  8
241
  6
CONTINUOUS
 10
64.8018000000001
 20
-11.736599999999999
 30
0.0
 70
    32
  0
VERTEX
  5
4895
  8
241
  6
CONTINUOUS
 10
64.809100000000086
 20
-11.7576
 30
0.0
 70
    32
  0
VERTEX
  5
4896
  8
241
  6
CONTINUOUS
 10
64.816600000000079
 20
-11.778499999999999
 30
0.0
 70
    32
  0
VERTEX
  5
4897
  8
241
  6
CONTINUOUS
 10
64.824300000000108
 20
-11.799300000000001
 30
0.0
 70
    32
  0
VERTEX
  5
4898
  8
241
  6
CONTINUOUS
 10
64.832300000000103
 20
-11.8201
 30
0.0
 70
    32
  0
VERTEX
  5
4899
  8
241
  6
CONTINUOUS
 10
64.840600000000109
 20
-11.8408
 30
0.0
 70
    32
  0
VERTEX
  5
489A
  8
241
  6
CONTINUOUS
 10
64.849100000000107
 20
-11.8614
 30
0.0
 70
    32
  0
VERTEX
  5
489B
  8
241
  6
CONTINUOUS
 10
64.857800000000083
 20
-11.882
 30
0.0
 70
    32
  0
VERTEX
  5
489C
  8
241
  6
CONTINUOUS
 10
64.866700000000094
 20
-11.9024
 30
0.0
 70
    32
  0
VERTEX
  5
489D
  8
241
  6
CONTINUOUS
 10
64.875900000000101
 20
-11.922800000000001
 30
0.0
 70
    32
  0
VERTEX
  5
489E
  8
241
  6
CONTINUOUS
 10
64.885400000000089
 20
-11.943199999999999
 30
0.0
 70
    32
  0
VERTEX
  5
489F
  8
241
  6
CONTINUOUS
 10
64.895000000000081
 20
-11.9634
 30
0.0
 70
    32
  0
VERTEX
  5
48A0
  8
241
  6
CONTINUOUS
 10
64.905000000000101
 20
-11.983499999999999
 30
0.0
 70
    32
  0
VERTEX
  5
48A1
  8
241
  6
CONTINUOUS
 10
64.915100000000081
 20
-12.0036
 30
0.0
 70
    32
  0
VERTEX
  5
48A2
  8
241
  6
CONTINUOUS
 10
64.925500000000085
 20
-12.0236
 30
0.0
 70
    32
  0
VERTEX
  5
48A3
  8
241
  6
CONTINUOUS
 10
64.936100000000081
 20
-12.0434
 30
0.0
 70
    32
  0
VERTEX
  5
48A4
  8
241
  6
CONTINUOUS
 10
64.946900000000085
 20
-12.0632
 30
0.0
 70
    32
  0
VERTEX
  5
48A5
  8
241
  6
CONTINUOUS
 10
64.958000000000084
 20
-12.0829
 30
0.0
 70
    32
  0
VERTEX
  5
48A6
  8
241
  6
CONTINUOUS
 10
64.969300000000104
 20
-12.102499999999999
 30
0.0
 70
    32
  0
VERTEX
  5
48A7
  8
241
  6
CONTINUOUS
 10
64.980800000000102
 20
-12.122
 30
0.0
 70
    32
  0
VERTEX
  5
48A8
  8
241
  6
CONTINUOUS
 10
64.992600000000081
 20
-12.141400000000001
 30
0.0
 70
    32
  0
VERTEX
  5
48A9
  8
241
  6
CONTINUOUS
 10
65.004600000000082
 20
-12.160600000000001
 30
0.0
 70
    32
  0
VERTEX
  5
48AA
  8
241
  6
CONTINUOUS
 10
65.016800000000075
 20
-12.1798
 30
0.0
 70
    32
  0
VERTEX
  5
48AB
  8
241
  6
CONTINUOUS
 10
65.029200000000088
 20
-12.1989
 30
0.0
 70
    32
  0
VERTEX
  5
48AC
  8
241
  6
CONTINUOUS
 10
65.041900000000084
 20
-12.2178
 30
0.0
 70
    32
  0
VERTEX
  5
48AD
  8
241
  6
CONTINUOUS
 10
65.054700000000111
 20
-12.236700000000001
 30
0.0
 70
    32
  0
VERTEX
  5
48AE
  8
241
  6
CONTINUOUS
 10
65.067800000000091
 20
-12.2554
 30
0.0
 70
    32
  0
VERTEX
  5
48AF
  8
241
  6
CONTINUOUS
 10
65.081100000000077
 20
-12.273999999999999
 30
0.0
 70
    32
  0
VERTEX
  5
48B0
  8
241
  6
CONTINUOUS
 10
65.094700000000074
 20
-12.2925
 30
0.0
 70
    32
  0
VERTEX
  5
48B1
  8
241
  6
CONTINUOUS
 10
65.108400000000074
 20
-12.3109
 30
0.0
 70
    32
  0
VERTEX
  5
48B2
  8
241
  6
CONTINUOUS
 10
65.122400000000084
 20
-12.3292
 30
0.0
 70
    32
  0
VERTEX
  5
48B3
  8
241
  6
CONTINUOUS
 10
65.136500000000083
 20
-12.347300000000001
 30
0.0
 70
    32
  0
VERTEX
  5
48B4
  8
241
  6
CONTINUOUS
 10
65.150900000000092
 20
-12.3653
 30
0.0
 70
    32
  0
VERTEX
  5
48B5
  8
241
  6
CONTINUOUS
 10
65.16550000000008
 20
-12.3832
 30
0.0
 70
    32
  0
VERTEX
  5
48B6
  8
241
  6
CONTINUOUS
 10
65.180300000000074
 20
-12.401
 30
0.0
 70
    32
  0
VERTEX
  5
48B7
  8
241
  6
CONTINUOUS
 10
65.195300000000088
 20
-12.4186
 30
0.0
 70
    32
  0
VERTEX
  5
48B8
  8
241
  6
CONTINUOUS
 10
65.210500000000081
 20
-12.4361
 30
0.0
 70
    32
  0
VERTEX
  5
48B9
  8
241
  6
CONTINUOUS
 10
65.225900000000081
 20
-12.4534
 30
0.0
 70
    32
  0
VERTEX
  5
48BA
  8
241
  6
CONTINUOUS
 10
65.241500000000087
 20
-12.47070000000001
 30
0.0
 70
    32
  0
VERTEX
  5
48BB
  8
241
  6
CONTINUOUS
 10
65.2573000000001
 20
-12.4877
 30
0.0
 70
    32
  0
VERTEX
  5
48BC
  8
241
  6
CONTINUOUS
 10
65.27340000000008
 20
-12.5047
 30
0.0
 70
    32
  0
VERTEX
  5
48BD
  8
241
  6
CONTINUOUS
 10
65.289600000000092
 20
-12.5215
 30
0.0
 70
    32
  0
VERTEX
  5
48BE
  8
241
  6
CONTINUOUS
 10
65.306000000000083
 20
-12.5381
 30
0.0
 70
    32
  0
VERTEX
  5
48BF
  8
241
  6
CONTINUOUS
 10
65.322600000000108
 20
-12.5547
 30
0.0
 70
    32
  0
VERTEX
  5
48C0
  8
241
  6
CONTINUOUS
 10
65.339400000000083
 20
-12.571
 30
0.0
 70
    32
  0
VERTEX
  5
48C1
  8
241
  6
CONTINUOUS
 10
65.35630000000009
 20
-12.58730000000001
 30
0.0
 70
    32
  0
VERTEX
  5
48C2
  8
241
  6
CONTINUOUS
 10
65.373500000000092
 20
-12.603300000000001
 30
0.0
 70
    32
  0
VERTEX
  5
48C3
  8
241
  6
CONTINUOUS
 10
65.390900000000101
 20
-12.619199999999999
 30
0.0
 70
    32
  0
VERTEX
  5
48C4
  8
241
  6
CONTINUOUS
 10
65.408400000000086
 20
-12.635
 30
0.0
 70
    32
  0
VERTEX
  5
48C5
  8
241
  6
CONTINUOUS
 10
65.426100000000105
 20
-12.650600000000001
 30
0.0
 70
    32
  0
VERTEX
  5
48C6
  8
241
  6
CONTINUOUS
 10
65.444000000000074
 20
-12.6661
 30
0.0
 70
    32
  0
VERTEX
  5
48C7
  8
241
  6
CONTINUOUS
 10
65.462100000000078
 20
-12.6814
 30
0.0
 70
    32
  0
VERTEX
  5
48C8
  8
241
  6
CONTINUOUS
 10
65.480400000000088
 20
-12.6965
 30
0.0
 70
    32
  0
VERTEX
  5
48C9
  8
241
  6
CONTINUOUS
 10
65.498800000000074
 20
-12.711499999999999
 30
0.0
 70
    32
  0
VERTEX
  5
48CA
  8
241
  6
CONTINUOUS
 10
65.51740000000008
 20
-12.7263
 30
0.0
 70
    32
  0
VERTEX
  5
48CB
  8
241
  6
CONTINUOUS
 10
65.536200000000079
 20
-12.741
 30
0.0
 70
    32
  0
VERTEX
  5
48CC
  8
241
  6
CONTINUOUS
 10
65.555200000000085
 20
-12.7555
 30
0.0
 70
    32
  0
VERTEX
  5
48CD
  8
241
  6
CONTINUOUS
 10
65.574300000000093
 20
-12.7698
 30
0.0
 70
    32
  0
VERTEX
  5
48CE
  8
241
  6
CONTINUOUS
 10
65.593600000000094
 20
-12.784000000000001
 30
0.0
 70
    32
  0
VERTEX
  5
48CF
  8
241
  6
CONTINUOUS
 10
65.613100000000088
 20
-12.7979
 30
0.0
 70
    32
  0
VERTEX
  5
48D0
  8
241
  6
CONTINUOUS
 10
65.632700000000085
 20
-12.8117
 30
0.0
 70
    32
  0
VERTEX
  5
48D1
  8
241
  6
CONTINUOUS
 10
65.652500000000103
 20
-12.8254
 30
0.0
 70
    32
  0
VERTEX
  5
48D2
  8
241
  6
CONTINUOUS
 10
65.672400000000081
 20
-12.838900000000001
 30
0.0
 70
    32
  0
VERTEX
  5
48D3
  8
241
  6
CONTINUOUS
 10
65.692500000000081
 20
-12.8521
 30
0.0
 70
    32
  0
VERTEX
  5
48D4
  8
241
  6
CONTINUOUS
 10
65.712700000000083
 20
-12.8653
 30
0.0
 70
    32
  0
VERTEX
  5
48D5
  8
241
  6
CONTINUOUS
 10
65.733100000000093
 20
-12.8782
 30
0.0
 70
    32
  0
VERTEX
  5
48D6
  8
241
  6
CONTINUOUS
 10
65.753700000000094
 20
-12.891
 30
0.0
 70
    32
  0
VERTEX
  5
48D7
  8
241
  6
CONTINUOUS
 10
65.774400000000085
 20
-12.903499999999999
 30
0.0
 70
    32
  0
VERTEX
  5
48D8
  8
241
  6
CONTINUOUS
 10
65.795200000000079
 20
-12.915900000000001
 30
0.0
 70
    32
  0
VERTEX
  5
48D9
  8
241
  6
CONTINUOUS
 10
65.816200000000094
 20
-12.928100000000001
 30
0.0
 70
    32
  0
VERTEX
  5
48DA
  8
241
  6
CONTINUOUS
 10
65.837300000000084
 20
-12.940200000000001
 30
0.0
 70
    32
  0
VERTEX
  5
48DB
  8
241
  6
CONTINUOUS
 10
65.858600000000081
 20
-12.952
 30
0.0
 70
    32
  0
VERTEX
  5
48DC
  8
241
  6
CONTINUOUS
 10
65.880000000000081
 20
-12.963699999999999
 30
0.0
 70
    32
  0
VERTEX
  5
48DD
  8
241
  6
CONTINUOUS
 10
65.901500000000084
 20
-12.975099999999999
 30
0.0
 70
    32
  0
VERTEX
  5
48DE
  8
241
  6
CONTINUOUS
 10
65.923200000000094
 20
-12.9864
 30
0.0
 70
    32
  0
VERTEX
  5
48DF
  8
241
  6
CONTINUOUS
 10
65.945000000000107
 20
-12.9975
 30
0.0
 70
    32
  0
VERTEX
  5
48E0
  8
241
  6
CONTINUOUS
 10
65.966900000000081
 20
-13.0084
 30
0.0
 70
    32
  0
VERTEX
  5
48E1
  8
241
  6
CONTINUOUS
 10
65.98900000000009
 20
-13.0191
 30
0.0
 70
    32
  0
VERTEX
  5
48E2
  8
241
  6
CONTINUOUS
 10
66.011200000000073
 20
-13.0296
 30
0.0
 70
    32
  0
VERTEX
  5
48E3
  8
241
  6
CONTINUOUS
 10
66.033500000000103
 20
-13.039899999999999
 30
0.0
 70
    32
  0
VERTEX
  5
48E4
  8
241
  6
CONTINUOUS
 10
66.055900000000094
 20
-13.050000000000001
 30
0.0
 70
    32
  0
VERTEX
  5
48E5
  8
241
  6
CONTINUOUS
 10
66.078400000000101
 20
-13.06
 30
0.0
 70
    32
  0
VERTEX
  5
48E6
  8
241
  6
CONTINUOUS
 10
66.101100000000088
 20
-13.069699999999999
 30
0.0
 70
    32
  0
VERTEX
  5
48E7
  8
241
  6
CONTINUOUS
 10
66.123900000000077
 20
-13.0792
 30
0.0
 70
    32
  0
VERTEX
  5
48E8
  8
241
  6
CONTINUOUS
 10
66.146700000000081
 20
-13.0885
 30
0.0
 70
    32
  0
VERTEX
  5
48E9
  8
241
  6
CONTINUOUS
 10
66.169700000000091
 20
-13.0977
 30
0.0
 70
    32
  0
VERTEX
  5
48EA
  8
241
  6
CONTINUOUS
 10
66.192800000000091
 20
-13.1066
 30
0.0
 70
    32
  0
VERTEX
  5
48EB
  8
241
  6
CONTINUOUS
 10
66.216000000000093
 20
-13.1153
 30
0.0
 70
    32
  0
VERTEX
  5
48EC
  8
241
  6
CONTINUOUS
 10
66.239300000000085
 20
-13.123799999999999
 30
0.0
 70
    32
  0
VERTEX
  5
48ED
  8
241
  6
CONTINUOUS
 10
66.262700000000081
 20
-13.132099999999999
 30
0.0
 70
    32
  0
VERTEX
  5
48EE
  8
241
  6
CONTINUOUS
 10
66.286200000000079
 20
-13.1402
 30
0.0
 70
    32
  0
VERTEX
  5
48EF
  8
241
  6
CONTINUOUS
 10
66.309800000000081
 20
-13.148099999999999
 30
0.0
 70
    32
  0
VERTEX
  5
48F0
  8
241
  6
CONTINUOUS
 10
66.333400000000083
 20
-13.155799999999999
 30
0.0
 70
    32
  0
VERTEX
  5
48F1
  8
241
  6
CONTINUOUS
 10
66.357200000000091
 20
-13.1633
 30
0.0
 70
    32
  0
VERTEX
  5
48F2
  8
241
  6
CONTINUOUS
 10
66.381000000000085
 20
-13.1706
 30
0.0
 70
    32
  0
VERTEX
  5
48F3
  8
241
  6
CONTINUOUS
 10
66.405000000000101
 20
-13.1777
 30
0.0
 70
    32
  0
VERTEX
  5
48F4
  8
241
  6
CONTINUOUS
 10
66.429000000000102
 20
-13.1845
 30
0.0
 70
    32
  0
VERTEX
  5
48F5
  8
241
  6
CONTINUOUS
 10
66.453100000000092
 20
-13.1912
 30
0.0
 70
    32
  0
VERTEX
  5
48F6
  8
241
  6
CONTINUOUS
 10
66.477200000000082
 20
-13.1976
 30
0.0
 70
    32
  0
VERTEX
  5
48F7
  8
241
  6
CONTINUOUS
 10
66.501500000000107
 20
-13.203799999999999
 30
0.0
 70
    32
  0
VERTEX
  5
48F8
  8
241
  6
CONTINUOUS
 10
66.525800000000089
 20
-13.2098
 30
0.0
 70
    32
  0
VERTEX
  5
48F9
  8
241
  6
CONTINUOUS
 10
66.550200000000075
 20
-13.2156
 30
0.0
 70
    32
  0
VERTEX
  5
48FA
  8
241
  6
CONTINUOUS
 10
66.574600000000089
 20
-13.2212
 30
0.0
 70
    32
  0
VERTEX
  5
48FB
  8
241
  6
CONTINUOUS
 10
66.599100000000107
 20
-13.226599999999999
 30
0.0
 70
    32
  0
VERTEX
  5
48FC
  8
241
  6
CONTINUOUS
 10
66.623700000000085
 20
-13.2318
 30
0.0
 70
    32
  0
VERTEX
  5
48FD
  8
241
  6
CONTINUOUS
 10
66.648300000000091
 20
-13.23670000000001
 30
0.0
 70
    32
  0
VERTEX
  5
48FE
  8
241
  6
CONTINUOUS
 10
66.673000000000101
 20
-13.241400000000001
 30
0.0
 70
    32
  0
VERTEX
  5
48FF
  8
241
  6
CONTINUOUS
 10
66.6978000000001
 20
-13.245900000000001
 30
0.0
 70
    32
  0
VERTEX
  5
4900
  8
241
  6
CONTINUOUS
 10
66.722600000000085
 20
-13.2502
 30
0.0
 70
    32
  0
VERTEX
  5
4901
  8
241
  6
CONTINUOUS
 10
66.747400000000098
 20
-13.254300000000001
 30
0.0
 70
    32
  0
VERTEX
  5
4902
  8
241
  6
CONTINUOUS
 10
66.772300000000087
 20
-13.258100000000001
 30
0.0
 70
    32
  0
VERTEX
  5
4903
  8
241
  6
CONTINUOUS
 10
66.797200000000089
 20
-13.261799999999999
 30
0.0
 70
    32
  0
VERTEX
  5
4904
  8
241
  6
CONTINUOUS
 10
66.82220000000008
 20
-13.2652
 30
0.0
 70
    32
  0
VERTEX
  5
4905
  8
241
  6
CONTINUOUS
 10
66.847200000000072
 20
-13.2684
 30
0.0
 70
    32
  0
VERTEX
  5
4906
  8
241
  6
CONTINUOUS
 10
66.872300000000081
 20
-13.2714
 30
0.0
 70
    32
  0
VERTEX
  5
4907
  8
241
  6
CONTINUOUS
 10
66.897300000000101
 20
-13.274100000000001
 30
0.0
 70
    32
  0
VERTEX
  5
4908
  8
241
  6
CONTINUOUS
 10
66.922500000000085
 20
-13.2767
 30
0.0
 70
    32
  0
VERTEX
  5
4909
  8
241
  6
CONTINUOUS
 10
66.947600000000079
 20
-13.279
 30
0.0
 70
    32
  0
VERTEX
  5
490A
  8
241
  6
CONTINUOUS
 10
66.972800000000092
 20
-13.2811
 30
0.0
 70
    32
  0
VERTEX
  5
490B
  8
241
  6
CONTINUOUS
 10
66.998000000000076
 20
-13.282999999999999
 30
0.0
 70
    32
  0
VERTEX
  5
490C
  8
241
  6
CONTINUOUS
 10
67.023200000000088
 20
-13.284599999999999
 30
0.0
 70
    32
  0
VERTEX
  5
490D
  8
241
  6
CONTINUOUS
 10
67.0484000000001
 20
-13.286099999999999
 30
0.0
 70
    32
  0
VERTEX
  5
490E
  8
241
  6
CONTINUOUS
 10
67.073600000000084
 20
-13.2873
 30
0.0
 70
    32
  0
VERTEX
  5
490F
  8
241
  6
CONTINUOUS
 10
67.098900000000071
 20
-13.2883
 30
0.0
 70
    32
  0
VERTEX
  5
4910
  8
241
  6
CONTINUOUS
 10
67.124200000000101
 20
-13.289099999999999
 30
0.0
 70
    32
  0
VERTEX
  5
4911
  8
241
  6
CONTINUOUS
 10
67.149400000000085
 20
-13.2896
 30
0.0
 70
    32
  0
VERTEX
  5
4912
  8
241
  6
CONTINUOUS
 10
67.174700000000087
 20
-13.289999999999999
 30
0.0
 70
    32
  0
VERTEX
  5
4913
  8
241
  6
CONTINUOUS
 10
67.200000000000074
 20
-13.290100000000001
 30
0.0
 70
    32
  0
SEQEND
  5
4914
  8
241
  6
CONTINUOUS
  0
LINE
  5
4915
  8
241
  6
CONTINUOUS
 10
73.799999999999983
 20
-10.18478973020124
 30
0.0
 11
73.800000000000253
 21
10.18478973020124
 31
0.0
  0
LINE
  5
4916
  8
241
  6
CONTINUOUS
 10
75.666025403789433
 20
-11.95038682332628
 30
0.0
 11
75.666025403789718
 21
11.950386823326239
 31
0.0
  0
LINE
  5
4917
  8
241
  6
CONTINUOUS
 10
66.799999999999926
 20
-10.184789730202599
 30
0.0
 11
66.799999999999855
 21
10.184789730202599
 31
0.0
  0
POLYLINE
  5
4918
  8
241
  6
CONTINUOUS
 66
     1
 10
0.0
 20
0.0
 30
0.0
 70
     8
  0
VERTEX
  5
4919
  8
241
  6
CONTINUOUS
 10
73.200000000000074
 20
-13.290100000000001
 30
0.0
 70
    32
  0
VERTEX
  5
491A
  8
241
  6
CONTINUOUS
 10
73.22530000000009
 20
-13.289999999999999
 30
0.0
 70
    32
  0
VERTEX
  5
491B
  8
241
  6
CONTINUOUS
 10
73.250600000000077
 20
-13.2896
 30
0.0
 70
    32
  0
VERTEX
  5
491C
  8
241
  6
CONTINUOUS
 10
73.275800000000089
 20
-13.289099999999999
 30
0.0
 70
    32
  0
VERTEX
  5
491D
  8
241
  6
CONTINUOUS
 10
73.301100000000076
 20
-13.2883
 30
0.0
 70
    32
  0
VERTEX
  5
491E
  8
241
  6
CONTINUOUS
 10
73.326400000000092
 20
-13.2873
 30
0.0
 70
    32
  0
VERTEX
  5
491F
  8
241
  6
CONTINUOUS
 10
73.351600000000076
 20
-13.286099999999999
 30
0.0
 70
    32
  0
VERTEX
  5
4920
  8
241
  6
CONTINUOUS
 10
73.376800000000088
 20
-13.284599999999999
 30
0.0
 70
    32
  0
VERTEX
  5
4921
  8
241
  6
CONTINUOUS
 10
73.4020000000001
 20
-13.282999999999999
 30
0.0
 70
    32
  0
VERTEX
  5
4922
  8
241
  6
CONTINUOUS
 10
73.427200000000099
 20
-13.2811
 30
0.0
 70
    32
  0
VERTEX
  5
4923
  8
241
  6
CONTINUOUS
 10
73.452400000000083
 20
-13.279
 30
0.0
 70
    32
  0
VERTEX
  5
4924
  8
241
  6
CONTINUOUS
 10
73.477500000000077
 20
-13.2767
 30
0.0
 70
    32
  0
VERTEX
  5
4925
  8
241
  6
CONTINUOUS
 10
73.502700000000075
 20
-13.274100000000001
 30
0.0
 70
    32
  0
VERTEX
  5
4926
  8
241
  6
CONTINUOUS
 10
73.527700000000081
 20
-13.2714
 30
0.0
 70
    32
  0
VERTEX
  5
4927
  8
241
  6
CONTINUOUS
 10
73.552800000000076
 20
-13.2684
 30
0.0
 70
    32
  0
VERTEX
  5
4928
  8
241
  6
CONTINUOUS
 10
73.577800000000082
 20
-13.2652
 30
0.0
 70
    32
  0
VERTEX
  5
4929
  8
241
  6
CONTINUOUS
 10
73.602800000000101
 20
-13.261799999999999
 30
0.0
 70
    32
  0
VERTEX
  5
492A
  8
241
  6
CONTINUOUS
 10
73.62770000000009
 20
-13.258100000000001
 30
0.0
 70
    32
  0
VERTEX
  5
492B
  8
241
  6
CONTINUOUS
 10
73.652600000000092
 20
-13.254300000000001
 30
0.0
 70
    32
  0
VERTEX
  5
492C
  8
241
  6
CONTINUOUS
 10
73.677400000000091
 20
-13.2502
 30
0.0
 70
    32
  0
VERTEX
  5
492D
  8
241
  6
CONTINUOUS
 10
73.70220000000009
 20
-13.245900000000001
 30
0.0
 70
    32
  0
VERTEX
  5
492E
  8
241
  6
CONTINUOUS
 10
73.727000000000075
 20
-13.241400000000001
 30
0.0
 70
    32
  0
VERTEX
  5
492F
  8
241
  6
CONTINUOUS
 10
73.751700000000085
 20
-13.23670000000001
 30
0.0
 70
    32
  0
VERTEX
  5
4930
  8
241
  6
CONTINUOUS
 10
73.776300000000106
 20
-13.2318
 30
0.0
 70
    32
  0
VERTEX
  5
4931
  8
241
  6
CONTINUOUS
 10
73.800900000000084
 20
-13.226599999999999
 30
0.0
 70
    32
  0
VERTEX
  5
4932
  8
241
  6
CONTINUOUS
 10
73.825400000000087
 20
-13.2212
 30
0.0
 70
    32
  0
VERTEX
  5
4933
  8
241
  6
CONTINUOUS
 10
73.849800000000073
 20
-13.2156
 30
0.0
 70
    32
  0
VERTEX
  5
4934
  8
241
  6
CONTINUOUS
 10
73.874200000000087
 20
-13.2098
 30
0.0
 70
    32
  0
VERTEX
  5
4935
  8
241
  6
CONTINUOUS
 10
73.898500000000084
 20
-13.203799999999999
 30
0.0
 70
    32
  0
VERTEX
  5
4936
  8
241
  6
CONTINUOUS
 10
73.92280000000008
 20
-13.1976
 30
0.0
 70
    32
  0
VERTEX
  5
4937
  8
241
  6
CONTINUOUS
 10
73.946900000000085
 20
-13.1912
 30
0.0
 70
    32
  0
VERTEX
  5
4938
  8
241
  6
CONTINUOUS
 10
73.971000000000075
 20
-13.1845
 30
0.0
 70
    32
  0
VERTEX
  5
4939
  8
241
  6
CONTINUOUS
 10
73.99500000000009
 20
-13.1777
 30
0.0
 70
    32
  0
VERTEX
  5
493A
  8
241
  6
CONTINUOUS
 10
74.019000000000091
 20
-13.1706
 30
0.0
 70
    32
  0
VERTEX
  5
493B
  8
241
  6
CONTINUOUS
 10
74.042800000000113
 20
-13.1633
 30
0.0
 70
    32
  0
VERTEX
  5
493C
  8
241
  6
CONTINUOUS
 10
74.066600000000079
 20
-13.155799999999999
 30
0.0
 70
    32
  0
VERTEX
  5
493D
  8
241
  6
CONTINUOUS
 10
74.090200000000081
 20
-13.148099999999999
 30
0.0
 70
    32
  0
VERTEX
  5
493E
  8
241
  6
CONTINUOUS
 10
74.113800000000083
 20
-13.1402
 30
0.0
 70
    32
  0
VERTEX
  5
493F
  8
241
  6
CONTINUOUS
 10
74.137300000000081
 20
-13.132099999999999
 30
0.0
 70
    32
  0
VERTEX
  5
4940
  8
241
  6
CONTINUOUS
 10
74.160700000000077
 20
-13.123799999999999
 30
0.0
 70
    32
  0
VERTEX
  5
4941
  8
241
  6
CONTINUOUS
 10
74.184000000000083
 20
-13.1153
 30
0.0
 70
    32
  0
VERTEX
  5
4942
  8
241
  6
CONTINUOUS
 10
74.207200000000086
 20
-13.1066
 30
0.0
 70
    32
  0
VERTEX
  5
4943
  8
241
  6
CONTINUOUS
 10
74.230300000000085
 20
-13.0977
 30
0.0
 70
    32
  0
VERTEX
  5
4944
  8
241
  6
CONTINUOUS
 10
74.253300000000081
 20
-13.0885
 30
0.0
 70
    32
  0
VERTEX
  5
4945
  8
241
  6
CONTINUOUS
 10
74.276100000000085
 20
-13.0792
 30
0.0
 70
    32
  0
VERTEX
  5
4946
  8
241
  6
CONTINUOUS
 10
74.298900000000089
 20
-13.069699999999999
 30
0.0
 70
    32
  0
VERTEX
  5
4947
  8
241
  6
CONTINUOUS
 10
74.321600000000075
 20
-13.06
 30
0.0
 70
    32
  0
VERTEX
  5
4948
  8
241
  6
CONTINUOUS
 10
74.344100000000083
 20
-13.050000000000001
 30
0.0
 70
    32
  0
VERTEX
  5
4949
  8
241
  6
CONTINUOUS
 10
74.366500000000102
 20
-13.039899999999999
 30
0.0
 70
    32
  0
VERTEX
  5
494A
  8
241
  6
CONTINUOUS
 10
74.388800000000089
 20
-13.0296
 30
0.0
 70
    32
  0
VERTEX
  5
494B
  8
241
  6
CONTINUOUS
 10
74.411000000000087
 20
-13.0191
 30
0.0
 70
    32
  0
VERTEX
  5
494C
  8
241
  6
CONTINUOUS
 10
74.433100000000081
 20
-13.0084
 30
0.0
 70
    32
  0
VERTEX
  5
494D
  8
241
  6
CONTINUOUS
 10
74.455000000000084
 20
-12.9975
 30
0.0
 70
    32
  0
VERTEX
  5
494E
  8
241
  6
CONTINUOUS
 10
74.476800000000082
 20
-12.9864
 30
0.0
 70
    32
  0
VERTEX
  5
494F
  8
241
  6
CONTINUOUS
 10
74.498500000000092
 20
-12.975099999999999
 30
0.0
 70
    32
  0
VERTEX
  5
4950
  8
241
  6
CONTINUOUS
 10
74.520000000000081
 20
-12.963699999999999
 30
0.0
 70
    32
  0
VERTEX
  5
4951
  8
241
  6
CONTINUOUS
 10
74.541400000000081
 20
-12.952
 30
0.0
 70
    32
  0
VERTEX
  5
4952
  8
241
  6
CONTINUOUS
 10
74.562700000000092
 20
-12.940200000000001
 30
0.0
 70
    32
  0
VERTEX
  5
4953
  8
241
  6
CONTINUOUS
 10
74.583800000000082
 20
-12.928100000000001
 30
0.0
 70
    32
  0
VERTEX
  5
4954
  8
241
  6
CONTINUOUS
 10
74.604800000000083
 20
-12.915900000000001
 30
0.0
 70
    32
  0
VERTEX
  5
4955
  8
241
  6
CONTINUOUS
 10
74.625600000000105
 20
-12.903499999999999
 30
0.0
 70
    32
  0
VERTEX
  5
4956
  8
241
  6
CONTINUOUS
 10
74.646300000000082
 20
-12.891
 30
0.0
 70
    32
  0
VERTEX
  5
4957
  8
241
  6
CONTINUOUS
 10
74.666900000000098
 20
-12.8782
 30
0.0
 70
    32
  0
VERTEX
  5
4958
  8
241
  6
CONTINUOUS
 10
74.687300000000107
 20
-12.8653
 30
0.0
 70
    32
  0
VERTEX
  5
4959
  8
241
  6
CONTINUOUS
 10
74.707500000000081
 20
-12.8521
 30
0.0
 70
    32
  0
VERTEX
  5
495A
  8
241
  6
CONTINUOUS
 10
74.727600000000081
 20
-12.838900000000001
 30
0.0
 70
    32
  0
VERTEX
  5
495B
  8
241
  6
CONTINUOUS
 10
74.747500000000088
 20
-12.8254
 30
0.0
 70
    32
  0
VERTEX
  5
495C
  8
241
  6
CONTINUOUS
 10
74.767300000000091
 20
-12.8117
 30
0.0
 70
    32
  0
VERTEX
  5
495D
  8
241
  6
CONTINUOUS
 10
74.786900000000088
 20
-12.7979
 30
0.0
 70
    32
  0
VERTEX
  5
495E
  8
241
  6
CONTINUOUS
 10
74.806400000000082
 20
-12.784000000000001
 30
0.0
 70
    32
  0
VERTEX
  5
495F
  8
241
  6
CONTINUOUS
 10
74.825700000000083
 20
-12.7698
 30
0.0
 70
    32
  0
VERTEX
  5
4960
  8
241
  6
CONTINUOUS
 10
74.844800000000077
 20
-12.7555
 30
0.0
 70
    32
  0
VERTEX
  5
4961
  8
241
  6
CONTINUOUS
 10
74.863800000000083
 20
-12.741
 30
0.0
 70
    32
  0
VERTEX
  5
4962
  8
241
  6
CONTINUOUS
 10
74.882600000000082
 20
-12.7263
 30
0.0
 70
    32
  0
VERTEX
  5
4963
  8
241
  6
CONTINUOUS
 10
74.901200000000074
 20
-12.711499999999999
 30
0.0
 70
    32
  0
VERTEX
  5
4964
  8
241
  6
CONTINUOUS
 10
74.919600000000088
 20
-12.6965
 30
0.0
 70
    32
  0
VERTEX
  5
4965
  8
241
  6
CONTINUOUS
 10
74.937900000000084
 20
-12.6814
 30
0.0
 70
    32
  0
VERTEX
  5
4966
  8
241
  6
CONTINUOUS
 10
74.956000000000074
 20
-12.6661
 30
0.0
 70
    32
  0
VERTEX
  5
4967
  8
241
  6
CONTINUOUS
 10
74.973900000000086
 20
-12.650600000000001
 30
0.0
 70
    32
  0
VERTEX
  5
4968
  8
241
  6
CONTINUOUS
 10
74.991600000000091
 20
-12.635
 30
0.0
 70
    32
  0
VERTEX
  5
4969
  8
241
  6
CONTINUOUS
 10
75.009100000000075
 20
-12.619199999999999
 30
0.0
 70
    32
  0
VERTEX
  5
496A
  8
241
  6
CONTINUOUS
 10
75.026500000000084
 20
-12.603300000000001
 30
0.0
 70
    32
  0
VERTEX
  5
496B
  8
241
  6
CONTINUOUS
 10
75.043700000000086
 20
-12.58730000000001
 30
0.0
 70
    32
  0
VERTEX
  5
496C
  8
241
  6
CONTINUOUS
 10
75.060600000000079
 20
-12.571
 30
0.0
 70
    32
  0
VERTEX
  5
496D
  8
241
  6
CONTINUOUS
 10
75.077400000000083
 20
-12.5547
 30
0.0
 70
    32
  0
VERTEX
  5
496E
  8
241
  6
CONTINUOUS
 10
75.094000000000094
 20
-12.5381
 30
0.0
 70
    32
  0
VERTEX
  5
496F
  8
241
  6
CONTINUOUS
 10
75.110400000000084
 20
-12.5215
 30
0.0
 70
    32
  0
VERTEX
  5
4970
  8
241
  6
CONTINUOUS
 10
75.126600000000082
 20
-12.5047
 30
0.0
 70
    32
  0
VERTEX
  5
4971
  8
241
  6
CONTINUOUS
 10
75.142700000000076
 20
-12.4877
 30
0.0
 70
    32
  0
VERTEX
  5
4972
  8
241
  6
CONTINUOUS
 10
75.158500000000089
 20
-12.47070000000001
 30
0.0
 70
    32
  0
VERTEX
  5
4973
  8
241
  6
CONTINUOUS
 10
75.174100000000081
 20
-12.4534
 30
0.0
 70
    32
  0
VERTEX
  5
4974
  8
241
  6
CONTINUOUS
 10
75.189500000000081
 20
-12.4361
 30
0.0
 70
    32
  0
VERTEX
  5
4975
  8
241
  6
CONTINUOUS
 10
75.204700000000088
 20
-12.4186
 30
0.0
 70
    32
  0
VERTEX
  5
4976
  8
241
  6
CONTINUOUS
 10
75.219700000000074
 20
-12.401
 30
0.0
 70
    32
  0
VERTEX
  5
4977
  8
241
  6
CONTINUOUS
 10
75.234500000000082
 20
-12.3832
 30
0.0
 70
    32
  0
VERTEX
  5
4978
  8
241
  6
CONTINUOUS
 10
75.249100000000084
 20
-12.3653
 30
0.0
 70
    32
  0
VERTEX
  5
4979
  8
241
  6
CONTINUOUS
 10
75.263500000000107
 20
-12.347300000000001
 30
0.0
 70
    32
  0
VERTEX
  5
497A
  8
241
  6
CONTINUOUS
 10
75.277600000000092
 20
-12.3292
 30
0.0
 70
    32
  0
VERTEX
  5
497B
  8
241
  6
CONTINUOUS
 10
75.291600000000074
 20
-12.3109
 30
0.0
 70
    32
  0
VERTEX
  5
497C
  8
241
  6
CONTINUOUS
 10
75.305300000000074
 20
-12.2925
 30
0.0
 70
    32
  0
VERTEX
  5
497D
  8
241
  6
CONTINUOUS
 10
75.318900000000085
 20
-12.273999999999999
 30
0.0
 70
    32
  0
VERTEX
  5
497E
  8
241
  6
CONTINUOUS
 10
75.3322000000001
 20
-12.2554
 30
0.0
 70
    32
  0
VERTEX
  5
497F
  8
241
  6
CONTINUOUS
 10
75.345300000000094
 20
-12.236700000000001
 30
0.0
 70
    32
  0
VERTEX
  5
4980
  8
241
  6
CONTINUOUS
 10
75.358100000000078
 20
-12.2178
 30
0.0
 70
    32
  0
VERTEX
  5
4981
  8
241
  6
CONTINUOUS
 10
75.370800000000088
 20
-12.1989
 30
0.0
 70
    32
  0
VERTEX
  5
4982
  8
241
  6
CONTINUOUS
 10
75.383200000000073
 20
-12.1798
 30
0.0
 70
    32
  0
VERTEX
  5
4983
  8
241
  6
CONTINUOUS
 10
75.39540000000008
 20
-12.160600000000001
 30
0.0
 70
    32
  0
VERTEX
  5
4984
  8
241
  6
CONTINUOUS
 10
75.407400000000081
 20
-12.141400000000001
 30
0.0
 70
    32
  0
VERTEX
  5
4985
  8
241
  6
CONTINUOUS
 10
75.419200000000075
 20
-12.122
 30
0.0
 70
    32
  0
VERTEX
  5
4986
  8
241
  6
CONTINUOUS
 10
75.430700000000101
 20
-12.102499999999999
 30
0.0
 70
    32
  0
VERTEX
  5
4987
  8
241
  6
CONTINUOUS
 10
75.442000000000093
 20
-12.0829
 30
0.0
 70
    32
  0
VERTEX
  5
4988
  8
241
  6
CONTINUOUS
 10
75.453100000000092
 20
-12.0632
 30
0.0
 70
    32
  0
VERTEX
  5
4989
  8
241
  6
CONTINUOUS
 10
75.463900000000081
 20
-12.0434
 30
0.0
 70
    32
  0
VERTEX
  5
498A
  8
241
  6
CONTINUOUS
 10
75.474500000000091
 20
-12.0236
 30
0.0
 70
    32
  0
VERTEX
  5
498B
  8
241
  6
CONTINUOUS
 10
75.484900000000081
 20
-12.0036
 30
0.0
 70
    32
  0
VERTEX
  5
498C
  8
241
  6
CONTINUOUS
 10
75.495000000000076
 20
-11.983499999999999
 30
0.0
 70
    32
  0
VERTEX
  5
498D
  8
241
  6
CONTINUOUS
 10
75.505000000000081
 20
-11.9634
 30
0.0
 70
    32
  0
VERTEX
  5
498E
  8
241
  6
CONTINUOUS
 10
75.514600000000087
 20
-11.943199999999999
 30
0.0
 70
    32
  0
VERTEX
  5
498F
  8
241
  6
CONTINUOUS
 10
75.524100000000075
 20
-11.922800000000001
 30
0.0
 70
    32
  0
VERTEX
  5
4990
  8
241
  6
CONTINUOUS
 10
75.533300000000111
 20
-11.9024
 30
0.0
 70
    32
  0
VERTEX
  5
4991
  8
241
  6
CONTINUOUS
 10
75.542200000000093
 20
-11.882
 30
0.0
 70
    32
  0
VERTEX
  5
4992
  8
241
  6
CONTINUOUS
 10
75.550900000000098
 20
-11.8614
 30
0.0
 70
    32
  0
VERTEX
  5
4993
  8
241
  6
CONTINUOUS
 10
75.559400000000082
 20
-11.8408
 30
0.0
 70
    32
  0
VERTEX
  5
4994
  8
241
  6
CONTINUOUS
 10
75.567700000000102
 20
-11.8201
 30
0.0
 70
    32
  0
VERTEX
  5
4995
  8
241
  6
CONTINUOUS
 10
75.575700000000083
 20
-11.799300000000001
 30
0.0
 70
    32
  0
VERTEX
  5
4996
  8
241
  6
CONTINUOUS
 10
75.583400000000083
 20
-11.778499999999999
 30
0.0
 70
    32
  0
VERTEX
  5
4997
  8
241
  6
CONTINUOUS
 10
75.59090000000009
 20
-11.7576
 30
0.0
 70
    32
  0
VERTEX
  5
4998
  8
241
  6
CONTINUOUS
 10
75.598200000000077
 20
-11.736599999999999
 30
0.0
 70
    32
  0
VERTEX
  5
4999
  8
241
  6
CONTINUOUS
 10
75.605200000000082
 20
-11.7156
 30
0.0
 70
    32
  0
SEQEND
  5
499A
  8
241
  6
CONTINUOUS
  0
LINE
  5
499B
  8
241
  6
CONTINUOUS
 10
67.199999999999861
 20
-10.14104656429968
 30
0.0
 11
73.200000000000074
 21
-10.14104656429968
 31
0.0
  0
LINE
  5
499C
  8
241
  6
CONTINUOUS
 10
67.199999999999861
 20
-13.290063509460859
 30
0.0
 11
73.200000000000074
 21
-13.290063509460859
 31
0.0
  0
LINE
  5
499D
  8
240
  6
CONTINUOUS
 10
88.900000000000205
 20
-19.922649730810321
 30
0.0
 11
88.899999999999821
 21
19.922649730810289
 31
0.0
  0
LINE
  5
499E
  8
240
  6
CONTINUOUS
 10
88.400000000000148
 20
-20.788675134594762
 30
0.0
 11
83.701320763548793
 21
-23.501458856595612
 31
0.0
  0
ARC
  5
499F
  8
240
  6
CONTINUOUS
 10
82.201320763548836
 20
-20.903382645242282
 30
0.0
 40
3.0
 50
272.99999999999602
 51
299.99999999999932
1001
ASK_MEN_XD
1005
4780
1070
     1
1005
499E
1070
     1
  0
ARC
  5
49A0
  8
240
  6
CONTINUOUS
 10
87.900000000000148
 20
-19.922649730810321
 30
0.0
 40
1.0
 50
299.99999999999932
 51
0.0
1001
ASK_MEN_XD
1005
0
1070
     1
1005
0
1070
     1
  0
LINE
  5
49A1
  8
241
  6
CONTINUOUS
 10
83.077577850731444
 20
-23.772559098017918
 30
0.0
 11
83.077577850731501
 21
23.77255909801789
 31
0.0
  0
LINE
  5
49A2
  8
240
  6
CONTINUOUS
 10
45.100000000002758
 20
25.349999999998431
 30
0.0
 11
49.099999999998708
 21
25.350000000000112
 31
0.0
  0
LINE
  5
49A3
  8
240
  6
CONTINUOUS
 10
82.358328632277477
 20
23.899271249505968
 30
0.0
 11
75.666025403789547
 21
24.249999999999329
 31
0.0
  0
POLYLINE
  5
49A4
  8
241
  6
CONTINUOUS
 66
     1
 10
0.0
 20
0.0
 30
0.0
 70
     8
  0
VERTEX
  5
49A5
  8
241
  6
CONTINUOUS
 10
73.200000000000074
 20
14.471199999999991
 30
0.0
 70
    32
  0
VERTEX
  5
49A6
  8
241
  6
CONTINUOUS
 10
73.26140000000008
 20
14.470499999999991
 30
0.0
 70
    32
  0
VERTEX
  5
49A7
  8
241
  6
CONTINUOUS
 10
73.322700000000083
 20
14.46859999999999
 30
0.0
 70
    32
  0
VERTEX
  5
49A8
  8
241
  6
CONTINUOUS
 10
73.383900000000082
 20
14.46529999999999
 30
0.0
 70
    32
  0
VERTEX
  5
49A9
  8
241
  6
CONTINUOUS
 10
73.445000000000107
 20
14.46069999999999
 30
0.0
 70
    32
  0
VERTEX
  5
49AA
  8
241
  6
CONTINUOUS
 10
73.5060000000001
 20
14.45489999999999
 30
0.0
 70
    32
  0
VERTEX
  5
49AB
  8
241
  6
CONTINUOUS
 10
73.5668000000001
 20
14.44769999999999
 30
0.0
 70
    32
  0
VERTEX
  5
49AC
  8
241
  6
CONTINUOUS
 10
73.62740000000008
 20
14.43929999999999
 30
0.0
 70
    32
  0
VERTEX
  5
49AD
  8
241
  6
CONTINUOUS
 10
73.687700000000092
 20
14.42959999999999
 30
0.0
 70
    32
  0
VERTEX
  5
49AE
  8
241
  6
CONTINUOUS
 10
73.747800000000083
 20
14.418599999999991
 30
0.0
 70
    32
  0
VERTEX
  5
49AF
  8
241
  6
CONTINUOUS
 10
73.807500000000104
 20
14.40629999999998
 30
0.0
 70
    32
  0
VERTEX
  5
49B0
  8
241
  6
CONTINUOUS
 10
73.866800000000083
 20
14.392699999999991
 30
0.0
 70
    32
  0
VERTEX
  5
49B1
  8
241
  6
CONTINUOUS
 10
73.925700000000091
 20
14.37789999999999
 30
0.0
 70
    32
  0
VERTEX
  5
49B2
  8
241
  6
CONTINUOUS
 10
73.984200000000072
 20
14.36189999999999
 30
0.0
 70
    32
  0
VERTEX
  5
49B3
  8
241
  6
CONTINUOUS
 10
74.042200000000079
 20
14.34459999999998
 30
0.0
 70
    32
  0
VERTEX
  5
49B4
  8
241
  6
CONTINUOUS
 10
74.099700000000084
 20
14.32609999999999
 30
0.0
 70
    32
  0
VERTEX
  5
49B5
  8
241
  6
CONTINUOUS
 10
74.156700000000086
 20
14.306399999999989
 30
0.0
 70
    32
  0
VERTEX
  5
49B6
  8
241
  6
CONTINUOUS
 10
74.213100000000082
 20
14.28539999999999
 30
0.0
 70
    32
  0
VERTEX
  5
49B7
  8
241
  6
CONTINUOUS
 10
74.268900000000087
 20
14.26329999999999
 30
0.0
 70
    32
  0
VERTEX
  5
49B8
  8
241
  6
CONTINUOUS
 10
74.324000000000083
 20
14.23999999999999
 30
0.0
 70
    32
  0
VERTEX
  5
49B9
  8
241
  6
CONTINUOUS
 10
74.378500000000074
 20
14.21549999999999
 30
0.0
 70
    32
  0
VERTEX
  5
49BA
  8
241
  6
CONTINUOUS
 10
74.432200000000094
 20
14.189899999999991
 30
0.0
 70
    32
  0
VERTEX
  5
49BB
  8
241
  6
CONTINUOUS
 10
74.48530000000008
 20
14.163099999999989
 30
0.0
 70
    32
  0
VERTEX
  5
49BC
  8
241
  6
CONTINUOUS
 10
74.537500000000094
 20
14.13529999999999
 30
0.0
 70
    32
  0
VERTEX
  5
49BD
  8
241
  6
CONTINUOUS
 10
74.588900000000081
 20
14.10629999999999
 30
0.0
 70
    32
  0
VERTEX
  5
49BE
  8
241
  6
CONTINUOUS
 10
74.639500000000083
 20
14.076199999999981
 30
0.0
 70
    32
  0
VERTEX
  5
49BF
  8
241
  6
CONTINUOUS
 10
74.689200000000085
 20
14.045099999999991
 30
0.0
 70
    32
  0
VERTEX
  5
49C0
  8
241
  6
CONTINUOUS
 10
74.738100000000088
 20
14.012899999999989
 30
0.0
 70
    32
  0
VERTEX
  5
49C1
  8
241
  6
CONTINUOUS
 10
74.786000000000101
 20
13.97969999999999
 30
0.0
 70
    32
  0
VERTEX
  5
49C2
  8
241
  6
CONTINUOUS
 10
74.83290000000008
 20
13.94549999999999
 30
0.0
 70
    32
  0
VERTEX
  5
49C3
  8
241
  6
CONTINUOUS
 10
74.878900000000101
 20
13.910299999999991
 30
0.0
 70
    32
  0
VERTEX
  5
49C4
  8
241
  6
CONTINUOUS
 10
74.923900000000089
 20
13.874199999999981
 30
0.0
 70
    32
  0
VERTEX
  5
49C5
  8
241
  6
CONTINUOUS
 10
74.967800000000082
 20
13.836999999999991
 30
0.0
 70
    32
  0
VERTEX
  5
49C6
  8
241
  6
CONTINUOUS
 10
75.010600000000096
 20
13.798999999999991
 30
0.0
 70
    32
  0
VERTEX
  5
49C7
  8
241
  6
CONTINUOUS
 10
75.052400000000091
 20
13.760099999999991
 30
0.0
 70
    32
  0
VERTEX
  5
49C8
  8
241
  6
CONTINUOUS
 10
75.093000000000075
 20
13.72029999999998
 30
0.0
 70
    32
  0
VERTEX
  5
49C9
  8
241
  6
CONTINUOUS
 10
75.132500000000107
 20
13.67959999999999
 30
0.0
 70
    32
  0
VERTEX
  5
49CA
  8
241
  6
CONTINUOUS
 10
75.170900000000074
 20
13.638099999999991
 30
0.0
 70
    32
  0
VERTEX
  5
49CB
  8
241
  6
CONTINUOUS
 10
75.208000000000084
 20
13.59579999999999
 30
0.0
 70
    32
  0
VERTEX
  5
49CC
  8
241
  6
CONTINUOUS
 10
75.244000000000099
 20
13.552799999999991
 30
0.0
 70
    32
  0
VERTEX
  5
49CD
  8
241
  6
CONTINUOUS
 10
75.2787000000001
 20
13.50899999999999
 30
0.0
 70
    32
  0
VERTEX
  5
49CE
  8
241
  6
CONTINUOUS
 10
75.312100000000072
 20
13.464399999999991
 30
0.0
 70
    32
  0
VERTEX
  5
49CF
  8
241
  6
CONTINUOUS
 10
75.344300000000089
 20
13.419199999999989
 30
0.0
 70
    32
  0
VERTEX
  5
49D0
  8
241
  6
CONTINUOUS
 10
75.375200000000092
 20
13.37329999999999
 30
0.0
 70
    32
  0
VERTEX
  5
49D1
  8
241
  6
CONTINUOUS
 10
75.40480000000008
 20
13.32669999999999
 30
0.0
 70
    32
  0
VERTEX
  5
49D2
  8
241
  6
CONTINUOUS
 10
75.433100000000081
 20
13.27949999999999
 30
0.0
 70
    32
  0
VERTEX
  5
49D3
  8
241
  6
CONTINUOUS
 10
75.460000000000093
 20
13.231799999999989
 30
0.0
 70
    32
  0
VERTEX
  5
49D4
  8
241
  6
CONTINUOUS
 10
75.485500000000087
 20
13.18349999999999
 30
0.0
 70
    32
  0
VERTEX
  5
49D5
  8
241
  6
CONTINUOUS
 10
75.50970000000008
 20
13.13459999999999
 30
0.0
 70
    32
  0
VERTEX
  5
49D6
  8
241
  6
CONTINUOUS
 10
75.532500000000084
 20
13.085299999999989
 30
0.0
 70
    32
  0
VERTEX
  5
49D7
  8
241
  6
CONTINUOUS
 10
75.553900000000084
 20
13.03549999999999
 30
0.0
 70
    32
  0
VERTEX
  5
49D8
  8
241
  6
CONTINUOUS
 10
75.573800000000091
 20
12.98529999999999
 30
0.0
 70
    32
  0
VERTEX
  5
49D9
  8
241
  6
CONTINUOUS
 10
75.592400000000112
 20
12.934599999999991
 30
0.0
 70
    32
  0
VERTEX
  5
49DA
  8
241
  6
CONTINUOUS
 10
75.609400000000079
 20
12.883599999999991
 30
0.0
 70
    32
  0
VERTEX
  5
49DB
  8
241
  6
CONTINUOUS
 10
75.625100000000089
 20
12.83219999999999
 30
0.0
 70
    32
  0
VERTEX
  5
49DC
  8
241
  6
CONTINUOUS
 10
75.639300000000105
 20
12.780499999999989
 30
0.0
 70
    32
  0
VERTEX
  5
49DD
  8
241
  6
CONTINUOUS
 10
75.6520000000001
 20
12.72849999999999
 30
0.0
 70
    32
  0
VERTEX
  5
49DE
  8
241
  6
CONTINUOUS
 10
75.663200000000074
 20
12.676299999999991
 30
0.0
 70
    32
  0
VERTEX
  5
49DF
  8
241
  6
CONTINUOUS
 10
75.672900000000098
 20
12.62379999999999
 30
0.0
 70
    32
  0
VERTEX
  5
49E0
  8
241
  6
CONTINUOUS
 10
75.681200000000075
 20
12.571099999999991
 30
0.0
 70
    32
  0
VERTEX
  5
49E1
  8
241
  6
CONTINUOUS
 10
75.688000000000073
 20
12.518299999999989
 30
0.0
 70
    32
  0
VERTEX
  5
49E2
  8
241
  6
CONTINUOUS
 10
75.693200000000076
 20
12.46539999999999
 30
0.0
 70
    32
  0
VERTEX
  5
49E3
  8
241
  6
CONTINUOUS
 10
75.697000000000074
 20
12.412299999999989
 30
0.0
 70
    32
  0
VERTEX
  5
49E4
  8
241
  6
CONTINUOUS
 10
75.699200000000076
 20
12.359199999999991
 30
0.0
 70
    32
  0
VERTEX
  5
49E5
  8
241
  6
CONTINUOUS
 10
75.700000000000074
 20
12.30609999999999
 30
0.0
 70
    32
  0
VERTEX
  5
49E6
  8
241
  6
CONTINUOUS
 10
75.699200000000076
 20
12.252999999999989
 30
0.0
 70
    32
  0
VERTEX
  5
49E7
  8
241
  6
CONTINUOUS
 10
75.697000000000074
 20
12.199899999999991
 30
0.0
 70
    32
  0
VERTEX
  5
49E8
  8
241
  6
CONTINUOUS
 10
75.693200000000076
 20
12.14679999999999
 30
0.0
 70
    32
  0
VERTEX
  5
49E9
  8
241
  6
CONTINUOUS
 10
75.688000000000073
 20
12.093899999999991
 30
0.0
 70
    32
  0
VERTEX
  5
49EA
  8
241
  6
CONTINUOUS
 10
75.681200000000075
 20
12.041099999999989
 30
0.0
 70
    32
  0
VERTEX
  5
49EB
  8
241
  6
CONTINUOUS
 10
75.672900000000098
 20
11.98839999999999
 30
0.0
 70
    32
  0
VERTEX
  5
49EC
  8
241
  6
CONTINUOUS
 10
75.663200000000074
 20
11.935999999999989
 30
0.0
 70
    32
  0
VERTEX
  5
49ED
  8
241
  6
CONTINUOUS
 10
75.6520000000001
 20
11.88369999999999
 30
0.0
 70
    32
  0
VERTEX
  5
49EE
  8
241
  6
CONTINUOUS
 10
75.639300000000105
 20
11.831699999999991
 30
0.0
 70
    32
  0
VERTEX
  5
49EF
  8
241
  6
CONTINUOUS
 10
75.625100000000089
 20
11.77999999999999
 30
0.0
 70
    32
  0
VERTEX
  5
49F0
  8
241
  6
CONTINUOUS
 10
75.609400000000079
 20
11.72869999999998
 30
0.0
 70
    32
  0
VERTEX
  5
49F1
  8
241
  6
CONTINUOUS
 10
75.592400000000112
 20
11.677599999999989
 30
0.0
 70
    32
  0
VERTEX
  5
49F2
  8
241
  6
CONTINUOUS
 10
75.573800000000091
 20
11.62699999999999
 30
0.0
 70
    32
  0
VERTEX
  5
49F3
  8
241
  6
CONTINUOUS
 10
75.553900000000084
 20
11.57669999999999
 30
0.0
 70
    32
  0
VERTEX
  5
49F4
  8
241
  6
CONTINUOUS
 10
75.532500000000084
 20
11.526899999999991
 30
0.0
 70
    32
  0
VERTEX
  5
49F5
  8
241
  6
CONTINUOUS
 10
75.50970000000008
 20
11.47759999999999
 30
0.0
 70
    32
  0
VERTEX
  5
49F6
  8
241
  6
CONTINUOUS
 10
75.485500000000087
 20
11.42869999999999
 30
0.0
 70
    32
  0
VERTEX
  5
49F7
  8
241
  6
CONTINUOUS
 10
75.460000000000093
 20
11.380399999999989
 30
0.0
 70
    32
  0
VERTEX
  5
49F8
  8
241
  6
CONTINUOUS
 10
75.433100000000081
 20
11.33269999999999
 30
0.0
 70
    32
  0
VERTEX
  5
49F9
  8
241
  6
CONTINUOUS
 10
75.40480000000008
 20
11.28549999999999
 30
0.0
 70
    32
  0
VERTEX
  5
49FA
  8
241
  6
CONTINUOUS
 10
75.375200000000092
 20
11.23899999999999
 30
0.0
 70
    32
  0
VERTEX
  5
49FB
  8
241
  6
CONTINUOUS
 10
75.344300000000089
 20
11.192999999999991
 30
0.0
 70
    32
  0
VERTEX
  5
49FC
  8
241
  6
CONTINUOUS
 10
75.312100000000072
 20
11.147799999999981
 30
0.0
 70
    32
  0
VERTEX
  5
49FD
  8
241
  6
CONTINUOUS
 10
75.2787000000001
 20
11.10329999999999
 30
0.0
 70
    32
  0
VERTEX
  5
49FE
  8
241
  6
CONTINUOUS
 10
75.244000000000099
 20
11.059399999999989
 30
0.0
 70
    32
  0
VERTEX
  5
49FF
  8
241
  6
CONTINUOUS
 10
75.208000000000084
 20
11.01639999999999
 30
0.0
 70
    32
  0
VERTEX
  5
4A00
  8
241
  6
CONTINUOUS
 10
75.170900000000074
 20
10.974099999999989
 30
0.0
 70
    32
  0
VERTEX
  5
4A01
  8
241
  6
CONTINUOUS
 10
75.132500000000107
 20
10.93259999999999
 30
0.0
 70
    32
  0
VERTEX
  5
4A02
  8
241
  6
CONTINUOUS
 10
75.093000000000075
 20
10.891899999999991
 30
0.0
 70
    32
  0
VERTEX
  5
4A03
  8
241
  6
CONTINUOUS
 10
75.052400000000091
 20
10.852099999999989
 30
0.0
 70
    32
  0
VERTEX
  5
4A04
  8
241
  6
CONTINUOUS
 10
75.010600000000096
 20
10.813199999999981
 30
0.0
 70
    32
  0
VERTEX
  5
4A05
  8
241
  6
CONTINUOUS
 10
74.967800000000082
 20
10.77519999999998
 30
0.0
 70
    32
  0
VERTEX
  5
4A06
  8
241
  6
CONTINUOUS
 10
74.923900000000089
 20
10.73809999999999
 30
0.0
 70
    32
  0
VERTEX
  5
4A07
  8
241
  6
CONTINUOUS
 10
74.878900000000101
 20
10.70189999999999
 30
0.0
 70
    32
  0
VERTEX
  5
4A08
  8
241
  6
CONTINUOUS
 10
74.83290000000008
 20
10.66669999999999
 30
0.0
 70
    32
  0
VERTEX
  5
4A09
  8
241
  6
CONTINUOUS
 10
74.786000000000101
 20
10.63249999999999
 30
0.0
 70
    32
  0
VERTEX
  5
4A0A
  8
241
  6
CONTINUOUS
 10
74.738100000000088
 20
10.599299999999991
 30
0.0
 70
    32
  0
VERTEX
  5
4A0B
  8
241
  6
CONTINUOUS
 10
74.689200000000085
 20
10.56709999999998
 30
0.0
 70
    32
  0
VERTEX
  5
4A0C
  8
241
  6
CONTINUOUS
 10
74.639500000000083
 20
10.535999999999991
 30
0.0
 70
    32
  0
VERTEX
  5
4A0D
  8
241
  6
CONTINUOUS
 10
74.588900000000081
 20
10.50589999999999
 30
0.0
 70
    32
  0
VERTEX
  5
4A0E
  8
241
  6
CONTINUOUS
 10
74.537500000000094
 20
10.47689999999999
 30
0.0
 70
    32
  0
VERTEX
  5
4A0F
  8
241
  6
CONTINUOUS
 10
74.48530000000008
 20
10.449099999999991
 30
0.0
 70
    32
  0
VERTEX
  5
4A10
  8
241
  6
CONTINUOUS
 10
74.432200000000094
 20
10.422299999999989
 30
0.0
 70
    32
  0
VERTEX
  5
4A11
  8
241
  6
CONTINUOUS
 10
74.378500000000074
 20
10.39669999999999
 30
0.0
 70
    32
  0
VERTEX
  5
4A12
  8
241
  6
CONTINUOUS
 10
74.324000000000083
 20
10.372199999999991
 30
0.0
 70
    32
  0
VERTEX
  5
4A13
  8
241
  6
CONTINUOUS
 10
74.268900000000087
 20
10.34889999999999
 30
0.0
 70
    32
  0
VERTEX
  5
4A14
  8
241
  6
CONTINUOUS
 10
74.213100000000082
 20
10.32679999999999
 30
0.0
 70
    32
  0
VERTEX
  5
4A15
  8
241
  6
CONTINUOUS
 10
74.156700000000086
 20
10.305899999999991
 30
0.0
 70
    32
  0
VERTEX
  5
4A16
  8
241
  6
CONTINUOUS
 10
74.099700000000084
 20
10.28609999999999
 30
0.0
 70
    32
  0
VERTEX
  5
4A17
  8
241
  6
CONTINUOUS
 10
74.042200000000079
 20
10.267599999999989
 30
0.0
 70
    32
  0
VERTEX
  5
4A18
  8
241
  6
CONTINUOUS
 10
73.984200000000072
 20
10.25029999999999
 30
0.0
 70
    32
  0
VERTEX
  5
4A19
  8
241
  6
CONTINUOUS
 10
73.925700000000091
 20
10.23429999999999
 30
0.0
 70
    32
  0
VERTEX
  5
4A1A
  8
241
  6
CONTINUOUS
 10
73.866800000000083
 20
10.219499999999989
 30
0.0
 70
    32
  0
VERTEX
  5
4A1B
  8
241
  6
CONTINUOUS
 10
73.807500000000104
 20
10.205899999999991
 30
0.0
 70
    32
  0
VERTEX
  5
4A1C
  8
241
  6
CONTINUOUS
 10
73.747800000000083
 20
10.193699999999991
 30
0.0
 70
    32
  0
VERTEX
  5
4A1D
  8
241
  6
CONTINUOUS
 10
73.687700000000092
 20
10.18259999999999
 30
0.0
 70
    32
  0
VERTEX
  5
4A1E
  8
241
  6
CONTINUOUS
 10
73.62740000000008
 20
10.17289999999999
 30
0.0
 70
    32
  0
VERTEX
  5
4A1F
  8
241
  6
CONTINUOUS
 10
73.5668000000001
 20
10.16449999999999
 30
0.0
 70
    32
  0
VERTEX
  5
4A20
  8
241
  6
CONTINUOUS
 10
73.5060000000001
 20
10.15729999999999
 30
0.0
 70
    32
  0
VERTEX
  5
4A21
  8
241
  6
CONTINUOUS
 10
73.445000000000107
 20
10.15149999999999
 30
0.0
 70
    32
  0
VERTEX
  5
4A22
  8
241
  6
CONTINUOUS
 10
73.383900000000082
 20
10.14689999999999
 30
0.0
 70
    32
  0
VERTEX
  5
4A23
  8
241
  6
CONTINUOUS
 10
73.322700000000083
 20
10.14369999999999
 30
0.0
 70
    32
  0
VERTEX
  5
4A24
  8
241
  6
CONTINUOUS
 10
73.26140000000008
 20
10.14169999999999
 30
0.0
 70
    32
  0
VERTEX
  5
4A25
  8
241
  6
CONTINUOUS
 10
73.200000000000074
 20
10.140999999999989
 30
0.0
 70
    32
  0
SEQEND
  5
4A26
  8
241
  6
CONTINUOUS
  0
POLYLINE
  5
4A27
  8
241
  6
CONTINUOUS
 66
     1
 10
0.0
 20
0.0
 30
0.0
 70
     8
  0
VERTEX
  5
4A28
  8
241
  6
CONTINUOUS
 10
67.200000000000074
 20
10.140999999999989
 30
0.0
 70
    32
  0
VERTEX
  5
4A29
  8
241
  6
CONTINUOUS
 10
67.138600000000082
 20
10.14169999999999
 30
0.0
 70
    32
  0
VERTEX
  5
4A2A
  8
241
  6
CONTINUOUS
 10
67.077300000000079
 20
10.14369999999999
 30
0.0
 70
    32
  0
VERTEX
  5
4A2B
  8
241
  6
CONTINUOUS
 10
67.01610000000008
 20
10.14689999999999
 30
0.0
 70
    32
  0
VERTEX
  5
4A2C
  8
241
  6
CONTINUOUS
 10
66.955000000000084
 20
10.15149999999999
 30
0.0
 70
    32
  0
VERTEX
  5
4A2D
  8
241
  6
CONTINUOUS
 10
66.894000000000091
 20
10.15729999999999
 30
0.0
 70
    32
  0
VERTEX
  5
4A2E
  8
241
  6
CONTINUOUS
 10
66.83320000000009
 20
10.16449999999999
 30
0.0
 70
    32
  0
VERTEX
  5
4A2F
  8
241
  6
CONTINUOUS
 10
66.772600000000082
 20
10.17289999999999
 30
0.0
 70
    32
  0
VERTEX
  5
4A30
  8
241
  6
CONTINUOUS
 10
66.712300000000084
 20
10.18259999999999
 30
0.0
 70
    32
  0
VERTEX
  5
4A31
  8
241
  6
CONTINUOUS
 10
66.652200000000079
 20
10.193699999999991
 30
0.0
 70
    32
  0
VERTEX
  5
4A32
  8
241
  6
CONTINUOUS
 10
66.592500000000101
 20
10.205899999999991
 30
0.0
 70
    32
  0
VERTEX
  5
4A33
  8
241
  6
CONTINUOUS
 10
66.533200000000107
 20
10.219499999999989
 30
0.0
 70
    32
  0
VERTEX
  5
4A34
  8
241
  6
CONTINUOUS
 10
66.474300000000099
 20
10.23429999999999
 30
0.0
 70
    32
  0
VERTEX
  5
4A35
  8
241
  6
CONTINUOUS
 10
66.415800000000075
 20
10.25029999999999
 30
0.0
 70
    32
  0
VERTEX
  5
4A36
  8
241
  6
CONTINUOUS
 10
66.357800000000083
 20
10.267599999999989
 30
0.0
 70
    32
  0
VERTEX
  5
4A37
  8
241
  6
CONTINUOUS
 10
66.300300000000078
 20
10.28609999999999
 30
0.0
 70
    32
  0
VERTEX
  5
4A38
  8
241
  6
CONTINUOUS
 10
66.24330000000009
 20
10.305899999999991
 30
0.0
 70
    32
  0
VERTEX
  5
4A39
  8
241
  6
CONTINUOUS
 10
66.186900000000094
 20
10.32679999999999
 30
0.0
 70
    32
  0
VERTEX
  5
4A3A
  8
241
  6
CONTINUOUS
 10
66.131100000000103
 20
10.34889999999999
 30
0.0
 70
    32
  0
VERTEX
  5
4A3B
  8
241
  6
CONTINUOUS
 10
66.076000000000079
 20
10.372199999999991
 30
0.0
 70
    32
  0
VERTEX
  5
4A3C
  8
241
  6
CONTINUOUS
 10
66.021500000000074
 20
10.39669999999999
 30
0.0
 70
    32
  0
VERTEX
  5
4A3D
  8
241
  6
CONTINUOUS
 10
65.967800000000096
 20
10.422299999999989
 30
0.0
 70
    32
  0
VERTEX
  5
4A3E
  8
241
  6
CONTINUOUS
 10
65.914700000000082
 20
10.449099999999991
 30
0.0
 70
    32
  0
VERTEX
  5
4A3F
  8
241
  6
CONTINUOUS
 10
65.862500000000082
 20
10.47689999999999
 30
0.0
 70
    32
  0
VERTEX
  5
4A40
  8
241
  6
CONTINUOUS
 10
65.811100000000081
 20
10.50589999999999
 30
0.0
 70
    32
  0
VERTEX
  5
4A41
  8
241
  6
CONTINUOUS
 10
65.760500000000079
 20
10.535999999999991
 30
0.0
 70
    32
  0
VERTEX
  5
4A42
  8
241
  6
CONTINUOUS
 10
65.710800000000091
 20
10.56709999999998
 30
0.0
 70
    32
  0
VERTEX
  5
4A43
  8
241
  6
CONTINUOUS
 10
65.661900000000088
 20
10.599299999999991
 30
0.0
 70
    32
  0
VERTEX
  5
4A44
  8
241
  6
CONTINUOUS
 10
65.614000000000104
 20
10.63249999999999
 30
0.0
 70
    32
  0
VERTEX
  5
4A45
  8
241
  6
CONTINUOUS
 10
65.567100000000096
 20
10.66669999999999
 30
0.0
 70
    32
  0
VERTEX
  5
4A46
  8
241
  6
CONTINUOUS
 10
65.521100000000104
 20
10.70189999999999
 30
0.0
 70
    32
  0
VERTEX
  5
4A47
  8
241
  6
CONTINUOUS
 10
65.476100000000088
 20
10.73809999999999
 30
0.0
 70
    32
  0
VERTEX
  5
4A48
  8
241
  6
CONTINUOUS
 10
65.432200000000108
 20
10.77519999999998
 30
0.0
 70
    32
  0
VERTEX
  5
4A49
  8
241
  6
CONTINUOUS
 10
65.389400000000094
 20
10.813199999999981
 30
0.0
 70
    32
  0
VERTEX
  5
4A4A
  8
241
  6
CONTINUOUS
 10
65.347600000000085
 20
10.852099999999989
 30
0.0
 70
    32
  0
VERTEX
  5
4A4B
  8
241
  6
CONTINUOUS
 10
65.307000000000073
 20
10.891899999999991
 30
0.0
 70
    32
  0
VERTEX
  5
4A4C
  8
241
  6
CONTINUOUS
 10
65.267500000000098
 20
10.93259999999999
 30
0.0
 70
    32
  0
VERTEX
  5
4A4D
  8
241
  6
CONTINUOUS
 10
65.229100000000074
 20
10.974099999999989
 30
0.0
 70
    32
  0
VERTEX
  5
4A4E
  8
241
  6
CONTINUOUS
 10
65.192000000000093
 20
11.01639999999999
 30
0.0
 70
    32
  0
VERTEX
  5
4A4F
  8
241
  6
CONTINUOUS
 10
65.156000000000091
 20
11.059399999999989
 30
0.0
 70
    32
  0
VERTEX
  5
4A50
  8
241
  6
CONTINUOUS
 10
65.121300000000105
 20
11.10329999999999
 30
0.0
 70
    32
  0
VERTEX
  5
4A51
  8
241
  6
CONTINUOUS
 10
65.087900000000076
 20
11.147799999999981
 30
0.0
 70
    32
  0
VERTEX
  5
4A52
  8
241
  6
CONTINUOUS
 10
65.055700000000087
 20
11.192999999999991
 30
0.0
 70
    32
  0
VERTEX
  5
4A53
  8
241
  6
CONTINUOUS
 10
65.024800000000084
 20
11.23899999999999
 30
0.0
 70
    32
  0
VERTEX
  5
4A54
  8
241
  6
CONTINUOUS
 10
64.995200000000082
 20
11.28549999999999
 30
0.0
 70
    32
  0
VERTEX
  5
4A55
  8
241
  6
CONTINUOUS
 10
64.966900000000081
 20
11.33269999999999
 30
0.0
 70
    32
  0
VERTEX
  5
4A56
  8
241
  6
CONTINUOUS
 10
64.940000000000083
 20
11.380399999999989
 30
0.0
 70
    32
  0
VERTEX
  5
4A57
  8
241
  6
CONTINUOUS
 10
64.914500000000089
 20
11.42869999999999
 30
0.0
 70
    32
  0
VERTEX
  5
4A58
  8
241
  6
CONTINUOUS
 10
64.890300000000082
 20
11.47759999999999
 30
0.0
 70
    32
  0
VERTEX
  5
4A59
  8
241
  6
CONTINUOUS
 10
64.867500000000092
 20
11.526899999999991
 30
0.0
 70
    32
  0
VERTEX
  5
4A5A
  8
241
  6
CONTINUOUS
 10
64.846100000000092
 20
11.57669999999999
 30
0.0
 70
    32
  0
VERTEX
  5
4A5B
  8
241
  6
CONTINUOUS
 10
64.8262000000001
 20
11.62699999999999
 30
0.0
 70
    32
  0
VERTEX
  5
4A5C
  8
241
  6
CONTINUOUS
 10
64.807600000000093
 20
11.677599999999989
 30
0.0
 70
    32
  0
VERTEX
  5
4A5D
  8
241
  6
CONTINUOUS
 10
64.790600000000083
 20
11.72869999999998
 30
0.0
 70
    32
  0
VERTEX
  5
4A5E
  8
241
  6
CONTINUOUS
 10
64.774900000000088
 20
11.77999999999999
 30
0.0
 70
    32
  0
VERTEX
  5
4A5F
  8
241
  6
CONTINUOUS
 10
64.760700000000099
 20
11.831699999999991
 30
0.0
 70
    32
  0
VERTEX
  5
4A60
  8
241
  6
CONTINUOUS
 10
64.748000000000076
 20
11.88369999999999
 30
0.0
 70
    32
  0
VERTEX
  5
4A61
  8
241
  6
CONTINUOUS
 10
64.736800000000073
 20
11.935999999999989
 30
0.0
 70
    32
  0
VERTEX
  5
4A62
  8
241
  6
CONTINUOUS
 10
64.727100000000092
 20
11.98839999999999
 30
0.0
 70
    32
  0
VERTEX
  5
4A63
  8
241
  6
CONTINUOUS
 10
64.718800000000073
 20
12.041099999999989
 30
0.0
 70
    32
  0
VERTEX
  5
4A64
  8
241
  6
CONTINUOUS
 10
64.712000000000074
 20
12.093899999999991
 30
0.0
 70
    32
  0
VERTEX
  5
4A65
  8
241
  6
CONTINUOUS
 10
64.706800000000072
 20
12.14679999999999
 30
0.0
 70
    32
  0
VERTEX
  5
4A66
  8
241
  6
CONTINUOUS
 10
64.703000000000074
 20
12.199899999999991
 30
0.0
 70
    32
  0
VERTEX
  5
4A67
  8
241
  6
CONTINUOUS
 10
64.7008000000001
 20
12.252999999999989
 30
0.0
 70
    32
  0
VERTEX
  5
4A68
  8
241
  6
CONTINUOUS
 10
64.700000000000074
 20
12.30609999999999
 30
0.0
 70
    32
  0
VERTEX
  5
4A69
  8
241
  6
CONTINUOUS
 10
64.7008000000001
 20
12.359199999999991
 30
0.0
 70
    32
  0
VERTEX
  5
4A6A
  8
241
  6
CONTINUOUS
 10
64.703000000000074
 20
12.412299999999989
 30
0.0
 70
    32
  0
VERTEX
  5
4A6B
  8
241
  6
CONTINUOUS
 10
64.706800000000072
 20
12.46539999999999
 30
0.0
 70
    32
  0
VERTEX
  5
4A6C
  8
241
  6
CONTINUOUS
 10
64.712000000000074
 20
12.518299999999989
 30
0.0
 70
    32
  0
VERTEX
  5
4A6D
  8
241
  6
CONTINUOUS
 10
64.718800000000073
 20
12.571099999999991
 30
0.0
 70
    32
  0
VERTEX
  5
4A6E
  8
241
  6
CONTINUOUS
 10
64.727100000000092
 20
12.62379999999999
 30
0.0
 70
    32
  0
VERTEX
  5
4A6F
  8
241
  6
CONTINUOUS
 10
64.736800000000073
 20
12.676299999999991
 30
0.0
 70
    32
  0
VERTEX
  5
4A70
  8
241
  6
CONTINUOUS
 10
64.748000000000076
 20
12.72849999999999
 30
0.0
 70
    32
  0
VERTEX
  5
4A71
  8
241
  6
CONTINUOUS
 10
64.760700000000099
 20
12.780499999999989
 30
0.0
 70
    32
  0
VERTEX
  5
4A72
  8
241
  6
CONTINUOUS
 10
64.774900000000088
 20
12.83219999999999
 30
0.0
 70
    32
  0
VERTEX
  5
4A73
  8
241
  6
CONTINUOUS
 10
64.790600000000083
 20
12.883599999999991
 30
0.0
 70
    32
  0
VERTEX
  5
4A74
  8
241
  6
CONTINUOUS
 10
64.807600000000093
 20
12.934599999999991
 30
0.0
 70
    32
  0
VERTEX
  5
4A75
  8
241
  6
CONTINUOUS
 10
64.8262000000001
 20
12.98529999999999
 30
0.0
 70
    32
  0
VERTEX
  5
4A76
  8
241
  6
CONTINUOUS
 10
64.846100000000092
 20
13.03549999999999
 30
0.0
 70
    32
  0
VERTEX
  5
4A77
  8
241
  6
CONTINUOUS
 10
64.867500000000092
 20
13.085299999999989
 30
0.0
 70
    32
  0
VERTEX
  5
4A78
  8
241
  6
CONTINUOUS
 10
64.890300000000082
 20
13.13459999999999
 30
0.0
 70
    32
  0
VERTEX
  5
4A79
  8
241
  6
CONTINUOUS
 10
64.914500000000089
 20
13.18349999999999
 30
0.0
 70
    32
  0
VERTEX
  5
4A7A
  8
241
  6
CONTINUOUS
 10
64.940000000000083
 20
13.231799999999989
 30
0.0
 70
    32
  0
VERTEX
  5
4A7B
  8
241
  6
CONTINUOUS
 10
64.966900000000081
 20
13.27949999999999
 30
0.0
 70
    32
  0
VERTEX
  5
4A7C
  8
241
  6
CONTINUOUS
 10
64.995200000000082
 20
13.32669999999999
 30
0.0
 70
    32
  0
VERTEX
  5
4A7D
  8
241
  6
CONTINUOUS
 10
65.024800000000084
 20
13.37329999999999
 30
0.0
 70
    32
  0
VERTEX
  5
4A7E
  8
241
  6
CONTINUOUS
 10
65.055700000000087
 20
13.419199999999989
 30
0.0
 70
    32
  0
VERTEX
  5
4A7F
  8
241
  6
CONTINUOUS
 10
65.087900000000076
 20
13.464399999999991
 30
0.0
 70
    32
  0
VERTEX
  5
4A80
  8
241
  6
CONTINUOUS
 10
65.121300000000105
 20
13.50899999999999
 30
0.0
 70
    32
  0
VERTEX
  5
4A81
  8
241
  6
CONTINUOUS
 10
65.156000000000091
 20
13.552799999999991
 30
0.0
 70
    32
  0
VERTEX
  5
4A82
  8
241
  6
CONTINUOUS
 10
65.192000000000093
 20
13.59579999999999
 30
0.0
 70
    32
  0
VERTEX
  5
4A83
  8
241
  6
CONTINUOUS
 10
65.229100000000074
 20
13.638099999999991
 30
0.0
 70
    32
  0
VERTEX
  5
4A84
  8
241
  6
CONTINUOUS
 10
65.267500000000098
 20
13.67959999999999
 30
0.0
 70
    32
  0
VERTEX
  5
4A85
  8
241
  6
CONTINUOUS
 10
65.307000000000073
 20
13.72029999999998
 30
0.0
 70
    32
  0
VERTEX
  5
4A86
  8
241
  6
CONTINUOUS
 10
65.347600000000085
 20
13.760099999999991
 30
0.0
 70
    32
  0
VERTEX
  5
4A87
  8
241
  6
CONTINUOUS
 10
65.389400000000094
 20
13.798999999999991
 30
0.0
 70
    32
  0
VERTEX
  5
4A88
  8
241
  6
CONTINUOUS
 10
65.432200000000108
 20
13.836999999999991
 30
0.0
 70
    32
  0
VERTEX
  5
4A89
  8
241
  6
CONTINUOUS
 10
65.476100000000088
 20
13.874199999999981
 30
0.0
 70
    32
  0
VERTEX
  5
4A8A
  8
241
  6
CONTINUOUS
 10
65.521100000000104
 20
13.910299999999991
 30
0.0
 70
    32
  0
VERTEX
  5
4A8B
  8
241
  6
CONTINUOUS
 10
65.567100000000096
 20
13.94549999999999
 30
0.0
 70
    32
  0
VERTEX
  5
4A8C
  8
241
  6
CONTINUOUS
 10
65.614000000000104
 20
13.97969999999999
 30
0.0
 70
    32
  0
VERTEX
  5
4A8D
  8
241
  6
CONTINUOUS
 10
65.661900000000088
 20
14.012899999999989
 30
0.0
 70
    32
  0
VERTEX
  5
4A8E
  8
241
  6
CONTINUOUS
 10
65.710800000000091
 20
14.045099999999991
 30
0.0
 70
    32
  0
VERTEX
  5
4A8F
  8
241
  6
CONTINUOUS
 10
65.760500000000079
 20
14.076199999999981
 30
0.0
 70
    32
  0
VERTEX
  5
4A90
  8
241
  6
CONTINUOUS
 10
65.811100000000081
 20
14.10629999999999
 30
0.0
 70
    32
  0
VERTEX
  5
4A91
  8
241
  6
CONTINUOUS
 10
65.862500000000082
 20
14.13529999999999
 30
0.0
 70
    32
  0
VERTEX
  5
4A92
  8
241
  6
CONTINUOUS
 10
65.914700000000082
 20
14.163099999999989
 30
0.0
 70
    32
  0
VERTEX
  5
4A93
  8
241
  6
CONTINUOUS
 10
65.967800000000096
 20
14.189899999999991
 30
0.0
 70
    32
  0
VERTEX
  5
4A94
  8
241
  6
CONTINUOUS
 10
66.021500000000074
 20
14.21549999999999
 30
0.0
 70
    32
  0
VERTEX
  5
4A95
  8
241
  6
CONTINUOUS
 10
66.076000000000079
 20
14.23999999999999
 30
0.0
 70
    32
  0
VERTEX
  5
4A96
  8
241
  6
CONTINUOUS
 10
66.131100000000103
 20
14.26329999999999
 30
0.0
 70
    32
  0
VERTEX
  5
4A97
  8
241
  6
CONTINUOUS
 10
66.186900000000094
 20
14.28539999999999
 30
0.0
 70
    32
  0
VERTEX
  5
4A98
  8
241
  6
CONTINUOUS
 10
66.24330000000009
 20
14.306399999999989
 30
0.0
 70
    32
  0
VERTEX
  5
4A99
  8
241
  6
CONTINUOUS
 10
66.300300000000078
 20
14.32609999999999
 30
0.0
 70
    32
  0
VERTEX
  5
4A9A
  8
241
  6
CONTINUOUS
 10
66.357800000000083
 20
14.34459999999998
 30
0.0
 70
    32
  0
VERTEX
  5
4A9B
  8
241
  6
CONTINUOUS
 10
66.415800000000075
 20
14.36189999999999
 30
0.0
 70
    32
  0
VERTEX
  5
4A9C
  8
241
  6
CONTINUOUS
 10
66.474300000000099
 20
14.37789999999999
 30
0.0
 70
    32
  0
VERTEX
  5
4A9D
  8
241
  6
CONTINUOUS
 10
66.533200000000107
 20
14.392699999999991
 30
0.0
 70
    32
  0
VERTEX
  5
4A9E
  8
241
  6
CONTINUOUS
 10
66.592500000000101
 20
14.40629999999998
 30
0.0
 70
    32
  0
VERTEX
  5
4A9F
  8
241
  6
CONTINUOUS
 10
66.652200000000079
 20
14.418599999999991
 30
0.0
 70
    32
  0
VERTEX
  5
4AA0
  8
241
  6
CONTINUOUS
 10
66.712300000000084
 20
14.42959999999999
 30
0.0
 70
    32
  0
VERTEX
  5
4AA1
  8
241
  6
CONTINUOUS
 10
66.772600000000082
 20
14.43929999999999
 30
0.0
 70
    32
  0
VERTEX
  5
4AA2
  8
241
  6
CONTINUOUS
 10
66.83320000000009
 20
14.44769999999999
 30
0.0
 70
    32
  0
VERTEX
  5
4AA3
  8
241
  6
CONTINUOUS
 10
66.894000000000091
 20
14.45489999999999
 30
0.0
 70
    32
  0
VERTEX
  5
4AA4
  8
241
  6
CONTINUOUS
 10
66.955000000000084
 20
14.46069999999999
 30
0.0
 70
    32
  0
VERTEX
  5
4AA5
  8
241
  6
CONTINUOUS
 10
67.01610000000008
 20
14.46529999999999
 30
0.0
 70
    32
  0
VERTEX
  5
4AA6
  8
241
  6
CONTINUOUS
 10
67.077300000000079
 20
14.46859999999999
 30
0.0
 70
    32
  0
VERTEX
  5
4AA7
  8
241
  6
CONTINUOUS
 10
67.138600000000082
 20
14.470499999999991
 30
0.0
 70
    32
  0
VERTEX
  5
4AA8
  8
241
  6
CONTINUOUS
 10
67.200000000000074
 20
14.471199999999991
 30
0.0
 70
    32
  0
SEQEND
  5
4AA9
  8
241
  6
CONTINUOUS
  0
LINE
  5
4AAA
  8
241
  6
CONTINUOUS
 10
75.666025403789547
 20
24.24999999999935
 30
0.0
 11
75.666025403789462
 21
12.66183332419503
 31
0.0
  0
LINE
  5
4AAB
  8
240
  6
CONTINUOUS
 10
49.450000000000578
 20
24.999999999999631
 30
0.0
 11
63.79999999999999
 21
24.999999999999719
 31
0.0
  0
LINE
  5
4AAC
  8
240
  6
CONTINUOUS
 10
49.099999999998708
 20
25.350000000000769
 30
0.0
 11
49.450000000000578
 21
24.999999999999631
 31
0.0
  0
LINE
  5
4AAD
  8
240
  6
CONTINUOUS
 10
64.04999999999994
 20
24.74999999999978
 30
0.0
 11
63.79999999999999
 21
24.999999999999719
 31
0.0
  0
LINE
  5
4AAE
  8
240
  6
CONTINUOUS
 10
64.04999999999994
 20
24.74999999999978
 30
0.0
 11
73.800000000000097
 21
24.74999999999962
 31
0.0
  0
LINE
  5
4AAF
  8
241
  6
CONTINUOUS
 10
66.799999999999883
 20
24.749999999999719
 30
0.0
 11
66.79999999999994
 21
14.42743041731808
 31
0.0
  0
LINE
  5
4AB0
  8
241
  6
CONTINUOUS
 10
67.199999999999861
 20
14.471173583221811
 30
0.0
 11
73.200000000000102
 21
14.471173583221811
 31
0.0
  0
LINE
  5
4AB1
  8
241
  6
CONTINUOUS
 10
73.800000000000111
 20
24.74999999999962
 30
0.0
 11
73.799999999999983
 21
14.427430417320069
 31
0.0
  0
LINE
  5
4AB2
  8
240
  6
CONTINUOUS
 10
75.666025403789547
 20
24.249999999999329
 30
0.0
 11
73.800000000000097
 21
24.74999999999962
 31
0.0
  0
POLYLINE
  5
4AB3
  8
241
  6
CONTINUOUS
 66
     1
 10
0.0
 20
0.0
 30
0.0
 70
     8
  0
VERTEX
  5
4AB4
  8
241
  6
CONTINUOUS
 10
64.79480000000008
 20
11.71559999999999
 30
0.0
 70
    32
  0
VERTEX
  5
4AB5
  8
241
  6
CONTINUOUS
 10
64.8018000000001
 20
11.73659999999999
 30
0.0
 70
    32
  0
VERTEX
  5
4AB6
  8
241
  6
CONTINUOUS
 10
64.809100000000086
 20
11.757599999999989
 30
0.0
 70
    32
  0
VERTEX
  5
4AB7
  8
241
  6
CONTINUOUS
 10
64.816600000000079
 20
11.77849999999999
 30
0.0
 70
    32
  0
VERTEX
  5
4AB8
  8
241
  6
CONTINUOUS
 10
64.824300000000108
 20
11.79929999999999
 30
0.0
 70
    32
  0
VERTEX
  5
4AB9
  8
241
  6
CONTINUOUS
 10
64.832300000000103
 20
11.820099999999989
 30
0.0
 70
    32
  0
VERTEX
  5
4ABA
  8
241
  6
CONTINUOUS
 10
64.840600000000109
 20
11.840799999999991
 30
0.0
 70
    32
  0
VERTEX
  5
4ABB
  8
241
  6
CONTINUOUS
 10
64.849100000000107
 20
11.861399999999991
 30
0.0
 70
    32
  0
VERTEX
  5
4ABC
  8
241
  6
CONTINUOUS
 10
64.857800000000083
 20
11.881999999999991
 30
0.0
 70
    32
  0
VERTEX
  5
4ABD
  8
241
  6
CONTINUOUS
 10
64.866700000000094
 20
11.902399999999989
 30
0.0
 70
    32
  0
VERTEX
  5
4ABE
  8
241
  6
CONTINUOUS
 10
64.875900000000101
 20
11.92279999999999
 30
0.0
 70
    32
  0
VERTEX
  5
4ABF
  8
241
  6
CONTINUOUS
 10
64.885400000000089
 20
11.94319999999999
 30
0.0
 70
    32
  0
VERTEX
  5
4AC0
  8
241
  6
CONTINUOUS
 10
64.895000000000081
 20
11.963399999999989
 30
0.0
 70
    32
  0
VERTEX
  5
4AC1
  8
241
  6
CONTINUOUS
 10
64.905000000000101
 20
11.98349999999999
 30
0.0
 70
    32
  0
VERTEX
  5
4AC2
  8
241
  6
CONTINUOUS
 10
64.915100000000081
 20
12.00359999999999
 30
0.0
 70
    32
  0
VERTEX
  5
4AC3
  8
241
  6
CONTINUOUS
 10
64.925500000000085
 20
12.023599999999981
 30
0.0
 70
    32
  0
VERTEX
  5
4AC4
  8
241
  6
CONTINUOUS
 10
64.936100000000081
 20
12.043399999999989
 30
0.0
 70
    32
  0
VERTEX
  5
4AC5
  8
241
  6
CONTINUOUS
 10
64.946900000000085
 20
12.063199999999989
 30
0.0
 70
    32
  0
VERTEX
  5
4AC6
  8
241
  6
CONTINUOUS
 10
64.958000000000084
 20
12.08289999999999
 30
0.0
 70
    32
  0
VERTEX
  5
4AC7
  8
241
  6
CONTINUOUS
 10
64.969300000000104
 20
12.10249999999999
 30
0.0
 70
    32
  0
VERTEX
  5
4AC8
  8
241
  6
CONTINUOUS
 10
64.980800000000102
 20
12.121999999999989
 30
0.0
 70
    32
  0
VERTEX
  5
4AC9
  8
241
  6
CONTINUOUS
 10
64.992600000000081
 20
12.14139999999999
 30
0.0
 70
    32
  0
VERTEX
  5
4ACA
  8
241
  6
CONTINUOUS
 10
65.004600000000082
 20
12.16059999999999
 30
0.0
 70
    32
  0
VERTEX
  5
4ACB
  8
241
  6
CONTINUOUS
 10
65.016800000000075
 20
12.17979999999999
 30
0.0
 70
    32
  0
VERTEX
  5
4ACC
  8
241
  6
CONTINUOUS
 10
65.029200000000088
 20
12.198899999999989
 30
0.0
 70
    32
  0
VERTEX
  5
4ACD
  8
241
  6
CONTINUOUS
 10
65.041900000000084
 20
12.21779999999999
 30
0.0
 70
    32
  0
VERTEX
  5
4ACE
  8
241
  6
CONTINUOUS
 10
65.054700000000111
 20
12.23669999999999
 30
0.0
 70
    32
  0
VERTEX
  5
4ACF
  8
241
  6
CONTINUOUS
 10
65.067800000000091
 20
12.25539999999998
 30
0.0
 70
    32
  0
VERTEX
  5
4AD0
  8
241
  6
CONTINUOUS
 10
65.081100000000077
 20
12.27399999999999
 30
0.0
 70
    32
  0
VERTEX
  5
4AD1
  8
241
  6
CONTINUOUS
 10
65.094700000000074
 20
12.29249999999999
 30
0.0
 70
    32
  0
VERTEX
  5
4AD2
  8
241
  6
CONTINUOUS
 10
65.108400000000074
 20
12.31089999999999
 30
0.0
 70
    32
  0
VERTEX
  5
4AD3
  8
241
  6
CONTINUOUS
 10
65.122400000000084
 20
12.32919999999999
 30
0.0
 70
    32
  0
VERTEX
  5
4AD4
  8
241
  6
CONTINUOUS
 10
65.136500000000083
 20
12.34729999999999
 30
0.0
 70
    32
  0
VERTEX
  5
4AD5
  8
241
  6
CONTINUOUS
 10
65.150900000000092
 20
12.365299999999991
 30
0.0
 70
    32
  0
VERTEX
  5
4AD6
  8
241
  6
CONTINUOUS
 10
65.16550000000008
 20
12.38319999999999
 30
0.0
 70
    32
  0
VERTEX
  5
4AD7
  8
241
  6
CONTINUOUS
 10
65.180300000000074
 20
12.400999999999989
 30
0.0
 70
    32
  0
VERTEX
  5
4AD8
  8
241
  6
CONTINUOUS
 10
65.195300000000088
 20
12.418599999999991
 30
0.0
 70
    32
  0
VERTEX
  5
4AD9
  8
241
  6
CONTINUOUS
 10
65.210500000000081
 20
12.436099999999991
 30
0.0
 70
    32
  0
VERTEX
  5
4ADA
  8
241
  6
CONTINUOUS
 10
65.225900000000081
 20
12.45339999999999
 30
0.0
 70
    32
  0
VERTEX
  5
4ADB
  8
241
  6
CONTINUOUS
 10
65.241500000000087
 20
12.47069999999999
 30
0.0
 70
    32
  0
VERTEX
  5
4ADC
  8
241
  6
CONTINUOUS
 10
65.2573000000001
 20
12.48769999999999
 30
0.0
 70
    32
  0
VERTEX
  5
4ADD
  8
241
  6
CONTINUOUS
 10
65.27340000000008
 20
12.504699999999991
 30
0.0
 70
    32
  0
VERTEX
  5
4ADE
  8
241
  6
CONTINUOUS
 10
65.289600000000092
 20
12.521499999999991
 30
0.0
 70
    32
  0
VERTEX
  5
4ADF
  8
241
  6
CONTINUOUS
 10
65.306000000000083
 20
12.53809999999998
 30
0.0
 70
    32
  0
VERTEX
  5
4AE0
  8
241
  6
CONTINUOUS
 10
65.322600000000108
 20
12.55469999999999
 30
0.0
 70
    32
  0
VERTEX
  5
4AE1
  8
241
  6
CONTINUOUS
 10
65.339400000000083
 20
12.570999999999991
 30
0.0
 70
    32
  0
VERTEX
  5
4AE2
  8
241
  6
CONTINUOUS
 10
65.35630000000009
 20
12.58729999999999
 30
0.0
 70
    32
  0
VERTEX
  5
4AE3
  8
241
  6
CONTINUOUS
 10
65.373500000000092
 20
12.60329999999999
 30
0.0
 70
    32
  0
VERTEX
  5
4AE4
  8
241
  6
CONTINUOUS
 10
65.390900000000101
 20
12.61919999999999
 30
0.0
 70
    32
  0
VERTEX
  5
4AE5
  8
241
  6
CONTINUOUS
 10
65.408400000000086
 20
12.63499999999998
 30
0.0
 70
    32
  0
VERTEX
  5
4AE6
  8
241
  6
CONTINUOUS
 10
65.426100000000105
 20
12.65059999999999
 30
0.0
 70
    32
  0
VERTEX
  5
4AE7
  8
241
  6
CONTINUOUS
 10
65.444000000000074
 20
12.666099999999989
 30
0.0
 70
    32
  0
VERTEX
  5
4AE8
  8
241
  6
CONTINUOUS
 10
65.462100000000078
 20
12.681399999999989
 30
0.0
 70
    32
  0
VERTEX
  5
4AE9
  8
241
  6
CONTINUOUS
 10
65.480400000000088
 20
12.69649999999999
 30
0.0
 70
    32
  0
VERTEX
  5
4AEA
  8
241
  6
CONTINUOUS
 10
65.498800000000074
 20
12.71149999999999
 30
0.0
 70
    32
  0
VERTEX
  5
4AEB
  8
241
  6
CONTINUOUS
 10
65.51740000000008
 20
12.72629999999999
 30
0.0
 70
    32
  0
VERTEX
  5
4AEC
  8
241
  6
CONTINUOUS
 10
65.536200000000079
 20
12.740999999999991
 30
0.0
 70
    32
  0
VERTEX
  5
4AED
  8
241
  6
CONTINUOUS
 10
65.555200000000085
 20
12.755499999999991
 30
0.0
 70
    32
  0
VERTEX
  5
4AEE
  8
241
  6
CONTINUOUS
 10
65.574300000000093
 20
12.769799999999989
 30
0.0
 70
    32
  0
VERTEX
  5
4AEF
  8
241
  6
CONTINUOUS
 10
65.593600000000094
 20
12.78399999999999
 30
0.0
 70
    32
  0
VERTEX
  5
4AF0
  8
241
  6
CONTINUOUS
 10
65.613100000000088
 20
12.79789999999999
 30
0.0
 70
    32
  0
VERTEX
  5
4AF1
  8
241
  6
CONTINUOUS
 10
65.632700000000085
 20
12.811699999999989
 30
0.0
 70
    32
  0
VERTEX
  5
4AF2
  8
241
  6
CONTINUOUS
 10
65.652500000000103
 20
12.825399999999989
 30
0.0
 70
    32
  0
VERTEX
  5
4AF3
  8
241
  6
CONTINUOUS
 10
65.672400000000081
 20
12.83889999999999
 30
0.0
 70
    32
  0
VERTEX
  5
4AF4
  8
241
  6
CONTINUOUS
 10
65.692500000000081
 20
12.852099999999989
 30
0.0
 70
    32
  0
VERTEX
  5
4AF5
  8
241
  6
CONTINUOUS
 10
65.712700000000083
 20
12.865299999999991
 30
0.0
 70
    32
  0
VERTEX
  5
4AF6
  8
241
  6
CONTINUOUS
 10
65.733100000000093
 20
12.878199999999991
 30
0.0
 70
    32
  0
VERTEX
  5
4AF7
  8
241
  6
CONTINUOUS
 10
65.753700000000094
 20
12.890999999999989
 30
0.0
 70
    32
  0
VERTEX
  5
4AF8
  8
241
  6
CONTINUOUS
 10
65.774400000000085
 20
12.90349999999999
 30
0.0
 70
    32
  0
VERTEX
  5
4AF9
  8
241
  6
CONTINUOUS
 10
65.795200000000079
 20
12.91589999999999
 30
0.0
 70
    32
  0
VERTEX
  5
4AFA
  8
241
  6
CONTINUOUS
 10
65.816200000000094
 20
12.92809999999999
 30
0.0
 70
    32
  0
VERTEX
  5
4AFB
  8
241
  6
CONTINUOUS
 10
65.837300000000084
 20
12.94019999999999
 30
0.0
 70
    32
  0
VERTEX
  5
4AFC
  8
241
  6
CONTINUOUS
 10
65.858600000000081
 20
12.951999999999989
 30
0.0
 70
    32
  0
VERTEX
  5
4AFD
  8
241
  6
CONTINUOUS
 10
65.880000000000081
 20
12.96369999999999
 30
0.0
 70
    32
  0
VERTEX
  5
4AFE
  8
241
  6
CONTINUOUS
 10
65.901500000000084
 20
12.975099999999991
 30
0.0
 70
    32
  0
VERTEX
  5
4AFF
  8
241
  6
CONTINUOUS
 10
65.923200000000094
 20
12.986399999999991
 30
0.0
 70
    32
  0
VERTEX
  5
4B00
  8
241
  6
CONTINUOUS
 10
65.945000000000107
 20
12.99749999999999
 30
0.0
 70
    32
  0
VERTEX
  5
4B01
  8
241
  6
CONTINUOUS
 10
65.966900000000081
 20
13.008399999999989
 30
0.0
 70
    32
  0
VERTEX
  5
4B02
  8
241
  6
CONTINUOUS
 10
65.98900000000009
 20
13.019099999999989
 30
0.0
 70
    32
  0
VERTEX
  5
4B03
  8
241
  6
CONTINUOUS
 10
66.011200000000073
 20
13.02959999999999
 30
0.0
 70
    32
  0
VERTEX
  5
4B04
  8
241
  6
CONTINUOUS
 10
66.033500000000103
 20
13.03989999999999
 30
0.0
 70
    32
  0
VERTEX
  5
4B05
  8
241
  6
CONTINUOUS
 10
66.055900000000094
 20
13.04999999999999
 30
0.0
 70
    32
  0
VERTEX
  5
4B06
  8
241
  6
CONTINUOUS
 10
66.078400000000101
 20
13.05999999999999
 30
0.0
 70
    32
  0
VERTEX
  5
4B07
  8
241
  6
CONTINUOUS
 10
66.101100000000088
 20
13.06969999999999
 30
0.0
 70
    32
  0
VERTEX
  5
4B08
  8
241
  6
CONTINUOUS
 10
66.123900000000077
 20
13.07919999999999
 30
0.0
 70
    32
  0
VERTEX
  5
4B09
  8
241
  6
CONTINUOUS
 10
66.146700000000081
 20
13.08849999999998
 30
0.0
 70
    32
  0
VERTEX
  5
4B0A
  8
241
  6
CONTINUOUS
 10
66.169700000000091
 20
13.097699999999991
 30
0.0
 70
    32
  0
VERTEX
  5
4B0B
  8
241
  6
CONTINUOUS
 10
66.192800000000091
 20
13.10659999999999
 30
0.0
 70
    32
  0
VERTEX
  5
4B0C
  8
241
  6
CONTINUOUS
 10
66.216000000000093
 20
13.115299999999991
 30
0.0
 70
    32
  0
VERTEX
  5
4B0D
  8
241
  6
CONTINUOUS
 10
66.239300000000085
 20
13.12379999999999
 30
0.0
 70
    32
  0
VERTEX
  5
4B0E
  8
241
  6
CONTINUOUS
 10
66.262700000000081
 20
13.132099999999991
 30
0.0
 70
    32
  0
VERTEX
  5
4B0F
  8
241
  6
CONTINUOUS
 10
66.286200000000079
 20
13.140199999999989
 30
0.0
 70
    32
  0
VERTEX
  5
4B10
  8
241
  6
CONTINUOUS
 10
66.309800000000081
 20
13.148099999999991
 30
0.0
 70
    32
  0
VERTEX
  5
4B11
  8
241
  6
CONTINUOUS
 10
66.333400000000083
 20
13.15579999999999
 30
0.0
 70
    32
  0
VERTEX
  5
4B12
  8
241
  6
CONTINUOUS
 10
66.357200000000091
 20
13.163299999999991
 30
0.0
 70
    32
  0
VERTEX
  5
4B13
  8
241
  6
CONTINUOUS
 10
66.381000000000085
 20
13.17059999999999
 30
0.0
 70
    32
  0
VERTEX
  5
4B14
  8
241
  6
CONTINUOUS
 10
66.405000000000101
 20
13.177699999999991
 30
0.0
 70
    32
  0
VERTEX
  5
4B15
  8
241
  6
CONTINUOUS
 10
66.429000000000102
 20
13.184499999999989
 30
0.0
 70
    32
  0
VERTEX
  5
4B16
  8
241
  6
CONTINUOUS
 10
66.453100000000092
 20
13.19119999999999
 30
0.0
 70
    32
  0
VERTEX
  5
4B17
  8
241
  6
CONTINUOUS
 10
66.477200000000082
 20
13.197599999999991
 30
0.0
 70
    32
  0
VERTEX
  5
4B18
  8
241
  6
CONTINUOUS
 10
66.501500000000107
 20
13.20379999999999
 30
0.0
 70
    32
  0
VERTEX
  5
4B19
  8
241
  6
CONTINUOUS
 10
66.525800000000089
 20
13.209799999999991
 30
0.0
 70
    32
  0
VERTEX
  5
4B1A
  8
241
  6
CONTINUOUS
 10
66.550200000000075
 20
13.21559999999999
 30
0.0
 70
    32
  0
VERTEX
  5
4B1B
  8
241
  6
CONTINUOUS
 10
66.574600000000089
 20
13.221199999999991
 30
0.0
 70
    32
  0
VERTEX
  5
4B1C
  8
241
  6
CONTINUOUS
 10
66.599100000000107
 20
13.226599999999991
 30
0.0
 70
    32
  0
VERTEX
  5
4B1D
  8
241
  6
CONTINUOUS
 10
66.623700000000085
 20
13.231799999999989
 30
0.0
 70
    32
  0
VERTEX
  5
4B1E
  8
241
  6
CONTINUOUS
 10
66.648300000000091
 20
13.23669999999999
 30
0.0
 70
    32
  0
VERTEX
  5
4B1F
  8
241
  6
CONTINUOUS
 10
66.673000000000101
 20
13.24139999999999
 30
0.0
 70
    32
  0
VERTEX
  5
4B20
  8
241
  6
CONTINUOUS
 10
66.6978000000001
 20
13.24589999999999
 30
0.0
 70
    32
  0
VERTEX
  5
4B21
  8
241
  6
CONTINUOUS
 10
66.722600000000085
 20
13.250199999999991
 30
0.0
 70
    32
  0
VERTEX
  5
4B22
  8
241
  6
CONTINUOUS
 10
66.747400000000098
 20
13.25429999999999
 30
0.0
 70
    32
  0
VERTEX
  5
4B23
  8
241
  6
CONTINUOUS
 10
66.772300000000087
 20
13.25809999999999
 30
0.0
 70
    32
  0
VERTEX
  5
4B24
  8
241
  6
CONTINUOUS
 10
66.797200000000089
 20
13.26179999999999
 30
0.0
 70
    32
  0
VERTEX
  5
4B25
  8
241
  6
CONTINUOUS
 10
66.82220000000008
 20
13.265199999999989
 30
0.0
 70
    32
  0
VERTEX
  5
4B26
  8
241
  6
CONTINUOUS
 10
66.847200000000072
 20
13.268399999999991
 30
0.0
 70
    32
  0
VERTEX
  5
4B27
  8
241
  6
CONTINUOUS
 10
66.872300000000081
 20
13.271399999999989
 30
0.0
 70
    32
  0
VERTEX
  5
4B28
  8
241
  6
CONTINUOUS
 10
66.897300000000101
 20
13.27409999999999
 30
0.0
 70
    32
  0
VERTEX
  5
4B29
  8
241
  6
CONTINUOUS
 10
66.922500000000085
 20
13.276699999999989
 30
0.0
 70
    32
  0
VERTEX
  5
4B2A
  8
241
  6
CONTINUOUS
 10
66.947600000000079
 20
13.27899999999998
 30
0.0
 70
    32
  0
VERTEX
  5
4B2B
  8
241
  6
CONTINUOUS
 10
66.972800000000092
 20
13.28109999999999
 30
0.0
 70
    32
  0
VERTEX
  5
4B2C
  8
241
  6
CONTINUOUS
 10
66.998000000000076
 20
13.282999999999991
 30
0.0
 70
    32
  0
VERTEX
  5
4B2D
  8
241
  6
CONTINUOUS
 10
67.023200000000088
 20
13.28459999999999
 30
0.0
 70
    32
  0
VERTEX
  5
4B2E
  8
241
  6
CONTINUOUS
 10
67.0484000000001
 20
13.28609999999999
 30
0.0
 70
    32
  0
VERTEX
  5
4B2F
  8
241
  6
CONTINUOUS
 10
67.073600000000084
 20
13.287299999999989
 30
0.0
 70
    32
  0
VERTEX
  5
4B30
  8
241
  6
CONTINUOUS
 10
67.098900000000071
 20
13.288299999999991
 30
0.0
 70
    32
  0
VERTEX
  5
4B31
  8
241
  6
CONTINUOUS
 10
67.124200000000101
 20
13.289099999999991
 30
0.0
 70
    32
  0
VERTEX
  5
4B32
  8
241
  6
CONTINUOUS
 10
67.149400000000085
 20
13.289599999999989
 30
0.0
 70
    32
  0
VERTEX
  5
4B33
  8
241
  6
CONTINUOUS
 10
67.174700000000087
 20
13.28999999999999
 30
0.0
 70
    32
  0
VERTEX
  5
4B34
  8
241
  6
CONTINUOUS
 10
67.200000000000074
 20
13.29009999999999
 30
0.0
 70
    32
  0
SEQEND
  5
4B35
  8
241
  6
CONTINUOUS
  0
POLYLINE
  5
4B36
  8
241
  6
CONTINUOUS
 66
     1
 10
0.0
 20
0.0
 30
0.0
 70
     8
  0
VERTEX
  5
4B37
  8
241
  6
CONTINUOUS
 10
73.200000000000074
 20
13.29009999999999
 30
0.0
 70
    32
  0
VERTEX
  5
4B38
  8
241
  6
CONTINUOUS
 10
73.22530000000009
 20
13.28999999999999
 30
0.0
 70
    32
  0
VERTEX
  5
4B39
  8
241
  6
CONTINUOUS
 10
73.250600000000077
 20
13.289599999999989
 30
0.0
 70
    32
  0
VERTEX
  5
4B3A
  8
241
  6
CONTINUOUS
 10
73.275800000000089
 20
13.289099999999991
 30
0.0
 70
    32
  0
VERTEX
  5
4B3B
  8
241
  6
CONTINUOUS
 10
73.301100000000076
 20
13.288299999999991
 30
0.0
 70
    32
  0
VERTEX
  5
4B3C
  8
241
  6
CONTINUOUS
 10
73.326400000000092
 20
13.287299999999989
 30
0.0
 70
    32
  0
VERTEX
  5
4B3D
  8
241
  6
CONTINUOUS
 10
73.351600000000076
 20
13.28609999999999
 30
0.0
 70
    32
  0
VERTEX
  5
4B3E
  8
241
  6
CONTINUOUS
 10
73.376800000000088
 20
13.28459999999999
 30
0.0
 70
    32
  0
VERTEX
  5
4B3F
  8
241
  6
CONTINUOUS
 10
73.4020000000001
 20
13.282999999999991
 30
0.0
 70
    32
  0
VERTEX
  5
4B40
  8
241
  6
CONTINUOUS
 10
73.427200000000099
 20
13.28109999999999
 30
0.0
 70
    32
  0
VERTEX
  5
4B41
  8
241
  6
CONTINUOUS
 10
73.452400000000083
 20
13.27899999999998
 30
0.0
 70
    32
  0
VERTEX
  5
4B42
  8
241
  6
CONTINUOUS
 10
73.477500000000077
 20
13.276699999999989
 30
0.0
 70
    32
  0
VERTEX
  5
4B43
  8
241
  6
CONTINUOUS
 10
73.502700000000075
 20
13.27409999999999
 30
0.0
 70
    32
  0
VERTEX
  5
4B44
  8
241
  6
CONTINUOUS
 10
73.527700000000081
 20
13.271399999999989
 30
0.0
 70
    32
  0
VERTEX
  5
4B45
  8
241
  6
CONTINUOUS
 10
73.552800000000076
 20
13.268399999999991
 30
0.0
 70
    32
  0
VERTEX
  5
4B46
  8
241
  6
CONTINUOUS
 10
73.577800000000082
 20
13.265199999999989
 30
0.0
 70
    32
  0
VERTEX
  5
4B47
  8
241
  6
CONTINUOUS
 10
73.602800000000101
 20
13.26179999999999
 30
0.0
 70
    32
  0
VERTEX
  5
4B48
  8
241
  6
CONTINUOUS
 10
73.62770000000009
 20
13.25809999999999
 30
0.0
 70
    32
  0
VERTEX
  5
4B49
  8
241
  6
CONTINUOUS
 10
73.652600000000092
 20
13.25429999999999
 30
0.0
 70
    32
  0
VERTEX
  5
4B4A
  8
241
  6
CONTINUOUS
 10
73.677400000000091
 20
13.250199999999991
 30
0.0
 70
    32
  0
VERTEX
  5
4B4B
  8
241
  6
CONTINUOUS
 10
73.70220000000009
 20
13.24589999999999
 30
0.0
 70
    32
  0
VERTEX
  5
4B4C
  8
241
  6
CONTINUOUS
 10
73.727000000000075
 20
13.24139999999999
 30
0.0
 70
    32
  0
VERTEX
  5
4B4D
  8
241
  6
CONTINUOUS
 10
73.751700000000085
 20
13.23669999999999
 30
0.0
 70
    32
  0
VERTEX
  5
4B4E
  8
241
  6
CONTINUOUS
 10
73.776300000000106
 20
13.231799999999989
 30
0.0
 70
    32
  0
VERTEX
  5
4B4F
  8
241
  6
CONTINUOUS
 10
73.800900000000084
 20
13.226599999999991
 30
0.0
 70
    32
  0
VERTEX
  5
4B50
  8
241
  6
CONTINUOUS
 10
73.825400000000087
 20
13.221199999999991
 30
0.0
 70
    32
  0
VERTEX
  5
4B51
  8
241
  6
CONTINUOUS
 10
73.849800000000073
 20
13.21559999999999
 30
0.0
 70
    32
  0
VERTEX
  5
4B52
  8
241
  6
CONTINUOUS
 10
73.874200000000087
 20
13.209799999999991
 30
0.0
 70
    32
  0
VERTEX
  5
4B53
  8
241
  6
CONTINUOUS
 10
73.898500000000084
 20
13.20379999999999
 30
0.0
 70
    32
  0
VERTEX
  5
4B54
  8
241
  6
CONTINUOUS
 10
73.92280000000008
 20
13.197599999999991
 30
0.0
 70
    32
  0
VERTEX
  5
4B55
  8
241
  6
CONTINUOUS
 10
73.946900000000085
 20
13.19119999999999
 30
0.0
 70
    32
  0
VERTEX
  5
4B56
  8
241
  6
CONTINUOUS
 10
73.971000000000075
 20
13.184499999999989
 30
0.0
 70
    32
  0
VERTEX
  5
4B57
  8
241
  6
CONTINUOUS
 10
73.99500000000009
 20
13.177699999999991
 30
0.0
 70
    32
  0
VERTEX
  5
4B58
  8
241
  6
CONTINUOUS
 10
74.019000000000091
 20
13.17059999999999
 30
0.0
 70
    32
  0
VERTEX
  5
4B59
  8
241
  6
CONTINUOUS
 10
74.042800000000113
 20
13.163299999999991
 30
0.0
 70
    32
  0
VERTEX
  5
4B5A
  8
241
  6
CONTINUOUS
 10
74.066600000000079
 20
13.15579999999999
 30
0.0
 70
    32
  0
VERTEX
  5
4B5B
  8
241
  6
CONTINUOUS
 10
74.090200000000081
 20
13.148099999999991
 30
0.0
 70
    32
  0
VERTEX
  5
4B5C
  8
241
  6
CONTINUOUS
 10
74.113800000000083
 20
13.140199999999989
 30
0.0
 70
    32
  0
VERTEX
  5
4B5D
  8
241
  6
CONTINUOUS
 10
74.137300000000081
 20
13.132099999999991
 30
0.0
 70
    32
  0
VERTEX
  5
4B5E
  8
241
  6
CONTINUOUS
 10
74.160700000000077
 20
13.12379999999999
 30
0.0
 70
    32
  0
VERTEX
  5
4B5F
  8
241
  6
CONTINUOUS
 10
74.184000000000083
 20
13.115299999999991
 30
0.0
 70
    32
  0
VERTEX
  5
4B60
  8
241
  6
CONTINUOUS
 10
74.207200000000086
 20
13.10659999999999
 30
0.0
 70
    32
  0
VERTEX
  5
4B61
  8
241
  6
CONTINUOUS
 10
74.230300000000085
 20
13.097699999999991
 30
0.0
 70
    32
  0
VERTEX
  5
4B62
  8
241
  6
CONTINUOUS
 10
74.253300000000081
 20
13.08849999999998
 30
0.0
 70
    32
  0
VERTEX
  5
4B63
  8
241
  6
CONTINUOUS
 10
74.276100000000085
 20
13.07919999999999
 30
0.0
 70
    32
  0
VERTEX
  5
4B64
  8
241
  6
CONTINUOUS
 10
74.298900000000089
 20
13.06969999999999
 30
0.0
 70
    32
  0
VERTEX
  5
4B65
  8
241
  6
CONTINUOUS
 10
74.321600000000075
 20
13.05999999999999
 30
0.0
 70
    32
  0
VERTEX
  5
4B66
  8
241
  6
CONTINUOUS
 10
74.344100000000083
 20
13.04999999999999
 30
0.0
 70
    32
  0
VERTEX
  5
4B67
  8
241
  6
CONTINUOUS
 10
74.366500000000102
 20
13.03989999999999
 30
0.0
 70
    32
  0
VERTEX
  5
4B68
  8
241
  6
CONTINUOUS
 10
74.388800000000089
 20
13.02959999999999
 30
0.0
 70
    32
  0
VERTEX
  5
4B69
  8
241
  6
CONTINUOUS
 10
74.411000000000087
 20
13.019099999999989
 30
0.0
 70
    32
  0
VERTEX
  5
4B6A
  8
241
  6
CONTINUOUS
 10
74.433100000000081
 20
13.008399999999989
 30
0.0
 70
    32
  0
VERTEX
  5
4B6B
  8
241
  6
CONTINUOUS
 10
74.455000000000084
 20
12.99749999999999
 30
0.0
 70
    32
  0
VERTEX
  5
4B6C
  8
241
  6
CONTINUOUS
 10
74.476800000000082
 20
12.986399999999991
 30
0.0
 70
    32
  0
VERTEX
  5
4B6D
  8
241
  6
CONTINUOUS
 10
74.498500000000092
 20
12.975099999999991
 30
0.0
 70
    32
  0
VERTEX
  5
4B6E
  8
241
  6
CONTINUOUS
 10
74.520000000000081
 20
12.96369999999999
 30
0.0
 70
    32
  0
VERTEX
  5
4B6F
  8
241
  6
CONTINUOUS
 10
74.541400000000081
 20
12.951999999999989
 30
0.0
 70
    32
  0
VERTEX
  5
4B70
  8
241
  6
CONTINUOUS
 10
74.562700000000092
 20
12.94019999999999
 30
0.0
 70
    32
  0
VERTEX
  5
4B71
  8
241
  6
CONTINUOUS
 10
74.583800000000082
 20
12.92809999999999
 30
0.0
 70
    32
  0
VERTEX
  5
4B72
  8
241
  6
CONTINUOUS
 10
74.604800000000083
 20
12.91589999999999
 30
0.0
 70
    32
  0
VERTEX
  5
4B73
  8
241
  6
CONTINUOUS
 10
74.625600000000105
 20
12.90349999999999
 30
0.0
 70
    32
  0
VERTEX
  5
4B74
  8
241
  6
CONTINUOUS
 10
74.646300000000082
 20
12.890999999999989
 30
0.0
 70
    32
  0
VERTEX
  5
4B75
  8
241
  6
CONTINUOUS
 10
74.666900000000098
 20
12.878199999999991
 30
0.0
 70
    32
  0
VERTEX
  5
4B76
  8
241
  6
CONTINUOUS
 10
74.687300000000107
 20
12.865299999999991
 30
0.0
 70
    32
  0
VERTEX
  5
4B77
  8
241
  6
CONTINUOUS
 10
74.707500000000081
 20
12.852099999999989
 30
0.0
 70
    32
  0
VERTEX
  5
4B78
  8
241
  6
CONTINUOUS
 10
74.727600000000081
 20
12.83889999999999
 30
0.0
 70
    32
  0
VERTEX
  5
4B79
  8
241
  6
CONTINUOUS
 10
74.747500000000088
 20
12.825399999999989
 30
0.0
 70
    32
  0
VERTEX
  5
4B7A
  8
241
  6
CONTINUOUS
 10
74.767300000000091
 20
12.811699999999989
 30
0.0
 70
    32
  0
VERTEX
  5
4B7B
  8
241
  6
CONTINUOUS
 10
74.786900000000088
 20
12.79789999999999
 30
0.0
 70
    32
  0
VERTEX
  5
4B7C
  8
241
  6
CONTINUOUS
 10
74.806400000000082
 20
12.78399999999999
 30
0.0
 70
    32
  0
VERTEX
  5
4B7D
  8
241
  6
CONTINUOUS
 10
74.825700000000083
 20
12.769799999999989
 30
0.0
 70
    32
  0
VERTEX
  5
4B7E
  8
241
  6
CONTINUOUS
 10
74.844800000000077
 20
12.755499999999991
 30
0.0
 70
    32
  0
VERTEX
  5
4B7F
  8
241
  6
CONTINUOUS
 10
74.863800000000083
 20
12.740999999999991
 30
0.0
 70
    32
  0
VERTEX
  5
4B80
  8
241
  6
CONTINUOUS
 10
74.882600000000082
 20
12.72629999999999
 30
0.0
 70
    32
  0
VERTEX
  5
4B81
  8
241
  6
CONTINUOUS
 10
74.901200000000074
 20
12.71149999999999
 30
0.0
 70
    32
  0
VERTEX
  5
4B82
  8
241
  6
CONTINUOUS
 10
74.919600000000088
 20
12.69649999999999
 30
0.0
 70
    32
  0
VERTEX
  5
4B83
  8
241
  6
CONTINUOUS
 10
74.937900000000084
 20
12.681399999999989
 30
0.0
 70
    32
  0
VERTEX
  5
4B84
  8
241
  6
CONTINUOUS
 10
74.956000000000074
 20
12.666099999999989
 30
0.0
 70
    32
  0
VERTEX
  5
4B85
  8
241
  6
CONTINUOUS
 10
74.973900000000086
 20
12.65059999999999
 30
0.0
 70
    32
  0
VERTEX
  5
4B86
  8
241
  6
CONTINUOUS
 10
74.991600000000091
 20
12.63499999999998
 30
0.0
 70
    32
  0
VERTEX
  5
4B87
  8
241
  6
CONTINUOUS
 10
75.009100000000075
 20
12.61919999999999
 30
0.0
 70
    32
  0
VERTEX
  5
4B88
  8
241
  6
CONTINUOUS
 10
75.026500000000084
 20
12.60329999999999
 30
0.0
 70
    32
  0
VERTEX
  5
4B89
  8
241
  6
CONTINUOUS
 10
75.043700000000086
 20
12.58729999999999
 30
0.0
 70
    32
  0
VERTEX
  5
4B8A
  8
241
  6
CONTINUOUS
 10
75.060600000000079
 20
12.570999999999991
 30
0.0
 70
    32
  0
VERTEX
  5
4B8B
  8
241
  6
CONTINUOUS
 10
75.077400000000083
 20
12.55469999999999
 30
0.0
 70
    32
  0
VERTEX
  5
4B8C
  8
241
  6
CONTINUOUS
 10
75.094000000000094
 20
12.53809999999998
 30
0.0
 70
    32
  0
VERTEX
  5
4B8D
  8
241
  6
CONTINUOUS
 10
75.110400000000084
 20
12.521499999999991
 30
0.0
 70
    32
  0
VERTEX
  5
4B8E
  8
241
  6
CONTINUOUS
 10
75.126600000000082
 20
12.504699999999991
 30
0.0
 70
    32
  0
VERTEX
  5
4B8F
  8
241
  6
CONTINUOUS
 10
75.142700000000076
 20
12.48769999999999
 30
0.0
 70
    32
  0
VERTEX
  5
4B90
  8
241
  6
CONTINUOUS
 10
75.158500000000089
 20
12.47069999999999
 30
0.0
 70
    32
  0
VERTEX
  5
4B91
  8
241
  6
CONTINUOUS
 10
75.174100000000081
 20
12.45339999999999
 30
0.0
 70
    32
  0
VERTEX
  5
4B92
  8
241
  6
CONTINUOUS
 10
75.189500000000081
 20
12.436099999999991
 30
0.0
 70
    32
  0
VERTEX
  5
4B93
  8
241
  6
CONTINUOUS
 10
75.204700000000088
 20
12.418599999999991
 30
0.0
 70
    32
  0
VERTEX
  5
4B94
  8
241
  6
CONTINUOUS
 10
75.219700000000074
 20
12.400999999999989
 30
0.0
 70
    32
  0
VERTEX
  5
4B95
  8
241
  6
CONTINUOUS
 10
75.234500000000082
 20
12.38319999999999
 30
0.0
 70
    32
  0
VERTEX
  5
4B96
  8
241
  6
CONTINUOUS
 10
75.249100000000084
 20
12.365299999999991
 30
0.0
 70
    32
  0
VERTEX
  5
4B97
  8
241
  6
CONTINUOUS
 10
75.263500000000107
 20
12.34729999999999
 30
0.0
 70
    32
  0
VERTEX
  5
4B98
  8
241
  6
CONTINUOUS
 10
75.277600000000092
 20
12.32919999999999
 30
0.0
 70
    32
  0
VERTEX
  5
4B99
  8
241
  6
CONTINUOUS
 10
75.291600000000074
 20
12.31089999999999
 30
0.0
 70
    32
  0
VERTEX
  5
4B9A
  8
241
  6
CONTINUOUS
 10
75.305300000000074
 20
12.29249999999999
 30
0.0
 70
    32
  0
VERTEX
  5
4B9B
  8
241
  6
CONTINUOUS
 10
75.318900000000085
 20
12.27399999999999
 30
0.0
 70
    32
  0
VERTEX
  5
4B9C
  8
241
  6
CONTINUOUS
 10
75.3322000000001
 20
12.25539999999998
 30
0.0
 70
    32
  0
VERTEX
  5
4B9D
  8
241
  6
CONTINUOUS
 10
75.345300000000094
 20
12.23669999999999
 30
0.0
 70
    32
  0
VERTEX
  5
4B9E
  8
241
  6
CONTINUOUS
 10
75.358100000000078
 20
12.21779999999999
 30
0.0
 70
    32
  0
VERTEX
  5
4B9F
  8
241
  6
CONTINUOUS
 10
75.370800000000088
 20
12.198899999999989
 30
0.0
 70
    32
  0
VERTEX
  5
4BA0
  8
241
  6
CONTINUOUS
 10
75.383200000000073
 20
12.17979999999999
 30
0.0
 70
    32
  0
VERTEX
  5
4BA1
  8
241
  6
CONTINUOUS
 10
75.39540000000008
 20
12.16059999999999
 30
0.0
 70
    32
  0
VERTEX
  5
4BA2
  8
241
  6
CONTINUOUS
 10
75.407400000000081
 20
12.14139999999999
 30
0.0
 70
    32
  0
VERTEX
  5
4BA3
  8
241
  6
CONTINUOUS
 10
75.419200000000075
 20
12.121999999999989
 30
0.0
 70
    32
  0
VERTEX
  5
4BA4
  8
241
  6
CONTINUOUS
 10
75.430700000000101
 20
12.10249999999999
 30
0.0
 70
    32
  0
VERTEX
  5
4BA5
  8
241
  6
CONTINUOUS
 10
75.442000000000093
 20
12.08289999999999
 30
0.0
 70
    32
  0
VERTEX
  5
4BA6
  8
241
  6
CONTINUOUS
 10
75.453100000000092
 20
12.063199999999989
 30
0.0
 70
    32
  0
VERTEX
  5
4BA7
  8
241
  6
CONTINUOUS
 10
75.463900000000081
 20
12.043399999999989
 30
0.0
 70
    32
  0
VERTEX
  5
4BA8
  8
241
  6
CONTINUOUS
 10
75.474500000000091
 20
12.023599999999981
 30
0.0
 70
    32
  0
VERTEX
  5
4BA9
  8
241
  6
CONTINUOUS
 10
75.484900000000081
 20
12.00359999999999
 30
0.0
 70
    32
  0
VERTEX
  5
4BAA
  8
241
  6
CONTINUOUS
 10
75.495000000000076
 20
11.98349999999999
 30
0.0
 70
    32
  0
VERTEX
  5
4BAB
  8
241
  6
CONTINUOUS
 10
75.505000000000081
 20
11.963399999999989
 30
0.0
 70
    32
  0
VERTEX
  5
4BAC
  8
241
  6
CONTINUOUS
 10
75.514600000000087
 20
11.94319999999999
 30
0.0
 70
    32
  0
VERTEX
  5
4BAD
  8
241
  6
CONTINUOUS
 10
75.524100000000075
 20
11.92279999999999
 30
0.0
 70
    32
  0
VERTEX
  5
4BAE
  8
241
  6
CONTINUOUS
 10
75.533300000000111
 20
11.902399999999989
 30
0.0
 70
    32
  0
VERTEX
  5
4BAF
  8
241
  6
CONTINUOUS
 10
75.542200000000093
 20
11.881999999999991
 30
0.0
 70
    32
  0
VERTEX
  5
4BB0
  8
241
  6
CONTINUOUS
 10
75.550900000000098
 20
11.861399999999991
 30
0.0
 70
    32
  0
VERTEX
  5
4BB1
  8
241
  6
CONTINUOUS
 10
75.559400000000082
 20
11.840799999999991
 30
0.0
 70
    32
  0
VERTEX
  5
4BB2
  8
241
  6
CONTINUOUS
 10
75.567700000000102
 20
11.820099999999989
 30
0.0
 70
    32
  0
VERTEX
  5
4BB3
  8
241
  6
CONTINUOUS
 10
75.575700000000083
 20
11.79929999999999
 30
0.0
 70
    32
  0
VERTEX
  5
4BB4
  8
241
  6
CONTINUOUS
 10
75.583400000000083
 20
11.77849999999999
 30
0.0
 70
    32
  0
VERTEX
  5
4BB5
  8
241
  6
CONTINUOUS
 10
75.59090000000009
 20
11.757599999999989
 30
0.0
 70
    32
  0
VERTEX
  5
4BB6
  8
241
  6
CONTINUOUS
 10
75.598200000000077
 20
11.73659999999999
 30
0.0
 70
    32
  0
VERTEX
  5
4BB7
  8
241
  6
CONTINUOUS
 10
75.605200000000082
 20
11.71559999999999
 30
0.0
 70
    32
  0
SEQEND
  5
4BB8
  8
241
  6
CONTINUOUS
  0
LINE
  5
4BB9
  8
241
  6
CONTINUOUS
 10
67.199999999999861
 20
13.290063509460831
 30
0.0
 11
73.200000000000102
 21
13.290063509460831
 31
0.0
  0
LINE
  5
4BBA
  8
240
  6
CONTINUOUS
 10
88.400000000000148
 20
20.78867513459474
 30
0.0
 11
83.701320763548793
 21
23.501458856595569
 31
0.0
  0
ARC
  5
4BBB
  8
240
  6
CONTINUOUS
 10
82.201320763548836
 20
20.903382645242232
 30
0.0
 40
3.0
 50
60.000000000000711
 51
87.000000000004178
1001
ASK_MEN_XD
1005
4780
1070
     1
1005
499E
1070
     1
  0
ARC
  5
4BBC
  8
240
  6
CONTINUOUS
 10
87.900000000000148
 20
19.922649730810281
 30
0.0
 40
1.0
 50
0.0
 51
60.000000000000711
1001
ASK_MEN_XD
1005
0
1070
     1
1005
0
1070
     1
  0
LINE
  5
4BBD
  8
243
  6
HIDDEN2
 10
24.76602540378445
 20
-9.525000000000265
 30
0.0
 11
88.900000000000134
 21
-9.5250000000000927
 31
0.0
1001
GRPNAME
1000
PASTMD1D
  0
LINE
  5
4BBE
  8
241
  6
CONTINUOUS
 10
67.199999999999832
 20
10.14104656429963
 30
0.0
 11
73.200000000000045
 21
10.14104656429965
 31
0.0
  0
LINE
  5
4BBF
  8
241
  6
CONTINUOUS
 10
45.100000000002737
 20
-25.34999999999846
 30
0.0
 11
45.100000000001991
 21
25.349999999998431
 31
0.0
  0
ARC
  5
4BEE
  8
240
  6
CONTINUOUS
 10
29.99999999999989
 20
-28.5
 30
0.0
 40
3.0
 50
90.0
 51
180.0
  0
LINE
  5
4BF1
  8
241
  6
CONTINUOUS
 10
44.600000000001842
 20
-25.499999999999929
 30
0.0
 11
44.59999999999819
 21
25.499999999999929
 31
0.0
  0
LINE
  5
4BF2
  8
241
  6
CONTINUOUS
 10
32.000000000002132
 20
-25.499999999999851
 30
0.0
 11
32.000000000001791
 21
0.0000000000000284
 31
0.0
  0
LINE
  5
4BF3
  8
241
  6
CONTINUOUS
 10
33.200000000001872
 20
-25.499999999999829
 30
0.0
 11
33.200000000002262
 21
0.0000000000000284
 31
0.0
  0
LINE
  5
4BF4
  8
240
  6
CONTINUOUS
 10
29.99999999999989
 20
-25.5
 30
0.0
 11
45.100000000001991
 21
-25.49999999999994
 31
0.0
  0
LINE
  5
4C45
  8
241
  6
CONTINUOUS
 10
32.000000000002132
 20
25.499999999999851
 30
0.0
 11
32.000000000001791
 21
-0.0000000000000284
 31
0.0
  0
LINE
  5
4C46
  8
241
  6
CONTINUOUS
 10
33.200000000001872
 20
25.499999999999829
 30
0.0
 11
33.200000000002262
 21
-0.0000000000000284
 31
0.0
  0
ARC
  5
4C47
  8
240
  6
CONTINUOUS
 10
30.000000000000149
 20
28.499999999999979
 30
0.0
 40
3.0
 50
179.99999999999949
 51
269.99999999999949
  0
LINE
  5
4C48
  8
240
  6
CONTINUOUS
 10
30.000000000000121
 20
25.499999999999979
 30
0.0
 11
45.100000000002218
 21
25.499999999999769
 31
0.0
  0
LINE
  5
4CB8
  8
250
  6
CONTINUOUS
 10
3.89999999999955
 20
10.525000000000061
 30
0.0
 11
3.8999999999995532
 21
43.0
 31
0.0
  0
LINE
  5
4CB9
  8
250
  6
CONTINUOUS
 10
88.899999999999821
 20
20.422649730810289
 30
0.0
 11
88.899999999999821
 21
43.0
 31
0.0
  0
LINE
  5
4CBA
  8
250
  6
CONTINUOUS
 10
6.1299999999995531
 20
42.0
 30
0.0
 11
86.669999999999817
 21
42.0
 31
0.0
  0
LINE
  5
4CBE
  8
250
  6
CONTINUOUS
 10
-0.0000000000000568
 20
22.725000000000001
 30
0.0
 11
-0.0000000000000551
 21
50.0
 31
0.0
  0
LINE
  5
4CBF
  8
250
  6
CONTINUOUS
 10
88.900000000000134
 20
20.422649730810281
 30
0.0
 11
88.900000000000134
 21
50.0
 31
0.0
  0
LINE
  5
4CC0
  8
250
  6
CONTINUOUS
 10
2.229999999999944
 20
49.0
 30
0.0
 11
86.670000000000144
 21
49.0
 31
0.0
  0
TEXT
  5
4CC4
  8
250
  6
CONTINUOUS
 10
40.399999999999693
 20
43.0
 30
0.0
 40
2.7999999999999989
  1
(max.3.34)
  0
LINE
  5
4CC5
  8
250
  6
CONTINUOUS
 10
86.669999999999817
 20
42.371666666666663
 30
0.0
 11
88.899999999999821
 21
42.0
 31
0.0
  0
LINE
  5
4CC6
  8
250
  6
CONTINUOUS
 10
86.669999999999817
 20
41.62833333333333
 30
0.0
 11
88.899999999999821
 21
42.0
 31
0.0
  0
LINE
  5
4CC7
  8
250
  6
CONTINUOUS
 10
88.899999999999821
 20
42.0
 30
0.0
 11
86.669999999999817
 21
42.0
 31
0.0
  0
LINE
  5
4CC8
  8
250
  6
CONTINUOUS
 10
6.1299999999995531
 20
41.62833333333333
 30
0.0
 11
3.8999999999995518
 21
42.0
 31
0.0
  0
LINE
  5
4CC9
  8
250
  6
CONTINUOUS
 10
6.1299999999995531
 20
42.371666666666663
 30
0.0
 11
3.8999999999995518
 21
42.0
 31
0.0
  0
LINE
  5
4CCA
  8
250
  6
CONTINUOUS
 10
3.8999999999995518
 20
42.0
 30
0.0
 11
6.1299999999995531
 21
42.0
 31
0.0
  0
TEXT
  5
4CCB
  8
250
  6
CONTINUOUS
 10
41.116666666666703
 20
50.0
 30
0.0
 40
2.7999999999999989
  1
3.50
  0
LINE
  5
4CCC
  8
250
  6
CONTINUOUS
 10
86.670000000000144
 20
49.37166666666667
 30
0.0
 11
88.900000000000134
 21
49.0
 31
0.0
  0
LINE
  5
4CCD
  8
250
  6
CONTINUOUS
 10
86.670000000000144
 20
48.62833333333333
 30
0.0
 11
88.900000000000134
 21
49.0
 31
0.0
  0
LINE
  5
4CCE
  8
250
  6
CONTINUOUS
 10
88.900000000000134
 20
49.0
 30
0.0
 11
86.670000000000144
 21
49.0
 31
0.0
  0
LINE
  5
4CCF
  8
250
  6
CONTINUOUS
 10
2.229999999999944
 20
48.62833333333333
 30
0.0
 11
-0.0000000000000552
 21
49.0
 31
0.0
  0
LINE
  5
4CD0
  8
250
  6
CONTINUOUS
 10
2.229999999999944
 20
49.37166666666667
 30
0.0
 11
-0.0000000000000552
 21
49.0
 31
0.0
  0
LINE
  5
4CD1
  8
250
  6
CONTINUOUS
 10
-0.0000000000000552
 20
49.0
 30
0.0
 11
2.229999999999944
 21
49.0
 31
0.0
  0
VIEWPORT
  5
22
 67
     1
  8
0
 10
261.51769911504419
 20
148.5
 30
0.0
 40
523.0353982300885
 41
297.0
 68
     1
 69
     1
1001
ACAD
1000
MVIEW
1002
{
1070
    16
1010
0.0
1020
0.0
1030
0.0
1010
0.0
1020
0.0
1030
1.0
1040
0.0
1040
297.0
1040
261.51769911504419
1040
148.5
1040
50.0
1040
0.0
1040
0.0
1070
     0
1070
   100
1070
     1
1070
     1
1070
     0
1070
     0
1070
     0
1070
     0
1040
0.0
1040
0.0
1040
0.0
1040
1.0
1040
1.0
1040
10.0
1040
10.0
1070
     0
1002
{
1002
}
1002
}
1001
GENIUS_GENODEF_13
1002
{
1000
HIER
1070
     0
1002
}
1002
{
1000
MANEDIT
1070
     0
1002
}
1002
{
1000
NOSEL
1070
     0
1002
}
1002
{
1000
BEHIND
1070
     0
1002
}
1002
{
1000
OTHER
1070
     0
1002
}
1002
{
1000
REACTOR
1002
}
1001
GENIUS_GENOBJ-N-SDF_13
1002
{
1000
OWNER
1000
GEN
1002
}
1001
GENIUS_GENSCREG_15
1000
PF
1040
1.0
1000
DF
1040
1.0
1000
MIN
1011
0.0
1021
0.0
1031
0.0
1021
0.0
1031
0.0
1000
MAX
1011
523.0353982300885
1021
0.0
1031
0.0
1021
297.0
1031
0.0
1000
FLAGS
1070
     4
  0
ENDSEC
  0
EOF
