  0
SECTION
  2
HEADER
  9
$ACADVER
  1
AC1009
  9
$INSBASE
 10
0.0
 20
0.0
 30
0.0
  9
$EXTMIN
 10
-69.047619047619051
 20
-34.350000000000001
 30
0.0
  9
$EXTMAX
 10
120.10020254
 20
75.0
 30
0.0
  9
$LIMMIN
 10
0.0
 20
0.0
  9
$LIMMAX
 10
297.0
 20
210.0
  9
$ORTHOMODE
 70
     1
  9
$REGENMODE
 70
     1
  9
$FILLMODE
 70
     1
  9
$QTEXTMODE
 70
     0
  9
$MIRRTEXT
 70
     1
  9
$DRAGMODE
 70
     2
  9
$LTSCALE
 40
10.0
  9
$OSMODE
 70
    37
  9
$ATTMODE
 70
     1
  9
$TEXTSIZE
 40
3.0
  9
$TRACEWID
 40
1.0
  9
$TEXTSTYLE
  7
YOKO
  9
$CLAYER
  8
240
  9
$CELTYPE
  6
BYLAYER
  9
$CECOLOR
 62
   256
  9
$DIMSCALE
 40
1.0
  9
$DIMASZ
 40
2.2299999999999991
  9
$DIMEXO
 40
0.5
  9
$DIMDLI
 40
7.0
  9
$DIMRND
 40
0.0
  9
$DIMDLE
 40
0.0
  9
$DIMEXE
 40
1.0
  9
$DIMTP
 40
0.0
  9
$DIMTM
 40
0.01
  9
$DIMTXT
 40
2.7999999999999989
  9
$DIMCEN
 40
0.0
  9
$DIMTSZ
 40
0.0
  9
$DIMTOL
 70
     0
  9
$DIMLIM
 70
     0
  9
$DIMTIH
 70
     0
  9
$DIMTOH
 70
     0
  9
$DIMSE1
 70
     0
  9
$DIMSE2
 70
     0
  9
$DIMTAD
 70
     3
  9
$DIMZIN
 70
     9
  9
$DIMBLK
  1
OPEN
  9
$DIMASO
 70
     1
  9
$DIMSHO
 70
     1
  9
$DIMPOST
  1

  9
$DIMAPOST
  1

  9
$DIMALT
 70
     0
  9
$DIMALTD
 70
     2
  9
$DIMALTF
 40
25.399999999999999
  9
$DIMLFAC
 40
1.0
  9
$DIMTOFL
 70
     1
  9
$DIMTVP
 40
0.0
  9
$DIMTIX
 70
     1
  9
$DIMSOXD
 70
     0
  9
$DIMSAH
 70
     0
  9
$DIMBLK1
  1

  9
$DIMBLK2
  1

  9
$DIMSTYLE
  2
BIGT
  9
$DIMCLRD
 70
   256
  9
$DIMCLRE
 70
   256
  9
$DIMCLRT
 70
    40
  9
$DIMTFAC
 40
1.0
  9
$DIMGAP
 40
1.0
  9
$LUNITS
 70
     2
  9
$LUPREC
 70
     6
  9
$SKETCHINC
 40
1.0
  9
$FILLETRAD
 40
0.0
  9
$AUNITS
 70
     0
  9
$AUPREC
 70
     6
  9
$MENU
  1
.
  9
$ELEVATION
 40
0.0
  9
$PELEVATION
 40
0.0
  9
$THICKNESS
 40
0.0
  9
$LIMCHECK
 70
     0
  9
$BLIPMODE
 70
     0
  9
$CHAMFERA
 40
0.2
  9
$CHAMFERB
 40
0.2
  9
$SKPOLY
 70
     0
  9
$TDCREATE
 40
2458136.7456086688
  9
$TDUPDATE
 40
2458138.6055479278
  9
$TDINDWG
 40
0.0093157755
  9
$TDUSRTIMER
 40
0.0093157523
  9
$USRTIMER
 70
     1
  9
$ANGBASE
 50
0.0
  9
$ANGDIR
 70
     0
  9
$PDMODE
 70
     1
  9
$PDSIZE
 40
0.0
  9
$PLINEWID
 40
0.0
  9
$COORDS
 70
     1
  9
$SPLFRAME
 70
     0
  9
$SPLINETYPE
 70
     6
  9
$SPLINESEGS
 70
     4
  9
$ATTDIA
 70
     1
  9
$ATTREQ
 70
     1
  9
$HANDLING
 70
     1
  9
$HANDSEED
  5
45E0
  9
$SURFTAB1
 70
     6
  9
$SURFTAB2
 70
     6
  9
$SURFTYPE
 70
     6
  9
$SURFU
 70
     6
  9
$SURFV
 70
     6
  9
$UCSNAME
  2

  9
$UCSORG
 10
0.0
 20
0.0
 30
0.0
  9
$UCSXDIR
 10
1.0
 20
0.0
 30
0.0
  9
$UCSYDIR
 10
0.0
 20
1.0
 30
0.0
  9
$PUCSNAME
  2

  9
$PUCSORG
 10
0.0
 20
0.0
 30
0.0
  9
$PUCSXDIR
 10
1.0
 20
0.0
 30
0.0
  9
$PUCSYDIR
 10
0.0
 20
1.0
 30
0.0
  9
$USERI1
 70
     1
  9
$USERI2
 70
     0
  9
$USERI3
 70
     0
  9
$USERI4
 70
     0
  9
$USERI5
 70
     0
  9
$USERR1
 40
0.0
  9
$USERR2
 40
0.0
  9
$USERR3
 40
0.0
  9
$USERR4
 40
0.0
  9
$USERR5
 40
0.0
  9
$WORLDVIEW
 70
     1
  9
$SHADEDGE
 70
     3
  9
$SHADEDIF
 70
    70
  9
$TILEMODE
 70
     1
  9
$MAXACTVP
 70
    16
  9
$PLIMCHECK
 70
     0
  9
$PEXTMIN
 10
1.0000000000000000E+020
 20
1.0000000000000000E+020
 30
1.0000000000000000E+020
  9
$PEXTMAX
 10
-1.0000000000000000E+020
 20
-1.0000000000000000E+020
 30
-1.0000000000000000E+020
  9
$PLIMMIN
 10
0.0
 20
0.0
  9
$PLIMMAX
 10
420.0
 20
297.0
  9
$UNITMODE
 70
     0
  9
$VISRETAIN
 70
     1
  9
$PLINEGEN
 70
     0
  9
$PSLTSCALE
 70
     1
  0
ENDSEC
  0
SECTION
  2
TABLES
  0
TABLE
  2
VPORT
 70
     1
  0
VPORT
  2
*ACTIVE
 70
     0
 10
0.0
 20
0.0
 11
1.0
 21
1.0
 12
36.658768427562791
 22
18.799434211127391
 13
0.0
 23
0.0
 14
7.0
 24
7.0
 15
7.0
 25
7.0
 16
0.0
 26
0.0
 36
1.0
 17
0.0
 27
0.0
 37
0.0
 40
214.4830506564208
 41
1.4533622559652919
 42
50.0
 43
0.0
 44
0.0
 50
0.0
 51
0.0
 71
     0
 72
  2000
 73
     1
 74
     0
 75
     0
 76
     1
 77
     0
 78
     0
  0
ENDTAB
  0
TABLE
  2
LTYPE
 70
    21
  0
LTYPE
  2
CONTINUOUS
 70
     0
  3
Solid line
 72
    65
 73
     0
 40
0.0
  0
LTYPE
  2
CENTER2
 70
     0
  3
___ _ ___ _ ___ _ ___ _ ___ _ ___ _ ___ _ ___ _
 72
    65
 73
     4
 40
1.125
 49
0.75
 49
-0.125
 49
0.125
 49
-0.125
  0
LTYPE
  2
HIDDEN2
 70
     0
  3
_ _ _ _ _ _ _ _ _ _ _ _ _ _ _ _ _ _ _ _ _ _ _ _
 72
    65
 73
     2
 40
0.1875
 49
0.125
 49
-0.0625
  0
LTYPE
  2
AM_ISO02W050
 70
     0
  3
__ __ __ __ __ __ __ __ __ __ __ __ __ __ __
 72
    65
 73
     2
 40
7.5
 49
6.0
 49
-1.5
  0
LTYPE
  2
AMCONSTR
 70
     0
  3
_______________________
 72
    65
 73
     2
 40
9999.0
 49
9999.0
 49
0.0
  0
LTYPE
  2
ACISOWELD
 70
     0
  3
_ _ _ _ _
 72
    65
 73
     2
 40
2.0
 49
2.0
 49
-1.0
  0
LTYPE
  2
ACISOTGB
 70
     0
  3
__ . . __ . .
 72
    65
 73
     6
 40
9.0
 49
4.0
 49
-1.0
 49
1.0
 49
-1.0
 49
1.0
 49
-1.0
  0
LTYPE
  2
ACISOTGL
 70
     0
  3
_ _ _ _ _
 72
    65
 73
     2
 40
3.0
 49
2.0
 49
-1.0
  0
LTYPE
  2
AM_ISO08W050
 70
     0
  3
____ . ____ . ____ . ____ . ____ . ____ . ____
 72
    65
 73
     4
 40
18.0
 49
12.0
 49
-1.5
 49
3.0
 49
-1.5
  0
LTYPE
  2
AM_ISO09W050
 70
     0
  3
_____ . . _____ . . _____ . . ____ .. ____
 72
    65
 73
     6
 40
22.5
 49
12.0
 49
-1.5
 49
3.0
 49
-1.5
 49
3.0
 49
-1.5
  0
LTYPE
  2
AM_ISO08W050X2
 70
     0
  3
__ . __ . __ . __ . __ . __
 72
    65
 73
     4
 40
9.0
 49
6.0
 49
-0.75
 49
1.5
 49
-0.75
  0
LTYPE
  2
AM_ISO02W050X2
 70
     0
  3
 _ _ _ _ _ _ _ _ _ _ _ _
 72
    65
 73
     2
 40
3.75
 49
3.0
 49
-0.75
  0
LTYPE
  2
AMZIGZAG
 70
     0
  3
/\/-/\/-/\/-/\/-/\/-/\/
 72
    65
 73
     2
 40
11.0001
 49
0.0001
 49
-11.0
  0
ENDTAB
  0
TABLE
  2
LAYER
 70
     8
  0
LAYER
  2
0
 70
     0
 62
     7
  6
CONTINUOUS
  0
LAYER
  2
DEFPOINTS
 70
     0
 62
     7
  6
CONTINUOUS
  0
LAYER
  2
245
 70
     0
 62
     2
  6
CENTER2
  0
LAYER
  2
240
 70
     0
 62
     4
  6
CONTINUOUS
  0
LAYER
  2
241
 70
     0
 62
   211
  6
CONTINUOUS
  0
LAYER
  2
243
 70
     0
 62
   211
  6
HIDDEN2
  0
LAYER
  2
247
 70
     0
 62
    60
  6
CONTINUOUS
  0
LAYER
  2
250
 70
     0
 62
     3
  6
CONTINUOUS
  0
ENDTAB
  0
TABLE
  2
STYLE
 70
     8
  0
STYLE
  2
STANDARD
 70
     0
 40
0.0
 41
1.0
 50
0.0
 71
     0
 42
3.0
  3
romans.shx
  4
extfont.shx
  0
STYLE
  2
ACISOGDT
 70
     0
 40
0.0
 41
1.0
 50
0.0
 71
     0
 42
3.0
  3
amgdt.shx
  4
extfont.shx
  0
STYLE
  2
YOKO
 70
     0
 40
0.0
 41
1.0
 50
0.0
 71
     0
 42
3.0
  3
romans.shx
  4
extfont.shx
  0
STYLE
  2

 70
     1
 40
0.0
 41
1.0
 50
0.0
 71
     0
 42
3.0
  3
genltshp.shx
  4

  0
ENDTAB
  0
TABLE
  2
VIEW
 70
     0
  0
ENDTAB
  0
TABLE
  2
UCS
 70
     0
  0
ENDTAB
  0
TABLE
  2
APPID
 70
    40
  0
APPID
  2
ACAD
 70
     0
  0
APPID
  2
GLOBAL
 70
     0
  0
APPID
  2
DETAIL
 70
     0
  0
APPID
  2
GRPNAME
 70
     0
  0
APPID
  2
GPARA
 70
     0
  0
APPID
  2
MCAD_NO_VIS
 70
     0
  0
APPID
  2
ACAD_TEMP_GRAPHIC
 70
     0
  0
APPID
  2
ACATTRIBSERVICES
 70
     0
  0
APPID
  2
GENIUS_GENSCREG_15
 70
     0
  0
APPID
  2
GENIUS_GENODEF_13
 70
     0
  0
APPID
  2
GENIUS_GENOBJ-N-SDF_13
 70
     0
  0
APPID
  2
GENIUS_GENREC_14
 70
     0
  0
APPID
  2
GENIUS_GENOBJ-N-REC_13
 70
     0
  0
APPID
  2
GENIUS_GENDIMSH_14
 70
     0
  0
APPID
  2
GENIUS_GENOBJ-N-DIM_13
 70
     0
  0
APPID
  2
GENIUS_GENDIM_13
 70
     0
  0
APPID
  2
GENIUS_GENDTOL_13
 70
     0
  0
APPID
  2
GENIUS_GENOLIS_13
 70
     0
  0
APPID
  2
GENIUS_GENOENT_13
 70
     0
  0
APPID
  2
GENIUS_GENOBJ-F-FEM_13
 70
     0
  0
APPID
  2
GENIUS_GENOREF_13
 70
     0
  0
APPID
  2
GENIUS_GEFFEM_13
 70
     0
  0
APPID
  2
GENIUS_GEFFEMP_13
 70
     0
  0
APPID
  2
AD_DRAW
 70
     0
  0
APPID
  2
DESIGNERASSEMBLIES
 70
     0
  0
APPID
  2
ACADM_DIM_EDIT
 70
     0
  0
APPID
  2
AMDT_DM_ADJ
 70
     0
  0
APPID
  2
ITEMNAME
 70
     0
  0
APPID
  2
GENIUS_GENOBJ-N-FIL_13
 70
     0
  0
APPID
  2
GENIUS_GENFIL_13
 70
     0
  0
APPID
  2
GENIUS_GENOBJ-N-CHA_13
 70
     0
  0
APPID
  2
ACAECLAYERSTANDARD
 70
     0
  0
APPID
  2
ACAD_NAV_VCDISPLAY
 70
     0
  0
APPID
  2
ASK_MEN_XD
 70
     0
  0
APPID
  2
ACAD_PSEXT
 70
     0
  0
APPID
  2
ACAD_DSTYLE_DIMJAG
 70
     0
  0
APPID
  2
ACAD_DSTYLE_DIMBREAK
 70
     0
  0
APPID
  2
ACAD_DSTYLE_DIMINSPECT
 70
     0
  0
APPID
  2
ACAD_EXEMPT_FROM_CAD_STANDARDS
 70
     0
  0
APPID
  2
ACAD_MLEADERVER
 70
     0
  0
ENDTAB
  0
TABLE
  2
DIMSTYLE
 70
    29
  0
DIMSTYLE
  2
BIGT
 70
     0
  3

  4

  5
OPEN
  6

  7

 40
1.0
 41
2.2299999999999991
 42
0.5
 43
7.0
 44
1.0
 45
0.0
 46
0.0
 47
0.0
 48
0.01
140
2.7999999999999989
141
0.0
142
0.0
143
25.399999999999999
144
1.0
145
0.0
146
1.0
147
1.0
 71
     0
 72
     0
 73
     0
 74
     0
 75
     0
 76
     0
 77
     3
 78
     9
170
     0
171
     2
172
     1
173
     0
174
     1
175
     0
176
   256
177
   256
178
    40
  0
DIMSTYLE
  2
AM_ISO
 70
     0
  3

  4
"
  5

  6

  7

 40
1.0
 41
2.5
 42
1.0
 43
10.0
 44
1.0
 45
0.0
 46
0.0
 47
0.1
 48
0.1
140
3.5
141
0.0
142
0.0
143
0.0393701
144
1.0
145
0.0
146
0.71
147
1.5
 71
     0
 72
     0
 73
     0
 74
     0
 75
     0
 76
     0
 77
     1
 78
     8
170
     0
171
     2
172
     1
173
     0
174
     0
175
     0
176
   256
177
   256
178
     2
  0
DIMSTYLE
  2
AM_ISO$3
 70
     0
  3

  4
"
  5

  6

  7

 40
1.0
 41
2.5
 42
1.0
 43
10.0
 44
1.0
 45
0.0
 46
0.0
 47
0.1
 48
0.1
140
3.5
141
0.0
142
0.0
143
0.0393701
144
1.0
145
0.0
146
0.71
147
1.5
 71
     0
 72
     0
 73
     0
 74
     1
 75
     0
 76
     0
 77
     1
 78
     8
170
     0
171
     2
172
     0
173
     0
174
     0
175
     0
176
   256
177
   256
178
     2
  0
DIMSTYLE
  2
AM_ISO$4
 70
     0
  3

  4
"
  5

  6

  7

 40
1.0
 41
2.5
 42
1.0
 43
10.0
 44
1.0
 45
0.0
 46
0.0
 47
0.1
 48
0.1
140
3.5
141
0.0
142
0.0
143
0.0393701
144
1.0
145
0.0
146
0.71
147
1.5
 71
     0
 72
     0
 73
     0
 74
     1
 75
     0
 76
     0
 77
     1
 78
     8
170
     0
171
     2
172
     0
173
     0
174
     0
175
     0
176
   256
177
   256
178
     2
  0
DIMSTYLE
  2
AM_ISO$6
 70
     0
  3

  4
"
  5

  6

  7

 40
1.0
 41
2.5
 42
1.0
 43
10.0
 44
1.0
 45
0.0
 46
0.0
 47
0.1
 48
0.1
140
3.5
141
0.0
142
0.0
143
0.0393701
144
1.0
145
0.0
146
0.71
147
1.5
 71
     0
 72
     0
 73
     0
 74
     0
 75
     0
 76
     0
 77
     0
 78
     8
170
     0
171
     2
172
     1
173
     0
174
     0
175
     0
176
   256
177
   256
178
     2
  0
DIMSTYLE
  2
AM_ISO$7
 70
     0
  3

  4
"
  5

  6

  7

 40
1.0
 41
2.5
 42
1.0
 43
10.0
 44
1.0
 45
0.0
 46
0.0
 47
0.1
 48
0.1
140
5.0
141
0.0
142
0.0
143
0.0393701
144
1.0
145
0.0
146
0.71
147
1.5
 71
     0
 72
     0
 73
     0
 74
     0
 75
     0
 76
     0
 77
     1
 78
     8
170
     0
171
     2
172
     1
173
     0
174
     0
175
     0
176
   256
177
   256
178
     2
  0
DIMSTYLE
  2
AM_ISO$SF
 70
     0
  3

  4
"
  5

  6

  7

 40
1.0
 41
2.5
 42
1.0
 43
10.0
 44
1.0
 45
0.0
 46
0.0
 47
0.1
 48
0.1
140
3.5
141
0.0
142
0.0
143
0.0393701
144
1.0
145
0.0
146
0.71
147
1.5
 71
     0
 72
     0
 73
     0
 74
     0
 75
     1
 76
     1
 77
     1
 78
     8
170
     0
171
     2
172
     1
173
     0
174
     0
175
     0
176
   256
177
   256
178
     2
  0
DIMSTYLE
  2
AM_ISO$SH
 70
     0
  3

  4
"
  5

  6
GENAXEH
  7

 40
1.0
 41
2.5
 42
1.0
 43
10.0
 44
1.0
 45
0.0
 46
0.0
 47
0.1
 48
0.1
140
3.5
141
0.0
142
0.0
143
0.0393701
144
2.0
145
0.0
146
0.71
147
1.5
 71
     0
 72
     0
 73
     0
 74
     0
 75
     1
 76
     1
 77
     1
 78
     8
170
     0
171
     2
172
     1
173
     1
174
     0
175
     0
176
   256
177
   256
178
     2
  0
ENDTAB
  0
ENDSEC
  0
SECTION
  2
BLOCKS
  0
BLOCK
  8
0
  2
$MODEL_SPACE
 70
     0
 10
0.0
 20
0.0
 30
0.0
  3
$MODEL_SPACE
  1

  0
ENDBLK
  5
1C
  8
0
  0
BLOCK
 67
     1
  8
0
  2
$PAPER_SPACE
 70
     0
 10
0.0
 20
0.0
 30
0.0
  3
$PAPER_SPACE
  1

  0
ENDBLK
  5
19
 67
     1
  8
0
  0
BLOCK
  8
0
  2
_OPEN
 70
     0
 10
0.0
 20
0.0
 30
0.0
  3
_OPEN
  1

  0
LINE
  5
3E1A
  8
0
  6
BYBLOCK
 62
     0
 10
-1.0
 20
0.1666666666666666
 30
0.0
 11
0.0
 21
0.0
 31
0.0
  0
LINE
  5
3E1B
  8
0
  6
BYBLOCK
 62
     0
 10
-1.0
 20
-0.1666666666666666
 30
0.0
 11
0.0
 21
0.0
 31
0.0
  0
LINE
  5
3E1C
  8
0
  6
BYBLOCK
 62
     0
 10
0.0
 20
0.0
 30
0.0
 11
-1.0
 21
0.0
 31
0.0
  0
ENDBLK
  5
3E1D
  8
0
  0
BLOCK
  8
0
  2
GENAXEH
 70
     0
 10
0.0
 20
0.0
 30
0.0
  3
GENAXEH
  1

  0
LINE
  5
3E45
  8
0
 10
-1.0
 20
0.0
 30
0.0
 11
1.0
 21
0.0
 31
0.0
  0
ENDBLK
  5
3E46
  8
0
  0
ENDSEC
  0
SECTION
  2
ENTITIES
  0
TEXT
  5
4314
  8
241
  6
CONTINUOUS
 10
-70.0
 20
70.0
 30
0.0
 40
5.0
  1
BBT40-HMC1.250S-4
  7
YOKO
 11
-70.0
 21
70.0
 31
0.0
 73
     1
  0
LINE
  5
4315
  8
250
  6
CONTINUOUS
 10
102.09999999999999
 20
15.87499999999997
 30
0.0
 11
113.10020254
 21
15.87499999999997
 31
0.0
  0
LINE
  5
4316
  8
250
  6
CONTINUOUS
 10
112.10020254
 20
-13.77
 30
0.0
 11
112.10020254
 21
13.77
 31
0.0
  0
LINE
  5
4317
  8
250
  6
CONTINUOUS
 10
73.5
 20
-34.0
 30
0.0
 11
120.10020254
 21
-34.0
 31
0.0
  0
LINE
  5
4318
  8
250
  6
CONTINUOUS
 10
73.5
 20
34.0
 30
0.0
 11
120.10020254
 21
34.0
 31
0.0
  0
LINE
  5
4319
  8
250
  6
CONTINUOUS
 10
119.10020254
 20
-31.77
 30
0.0
 11
119.10020254
 21
31.77
 31
0.0
  0
LINE
  5
431A
  8
243
  6
HIDDEN2
 10
31.466025399999989
 20
15.87499999999997
 30
0.0
 11
101.59999999999999
 21
15.87499999999997
 31
0.0
1001
GRPNAME
1000
PASTMD64
  0
LINE
  5
431B
  8
240
  6
CONTINUOUS
 10
21.600000000000001
 20
31.5
 30
0.0
 11
27.0
 21
31.5
 31
0.0
  0
LINE
  5
431C
  8
240
  6
CONTINUOUS
 10
21.600000000000001
 20
-31.5
 30
0.0
 11
27.0
 21
-31.5
 31
0.0
  0
LINE
  5
431D
  8
245
  6
CENTER2
 10
-66.400000000000006
 20
0.0
 30
0.0
 11
102.8933799132559
 21
0.0
 31
0.0
  0
LINE
  5
431E
  8
241
  6
CONTINUOUS
 10
86.999999999999972
 20
33.75
 30
0.0
 11
86.999999999999972
 21
23.736650709999999
 31
0.0
  0
LINE
  5
431F
  8
241
  6
CONTINUOUS
 10
76.499999999999986
 20
33.75
 30
0.0
 11
76.499999999999986
 21
23.71886675
 31
0.0
  0
LINE
  5
4320
  8
241
  6
CONTINUOUS
 10
88.866025399999955
 20
33.25
 30
0.0
 11
88.866025399999955
 21
1.22044591
 31
0.0
  0
LINE
  5
4321
  8
240
  6
CONTINUOUS
 10
101.30710678
 20
28.29289322
 30
0.0
 11
97.705805849999976
 21
31.894194150000001
 31
0.0
  0
LINE
  5
4322
  8
241
  6
CONTINUOUS
 10
48.299999999999997
 20
31.400000000000009
 30
0.0
 11
48.299999999999983
 21
-31.400000000000009
 31
0.0
  0
LINE
  5
4323
  8
241
  6
CONTINUOUS
 10
57.499999999999979
 20
-32.899999999999999
 30
0.0
 11
57.499999999999979
 21
32.899999999999999
 31
0.0
  0
ARC
  5
4324
  8
241
  6
CONTINUOUS
 10
86.678679659999972
 20
-19.763634530000001
 30
0.0
 40
2.1213203435596002
 50
270.0
 51
333.75450902
  0
ARC
  5
4325
  8
241
  6
CONTINUOUS
 10
86.678679659999972
 20
-21.63980707
 30
0.0
 40
2.121320343559645
 50
270.0
 51
90.0
  0
ARC
  5
4326
  8
241
  6
CONTINUOUS
 10
76.92132033999998
 20
-19.763634530000001
 30
0.0
 40
2.121320343559618
 50
206.24549098
 51
270.0
  0
ARC
  5
4327
  8
241
  6
CONTINUOUS
 10
76.92132033999998
 20
-21.63980707
 30
0.0
 40
2.121320343559645
 50
90.0
 51
270.0
  0
LINE
  5
4328
  8
241
  6
CONTINUOUS
 10
73.499999999999972
 20
-34.0
 30
0.0
 11
73.499999999999972
 21
34.0
 31
0.0
  0
LINE
  5
4329
  8
241
  6
CONTINUOUS
 10
60.499999999999972
 20
-34.350000000000001
 30
0.0
 11
60.499999999999972
 21
34.350000000000001
 31
0.0
  0
LINE
  5
432A
  8
241
  6
CONTINUOUS
 10
88.866025399999955
 20
-33.25
 30
0.0
 11
88.866025399999955
 21
-1.22044591
 31
0.0
  0
LINE
  5
432B
  8
241
  6
CONTINUOUS
 10
96.912676669999996
 20
-32.462838159999997
 30
0.0
 11
96.912676669999996
 21
32.462838159999997
 31
0.0
  0
LINE
  5
432C
  8
241
  6
CONTINUOUS
 10
27.0
 20
31.399999999999999
 30
0.0
 11
27.0
 21
-31.399999999999999
 31
0.0
  0
LINE
  5
432D
  8
240
  6
CONTINUOUS
 10
73.749999999999972
 20
-33.75
 30
0.0
 11
86.999999999999972
 21
-33.75
 31
0.0
  0
LINE
  5
432E
  8
240
  6
CONTINUOUS
 10
60.849999999999973
 20
-34.0
 30
0.0
 11
60.499999999999972
 21
-34.350000000000001
 31
0.0
  0
ARC
  5
432F
  8
240
  6
CONTINUOUS
 10
58.499999999999957
 20
-33.350000000000001
 30
0.0
 40
1.0
 50
180.0
 51
270.0
  0
LINE
  5
4330
  8
240
  6
CONTINUOUS
 10
58.499999999999957
 20
-34.350000000000001
 30
0.0
 11
60.499999999999972
 21
-34.350000000000001
 31
0.0
  0
LINE
  5
4331
  8
240
  6
CONTINUOUS
 10
60.849999999999973
 20
-34.0
 30
0.0
 11
73.499999999999972
 21
-34.0
 31
0.0
  0
LINE
  5
4332
  8
240
  6
CONTINUOUS
 10
57.499999999999979
 20
-32.899999999999999
 30
0.0
 11
57.499999999999979
 21
-33.350000000000001
 31
0.0
  0
LINE
  5
4333
  8
240
  6
CONTINUOUS
 10
73.749999999999972
 20
-33.75
 30
0.0
 11
73.499999999999972
 21
-34.0
 31
0.0
  0
LINE
  5
4334
  8
240
  6
CONTINUOUS
 10
88.866025399999955
 20
-33.25
 30
0.0
 11
95.793754919999955
 21
-32.765565960000011
 31
0.0
  0
LINE
  5
4335
  8
241
  6
CONTINUOUS
 10
76.92132033999998
 20
-21.884954879999999
 30
0.0
 11
86.678679659999972
 21
-21.884954879999999
 31
0.0
  0
LINE
  5
4336
  8
241
  6
CONTINUOUS
 10
76.92132033999998
 20
-23.76112741
 30
0.0
 11
86.678679659999972
 21
-23.76112741
 31
0.0
  0
LINE
  5
4337
  8
241
  6
CONTINUOUS
 10
76.499999999999986
 20
-33.75
 30
0.0
 11
76.499999999999986
 21
-23.71886675
 31
0.0
  0
LINE
  5
4338
  8
241
  6
CONTINUOUS
 10
86.999999999999972
 20
-33.75
 30
0.0
 11
86.999999999999972
 21
-23.736650709999999
 31
0.0
  0
LINE
  5
4339
  8
240
  6
CONTINUOUS
 10
88.866025399999955
 20
-33.25
 30
0.0
 11
86.999999999999972
 21
-33.75
 31
0.0
  0
ARC
  5
433A
  8
240
  6
CONTINUOUS
 10
100.59999999999989
 20
-27.58578644
 30
0.0
 40
1.0
 50
315.0
 51
0.0
  0
LINE
  5
433B
  8
240
  6
CONTINUOUS
 10
101.30710678
 20
-28.29289322
 30
0.0
 11
97.705805849999976
 21
-31.894194150000001
 31
0.0
  0
ARC
  5
433C
  8
240
  6
CONTINUOUS
 10
95.584485499999971
 20
-29.77287381
 30
0.0
 40
3.0
 50
273.99999999999989
 51
315.0
1001
ASK_MEN_XD
1005
4334
1070
     1
1005
433B
1070
     1
  0
LINE
  5
433D
  8
240
  6
CONTINUOUS
 10
101.59999999999999
 20
-27.58578644
 30
0.0
 11
101.59999999999999
 21
27.58578644
 31
0.0
  0
ARC
  5
433E
  8
241
  6
CONTINUOUS
 10
77.799999999999983
 20
0.0
 30
0.0
 40
3.2999999999999949
 50
89.999997689999873
 51
269.99999768999987
  0
ARC
  5
433F
  8
241
  6
CONTINUOUS
 10
77.799999999999983
 20
0.0
 30
0.0
 40
3.0
 50
90.0
 51
270.0
  0
ARC
  5
4340
  8
241
  6
CONTINUOUS
 10
76.92132033999998
 20
19.763634530000001
 30
0.0
 40
2.121320343559618
 50
90.0
 51
153.75450902
  0
ARC
  5
4341
  8
241
  6
CONTINUOUS
 10
76.92132033999998
 20
21.63980707
 30
0.0
 40
2.121320343559645
 50
90.0
 51
270.0
  0
LINE
  5
4342
  8
241
  6
CONTINUOUS
 10
86.999999999999972
 20
19.54296343
 30
0.0
 11
86.999999999999972
 21
3.0740852300000001
 31
0.0
  0
LINE
  5
4343
  8
241
  6
CONTINUOUS
 10
76.499999999999986
 20
19.56074739
 30
0.0
 11
76.499999999999986
 21
3.033150179999998
 31
0.0
  0
LINE
  5
4344
  8
241
  6
CONTINUOUS
 10
86.999999999999972
 20
-19.54296343
 30
0.0
 11
86.999999999999972
 21
-3.0740852300000001
 31
0.0
  0
LINE
  5
4345
  8
241
  6
CONTINUOUS
 10
76.499999999999986
 20
-19.56074739
 30
0.0
 11
76.499999999999986
 21
-3.033150179999998
 31
0.0
  0
LINE
  5
4346
  8
241
  6
CONTINUOUS
 10
76.92132033999998
 20
-19.518486729999999
 30
0.0
 11
86.678679659999972
 21
-19.518486729999999
 31
0.0
  0
LINE
  5
4347
  8
241
  6
CONTINUOUS
 10
77.799999999999983
 20
-3.0
 30
0.0
 11
85.799999999999997
 21
-3.0
 31
0.0
  0
LINE
  5
4348
  8
241
  6
CONTINUOUS
 10
77.800000129999987
 20
-3.299999999999998
 30
0.0
 11
85.799999999999997
 21
-3.299999999999998
 31
0.0
  0
LINE
  5
4349
  8
241
  6
CONTINUOUS
 10
85.799999869999965
 20
3.299999999999998
 30
0.0
 11
77.799999869999979
 21
3.299999999999998
 31
0.0
  0
LINE
  5
434A
  8
241
  6
CONTINUOUS
 10
77.799999999999983
 20
3.0
 30
0.0
 11
85.799999999999997
 21
3.0
 31
0.0
  0
LINE
  5
434B
  8
241
  6
CONTINUOUS
 10
85.799999869999965
 20
-3.299999999999998
 30
0.0
 11
77.799999869999979
 21
-3.299999999999998
 31
0.0
  0
LINE
  5
434C
  8
241
  6
CONTINUOUS
 10
77.800000129999987
 20
3.299999999999998
 30
0.0
 11
85.799999999999997
 21
3.299999999999998
 31
0.0
  0
ARC
  5
434D
  8
241
  6
CONTINUOUS
 10
85.799999999999997
 20
0.0
 30
0.0
 40
3.0
 50
270.0
 51
90.0
  0
ARC
  5
434E
  8
241
  6
CONTINUOUS
 10
85.799999999999997
 20
0.0
 30
0.0
 40
3.3000000000000109
 50
269.99999768999987
 51
90.0000023099998
  0
LINE
  5
434F
  8
241
  6
CONTINUOUS
 10
76.92132033999998
 20
21.884954879999999
 30
0.0
 11
86.678679659999972
 21
21.884954879999999
 31
0.0
  0
LINE
  5
4350
  8
241
  6
CONTINUOUS
 10
76.92132033999998
 20
23.76112741
 30
0.0
 11
86.678679659999972
 21
23.76112741
 31
0.0
  0
LINE
  5
4351
  8
241
  6
CONTINUOUS
 10
76.92132033999998
 20
19.518486729999999
 30
0.0
 11
86.678679659999972
 21
19.518486729999999
 31
0.0
  0
ARC
  5
4352
  8
241
  6
CONTINUOUS
 10
86.678679659999972
 20
21.63980707
 30
0.0
 40
2.121320343559645
 50
270.0
 51
90.0
  0
ARC
  5
4353
  8
241
  6
CONTINUOUS
 10
86.678679659999972
 20
19.763634530000001
 30
0.0
 40
2.1213203435596002
 50
26.245490980000032
 51
90.0
  0
ARC
  5
4354
  8
240
  6
CONTINUOUS
 10
100.59999999999989
 20
27.58578644
 30
0.0
 40
1.0
 50
0.0
 51
44.999999999999979
  0
LINE
  5
4355
  8
240
  6
CONTINUOUS
 10
73.749999999999972
 20
33.75
 30
0.0
 11
86.999999999999972
 21
33.75
 31
0.0
1001
GRPNAME
1000
PASTMD06
  0
LINE
  5
4356
  8
240
  6
CONTINUOUS
 10
60.849999999999973
 20
34.0
 30
0.0
 11
73.499999999999972
 21
34.0
 31
0.0
  0
LINE
  5
4357
  8
240
  6
CONTINUOUS
 10
60.849999999999973
 20
34.0
 30
0.0
 11
60.499999999999972
 21
34.350000000000001
 31
0.0
  0
ARC
  5
4358
  8
240
  6
CONTINUOUS
 10
58.499999999999957
 20
33.350000000000001
 30
0.0
 40
1.0
 50
90.0
 51
180.0
  0
LINE
  5
4359
  8
240
  6
CONTINUOUS
 10
58.499999999999957
 20
34.350000000000001
 30
0.0
 11
60.499999999999972
 21
34.350000000000001
 31
0.0
  0
LINE
  5
435A
  8
240
  6
CONTINUOUS
 10
57.499999999999979
 20
32.899999999999999
 30
0.0
 11
57.499999999999979
 21
33.350000000000001
 31
0.0
  0
LINE
  5
435B
  8
240
  6
CONTINUOUS
 10
73.749999999999972
 20
33.75
 30
0.0
 11
73.499999999999972
 21
34.0
 31
0.0
  0
LINE
  5
435C
  8
240
  6
CONTINUOUS
 10
88.866025399999955
 20
33.25
 30
0.0
 11
95.793754919999955
 21
32.765565960000011
 31
0.0
  0
LINE
  5
435D
  8
240
  6
CONTINUOUS
 10
88.866025399999955
 20
33.25
 30
0.0
 11
86.999999999999972
 21
33.75
 31
0.0
1001
GRPNAME
1000
PASTMD06
  0
ARC
  5
435E
  8
240
  6
CONTINUOUS
 10
95.584485499999971
 20
29.77287381
 30
0.0
 40
3.0
 50
44.999999999999979
 51
86.000000000000028
1001
ASK_MEN_XD
1005
4321
1070
     1
1005
435C
1070
     1
  0
TEXT
  5
4365
  8
250
  6
CONTINUOUS
 10
111.10020254
 20
-8.4412481064254532
 30
0.0
 40
2.799999999999998
  1
\U+22051.250
 50
90.0
  0
LINE
  5
4366
  8
250
  6
CONTINUOUS
 10
111.7285358733333
 20
13.644999999999969
 30
0.0
 11
112.10020254
 21
15.87499999999997
 31
0.0
  0
LINE
  5
4367
  8
250
  6
CONTINUOUS
 10
112.4718692066666
 20
13.644999999999969
 30
0.0
 11
112.10020254
 21
15.87499999999997
 31
0.0
  0
LINE
  5
4368
  8
250
  6
CONTINUOUS
 10
112.10020254
 20
15.87499999999997
 30
0.0
 11
112.10020254
 21
13.644999999999969
 31
0.0
  0
TEXT
  5
4369
  8
250
  6
CONTINUOUS
 10
118.10020254
 20
-8.4412481064254532
 30
0.0
 40
2.799999999999998
  1
\U+22052.677
 50
90.0
1001
ACAD
1000
MTEXTBEGIN
1070
    73
1070
     1
1070
    44
1040
1.0
1070
    74
1070
     0
1000
MTEXTEND
  0
LINE
  5
436A
  8
250
  6
CONTINUOUS
 10
118.7285358733333
 20
31.77
 30
0.0
 11
119.10020254
 21
34.0
 31
0.0
  0
LINE
  5
436B
  8
250
  6
CONTINUOUS
 10
119.4718692066666
 20
31.77
 30
0.0
 11
119.10020254
 21
34.0
 31
0.0
  0
LINE
  5
436C
  8
250
  6
CONTINUOUS
 10
119.10020254
 20
34.0
 30
0.0
 11
119.10020254
 21
31.77
 31
0.0
  0
LINE
  5
436D
  8
250
  6
CONTINUOUS
 10
119.4718692066666
 20
-31.77
 30
0.0
 11
119.10020254
 21
-34.0
 31
0.0
  0
LINE
  5
436E
  8
250
  6
CONTINUOUS
 10
118.7285358733333
 20
-31.77
 30
0.0
 11
119.10020254
 21
-34.0
 31
0.0
  0
LINE
  5
436F
  8
250
  6
CONTINUOUS
 10
119.10020254
 20
-34.0
 30
0.0
 11
119.10020254
 21
-31.77
 31
0.0
  0
LINE
  5
437E
  8
250
  6
CONTINUOUS
 10
102.09999999999999
 20
-15.87499999999997
 30
0.0
 11
113.10020254
 21
-15.87499999999997
 31
0.0
  0
LINE
  5
437F
  8
250
  6
CONTINUOUS
 10
111.7285358733333
 20
-13.644999999999969
 30
0.0
 11
112.10020254
 21
-15.87499999999997
 31
0.0
  0
LINE
  5
4380
  8
250
  6
CONTINUOUS
 10
112.4718692066666
 20
-13.644999999999969
 30
0.0
 11
112.10020254
 21
-15.87499999999997
 31
0.0
  0
LINE
  5
4381
  8
250
  6
CONTINUOUS
 10
112.10020254
 20
-15.87499999999997
 30
0.0
 11
112.10020254
 21
-13.644999999999969
 31
0.0
  0
LINE
  5
4382
  8
243
  6
HIDDEN2
 10
31.466025399999989
 20
-15.87499999999997
 30
0.0
 11
101.59999999999999
 21
-15.87499999999997
 31
0.0
1001
GRPNAME
1000
PASTMD64
  0
LINE
  5
4383
  8
240
  6
CONTINUOUS
 10
-65.400000000000119
 20
-12.68750000000003
 30
0.0
 11
-65.400000000000091
 21
12.687500000000201
 31
0.0
  0
LINE
  5
4384
  8
240
  6
CONTINUOUS
 10
0.9999999999997442
 20
-31.499999999999631
 30
0.0
 11
0.9999999999998575
 21
-22.225000000000051
 31
0.0
  0
LINE
  5
4385
  8
241
  6
CONTINUOUS
 10
-0.0000000000000853
 20
-22.225000000000001
 30
0.0
 11
0.0000000000000853
 21
22.225000000000119
 31
0.0
  0
LINE
  5
4386
  8
240
  6
CONTINUOUS
 10
-0.0000000000001137
 20
-22.225000000000001
 30
0.0
 11
-65.400000000000119
 21
-12.68750000000003
 31
0.0
  0
LINE
  5
4387
  8
243
  6
HIDDEN2
 10
22.99999999999989
 20
-22.499999999999972
 30
0.0
 11
22.99999999999989
 21
-31.499999999999972
 31
0.0
  0
LINE
  5
4388
  8
240
  6
CONTINUOUS
 10
0.9999999999997442
 20
-31.499999999999631
 30
0.0
 11
11.565505652666101
 21
-31.500000000000309
 31
0.0
  0
LINE
  5
4389
  8
243
  6
HIDDEN2
 10
22.99999999999989
 20
-22.499999999999972
 30
0.0
 11
0.9999999999998864
 21
-22.499999999999972
 31
0.0
  0
LINE
  5
438A
  8
240
  6
CONTINUOUS
 10
14.45225699861486
 20
-26.499999999999801
 30
0.0
 11
11.565505652666239
 21
-31.50000000000043
 31
0.0
  0
LINE
  5
438B
  8
240
  6
CONTINUOUS
 10
18.747743001385398
 20
-26.500000000000028
 30
0.0
 11
21.634494347334339
 21
-31.50000000000043
 31
0.0
  0
LINE
  5
438C
  8
240
  6
CONTINUOUS
 10
14.45225699861453
 20
-26.49999999999952
 30
0.0
 11
18.747743001385398
 21
-26.500000000000028
 31
0.0
  0
LINE
  5
438D
  8
241
  6
CONTINUOUS
 10
11.565505652666101
 20
31.50000000000043
 30
0.0
 11
11.565505652666239
 21
-31.50000000000043
 31
0.0
  0
LINE
  5
438E
  8
241
  6
CONTINUOUS
 10
14.45225699861453
 20
-26.49999999999952
 30
0.0
 11
14.452256998614409
 21
26.4999999999994
 31
0.0
  0
LINE
  5
438F
  8
241
  6
CONTINUOUS
 10
18.747743001385292
 20
-26.499999999999861
 30
0.0
 11
18.747743001385398
 21
26.499999999999972
 31
0.0
  0
LINE
  5
4390
  8
241
  6
CONTINUOUS
 10
21.634494347333309
 20
-31.500000000000711
 30
0.0
 11
21.634494347333369
 21
31.500000000000661
 31
0.0
  0
LINE
  5
4391
  8
240
  6
CONTINUOUS
 10
-0.0000000000000853
 20
-22.225000000000001
 30
0.0
 11
0.9999999999998575
 21
-22.225000000000051
 31
0.0
  0
LINE
  5
4392
  8
241
  6
CONTINUOUS
 10
0.9999999999998575
 20
-22.22499999999982
 30
0.0
 11
0.9999999999998575
 21
22.22499999999982
 31
0.0
  0
LINE
  5
4393
  8
240
  6
CONTINUOUS
 10
0.9999999999998293
 20
31.499999999999691
 30
0.0
 11
0.9999999999999149
 21
22.225000000000051
 31
0.0
  0
LINE
  5
4394
  8
240
  6
CONTINUOUS
 10
-0.0000000000000568
 20
22.225000000000001
 30
0.0
 11
-65.400000000000091
 21
12.687500000000201
 31
0.0
  0
LINE
  5
4395
  8
243
  6
HIDDEN2
 10
22.99999999999994
 20
22.499999999999918
 30
0.0
 11
23.0
 21
31.499999999999911
 31
0.0
  0
LINE
  5
4396
  8
240
  6
CONTINUOUS
 10
0.9999999999998293
 20
31.499999999999691
 30
0.0
 11
11.565505652666189
 21
31.50000000000038
 31
0.0
  0
LINE
  5
4397
  8
243
  6
HIDDEN2
 10
22.99999999999994
 20
22.499999999999918
 30
0.0
 11
0.9999999999999431
 21
22.500000000000028
 31
0.0
  0
LINE
  5
4398
  8
240
  6
CONTINUOUS
 10
14.452256998614979
 20
26.499999999999801
 30
0.0
 11
11.56550565266633
 21
31.50000000000043
 31
0.0
  0
LINE
  5
4399
  8
240
  6
CONTINUOUS
 10
18.747743001385508
 20
26.500000000000028
 30
0.0
 11
21.634494347334449
 21
31.50000000000038
 31
0.0
  0
LINE
  5
439A
  8
240
  6
CONTINUOUS
 10
14.45225699861459
 20
26.49999999999946
 30
0.0
 11
18.747743001385508
 21
26.500000000000028
 31
0.0
  0
LINE
  5
439B
  8
240
  6
CONTINUOUS
 10
-0.0000000000000284
 20
22.225000000000051
 30
0.0
 11
0.9999999999999149
 21
22.225000000000051
 31
0.0
  0
LINE
  5
439C
  8
247
  6
CONTINUOUS
 10
7.999999999999857
 20
-18.250000000069999
 30
0.0
 11
7.999999999999857
 21
-11.557692308029999
 31
0.0
  0
ARC
  5
439D
  8
247
  6
CONTINUOUS
 10
6.2500000000698321
 20
-18.250000000069999
 30
0.0
 40
1.7499999999299991
 50
180.0
 51
0.0
  0
ARC
  5
439E
  8
247
  6
CONTINUOUS
 10
6.2500000000698321
 20
-11.557692308029999
 30
0.0
 40
1.7499999999299991
 50
0.0
 51
180.0
  0
LINE
  5
439F
  8
247
  6
CONTINUOUS
 10
4.5000000001398632
 20
-17.384615384719979
 30
0.0
 11
7.5000000000198659
 21
-18.244851541961989
 31
0.0
  0
LINE
  5
43A0
  8
247
  6
CONTINUOUS
 10
5.923076923159865
 20
-16.484983818335792
 30
0.0
 11
5.923076923159865
 21
-17.792676125975809
 31
0.0
  0
ARC
  5
43A1
  8
247
  6
CONTINUOUS
 10
5.0495986677028384
 20
-16.14514381608976
 30
0.0
 40
0.5538165441895349
 50
72.997889675291773
 51
172.92416621851359
  0
ARC
  5
43A2
  8
247
  6
CONTINUOUS
 10
4.9360330444656313
 20
-16.56687832302876
 30
0.0
 40
0.9904354236226808
 50
4.7429368522022122
 51
73.849226273266297
1001
GENIUS_GENOBJ-N-FIL_13
1002
{
1000
OWNER
1000
GEN
1002
}
1001
GENIUS_GENODEF_13
1002
{
1000
HIER
1070
     0
1002
}
1002
{
1000
MANEDIT
1070
     0
1002
}
1002
{
1000
NOSEL
1070
     0
1002
}
1002
{
1000
BEHIND
1070
     0
1002
}
1002
{
1000
OTHER
1070
     0
1002
}
1002
{
1000
REACTOR
1002
}
  0
LINE
  5
43A3
  8
247
  6
CONTINUOUS
 10
7.5000000000198659
 20
-16.937159234322021
 30
0.0
 11
7.5000000000198659
 21
-18.244851541961989
 31
0.0
  0
LINE
  5
43A4
  8
247
  6
CONTINUOUS
 10
4.5000000001398632
 20
-17.384615384719979
 30
0.0
 11
4.5000000001398632
 21
-16.07692307707995
 31
0.0
  0
ARC
  5
43A5
  8
247
  6
CONTINUOUS
 10
6.4820242326653954
 20
-16.56091963654697
 30
0.0
 40
0.5640818586791229
 50
65.990941652528889
 51
172.26344345906909
  0
ARC
  5
43A6
  8
247
  6
CONTINUOUS
 10
6.4874290391864227
 20
-17.03826268534706
 30
0.0
 40
1.0176059446230981
 50
5.701985164259785
 51
77.277338436822376
1001
GENIUS_GENOBJ-N-FIL_13
1002
{
1000
OWNER
1000
GEN
1002
}
1001
GENIUS_GENODEF_13
1002
{
1000
HIER
1070
     0
1002
}
1002
{
1000
MANEDIT
1070
     0
1002
}
1002
{
1000
NOSEL
1070
     0
1002
}
1002
{
1000
BEHIND
1070
     0
1002
}
1002
{
1000
OTHER
1070
     0
1002
}
1002
{
1000
REACTOR
1002
}
  0
LINE
  5
43A7
  8
247
  6
CONTINUOUS
 10
7.5000000000198659
 20
-15.283313080541999
 30
0.0
 11
4.5000000001398632
 21
-14.423076923299989
 31
0.0
  0
LINE
  5
43A8
  8
247
  6
CONTINUOUS
 10
4.5000000001398632
 20
-12.00000000032
 30
0.0
 11
4.5000000001398632
 21
-12.565736619456599
 31
0.0
  0
LINE
  5
43A9
  8
247
  6
CONTINUOUS
 10
7.5000000000198659
 20
-13.461538461799959
 30
0.0
 11
7.5000000000198659
 21
-12.846153846439989
 31
0.0
  0
ARC
  5
43AA
  8
247
  6
CONTINUOUS
 10
6.5832851359732274
 20
-11.708791209122831
 30
0.0
 40
2.2526500823422122
 50
202.35948814152911
 51
254.99324854284609
  0
ARC
  5
43AB
  8
247
  6
CONTINUOUS
 10
5.3083126551943831
 20
-12.374069479213199
 30
0.0
 40
0.8906723995727782
 50
94.994589319075317
 51
155.1663289573039
1001
GENIUS_GENOBJ-N-FIL_13
1002
{
1000
OWNER
1000
GEN
1002
}
1001
GENIUS_GENODEF_13
1002
{
1000
HIER
1070
     0
1002
}
1002
{
1000
MANEDIT
1070
     0
1002
}
1002
{
1000
NOSEL
1070
     0
1002
}
1002
{
1000
BEHIND
1070
     0
1002
}
1002
{
1000
OTHER
1070
     0
1002
}
1002
{
1000
REACTOR
1002
}
  0
ARC
  5
43AC
  8
247
  6
CONTINUOUS
 10
6.1601458886676381
 20
-13.22645888621255
 30
0.0
 40
1.392781735586712
 50
15.8460965557808
 51
82.325137004169065
  0
ARC
  5
43AD
  8
247
  6
CONTINUOUS
 10
6.4592434315271401
 20
-12.64221272584038
 30
0.0
 40
1.324563662670287
 50
249.7136016704969
 51
321.78874565640928
1001
GENIUS_GENOBJ-N-FIL_13
1002
{
1000
OWNER
1000
GEN
1002
}
1001
GENIUS_GENODEF_13
1002
{
1000
HIER
1070
     0
1002
}
1002
{
1000
MANEDIT
1070
     0
1002
}
1002
{
1000
NOSEL
1070
     0
1002
}
1002
{
1000
BEHIND
1070
     0
1002
}
1002
{
1000
OTHER
1070
     0
1002
}
1002
{
1000
REACTOR
1002
}
  0
LINE
  5
43AE
  8
247
  6
CONTINUOUS
 10
6.3461538462198321
 20
-12.53846153876
 30
0.0
 11
6.3461538462198321
 21
-11.84615384648
 31
0.0
  0
LINE
  5
43AF
  8
250
  6
CONTINUOUS
 10
-34.1368727750733
 20
-19.201653317105951
 30
0.0
 11
-32.700000000000102
 21
-17.456249999999979
 31
0.0
  0
LINE
  5
43B0
  8
250
  6
CONTINUOUS
 10
-33.49312722492688
 20
-19.57331998377262
 30
0.0
 11
-32.700000000000102
 21
-17.456249999999979
 31
0.0
  0
LINE
  5
43B1
  8
250
  6
CONTINUOUS
 10
-32.700000000000102
 20
-17.456249999999979
 30
0.0
 11
-33.815000000000111
 21
-19.387486650439278
 31
0.0
  0
LINE
  5
43B2
  8
250
  6
CONTINUOUS
 10
-33.815000000000111
 20
-19.387486650439278
 30
0.0
 11
-38.36313006819131
 21
-27.265079007978191
 31
0.0
1001
ACAD
1000
DSTYLE
1002
{
1070
   140
1040
4.0
1070
   178
1070
   256
1002
}
  0
TEXT
  5
43B3
  8
250
  6
CONTINUOUS
 10
-53.82979673485795
 20
-26.265079007978191
 30
0.0
 40
2.799999999999998
  1
BBT40
  7
YOKO
1001
ITEMNAME
1000
LNSP3
  0
LINE
  5
43B4
  8
250
  6
CONTINUOUS
 10
-38.36313006819131
 20
-27.265079007978191
 30
0.0
 11
-56.096463401524652
 21
-27.265079007978191
 31
0.0
1001
ITEMNAME
1000
LNSP2
  0
LINE
  5
43B5
  8
247
  6
CONTINUOUS
 10
4.500000000139833
 20
-18.250000000069999
 30
0.0
 11
4.500000000139833
 21
-17.576923077020041
 31
0.0
  0
LINE
  5
43B6
  8
240
  6
CONTINUOUS
 10
27.000000000000011
 20
-31.39999999999991
 30
0.0
 11
55.999999999999957
 21
-31.400000000000009
 31
0.0
  0
ARC
  5
43B7
  8
240
  6
CONTINUOUS
 10
55.999999999999957
 20
-32.899999999999999
 30
0.0
 40
1.5
 50
0.0
 51
90.0
  0
LINE
  5
43B8
  8
240
  6
CONTINUOUS
 10
27.0
 20
31.39999999999981
 30
0.0
 11
55.999999999999957
 21
31.400000000000009
 31
0.0
  0
ARC
  5
43B9
  8
240
  6
CONTINUOUS
 10
55.999999999999957
 20
32.899999999999999
 30
0.0
 40
1.5
 50
270.0
 51
0.0
  0
LINE
  5
43BA
  8
240
  6
CONTINUOUS
 10
27.000000000000011
 20
-31.39999999999991
 30
0.0
 11
27.0
 21
-31.5
 31
0.0
  0
LINE
  5
43BB
  8
240
  6
CONTINUOUS
 10
27.0
 20
31.39999999999981
 30
0.0
 11
27.0
 21
31.5
 31
0.0
  0
LINE
  5
43F1
  8
241
  6
CONTINUOUS
 10
47.799999999998612
 20
31.399999999999949
 30
0.0
 11
47.799999999998612
 21
-31.399999999999981
 31
0.0
  0
LINE
  5
43F4
  8
241
  6
CONTINUOUS
 10
40.799999999998647
 20
-31.399999999999991
 30
0.0
 11
40.799999999998747
 21
31.399999999999899
 31
0.0
  0
LINE
  5
43F6
  8
241
  6
CONTINUOUS
 10
34.799999999998938
 20
31.39999999999986
 30
0.0
 11
34.799999999998647
 21
-31.400000000000279
 31
0.0
  0
LINE
  5
43F7
  8
241
  6
CONTINUOUS
 10
28.399999999999238
 20
-31.400000000000521
 30
0.0
 11
28.399999999995369
 21
31.399999999999821
 31
0.0
  0
LINE
  5
43FB
  8
241
  6
CONTINUOUS
 10
29.60000000000079
 20
-31.400000000000549
 30
0.0
 11
29.600000000003408
 21
31.399999999999832
 31
0.0
  0
LINE
  5
4480
  8
250
  6
CONTINUOUS
 10
11.59999999999993
 20
14.999999999999909
 30
0.0
 11
11.599999999999939
 21
50.0
 31
0.0
  0
LINE
  5
4481
  8
250
  6
CONTINUOUS
 10
101.59999999999989
 20
28.08578644
 30
0.0
 11
101.59999999999989
 21
50.0
 31
0.0
  0
LINE
  5
4482
  8
250
  6
CONTINUOUS
 10
13.82999999999994
 20
49.0
 30
0.0
 11
99.369999999999948
 21
49.0
 31
0.0
  0
LINE
  5
4486
  8
250
  6
CONTINUOUS
 10
0.0000000000002599
 20
22.725000000000051
 30
0.0
 11
0.000000000000262
 21
57.0
 31
0.0
  0
LINE
  5
4487
  8
250
  6
CONTINUOUS
 10
101.59999999999999
 20
28.08578644
 30
0.0
 11
101.59999999999999
 21
57.0
 31
0.0
  0
LINE
  5
4488
  8
250
  6
CONTINUOUS
 10
2.2300000000002611
 20
56.0
 30
0.0
 11
99.36999999999999
 21
56.0
 31
0.0
  0
TEXT
  5
448C
  8
250
  6
CONTINUOUS
 10
48.484360208595639
 20
50.0
 30
0.0
 40
2.7999999999999989
  1
(max.3.54)
  0
LINE
  5
448D
  8
250
  6
CONTINUOUS
 10
99.369999999999948
 20
49.37166666666667
 30
0.0
 11
101.59999999999989
 21
49.0
 31
0.0
  0
LINE
  5
448E
  8
250
  6
CONTINUOUS
 10
99.369999999999948
 20
48.62833333333333
 30
0.0
 11
101.59999999999989
 21
49.0
 31
0.0
  0
LINE
  5
448F
  8
250
  6
CONTINUOUS
 10
101.59999999999989
 20
49.0
 30
0.0
 11
99.369999999999948
 21
49.0
 31
0.0
  0
LINE
  5
4490
  8
250
  6
CONTINUOUS
 10
13.82999999999994
 20
48.62833333333333
 30
0.0
 11
11.599999999999939
 21
49.0
 31
0.0
  0
LINE
  5
4491
  8
250
  6
CONTINUOUS
 10
13.82999999999994
 20
49.37166666666667
 30
0.0
 11
11.599999999999939
 21
49.0
 31
0.0
  0
LINE
  5
4492
  8
250
  6
CONTINUOUS
 10
11.599999999999939
 20
49.0
 30
0.0
 11
13.82999999999994
 21
49.0
 31
0.0
  0
TEXT
  5
4493
  8
250
  6
CONTINUOUS
 10
49.400000000000119
 20
57.0
 30
0.0
 40
2.7999999999999989
  1
4.00
  0
LINE
  5
4494
  8
250
  6
CONTINUOUS
 10
99.36999999999999
 20
56.37166666666667
 30
0.0
 11
101.59999999999999
 21
56.0
 31
0.0
  0
LINE
  5
4495
  8
250
  6
CONTINUOUS
 10
99.36999999999999
 20
55.62833333333333
 30
0.0
 11
101.59999999999999
 21
56.0
 31
0.0
  0
LINE
  5
4496
  8
250
  6
CONTINUOUS
 10
101.59999999999999
 20
56.0
 30
0.0
 11
99.36999999999999
 21
56.0
 31
0.0
  0
LINE
  5
4497
  8
250
  6
CONTINUOUS
 10
2.2300000000002611
 20
55.62833333333333
 30
0.0
 11
0.000000000000262
 21
56.0
 31
0.0
  0
LINE
  5
4498
  8
250
  6
CONTINUOUS
 10
2.2300000000002611
 20
56.37166666666667
 30
0.0
 11
0.000000000000262
 21
56.0
 31
0.0
  0
LINE
  5
4499
  8
250
  6
CONTINUOUS
 10
0.000000000000262
 20
56.0
 30
0.0
 11
2.2300000000002611
 21
56.0
 31
0.0
  0
VIEWPORT
  5
22
 67
     1
  8
0
 10
261.51769911504419
 20
148.5
 30
0.0
 40
523.0353982300885
 41
297.0
 68
     1
 69
     1
1001
ACAD
1000
MVIEW
1002
{
1070
    16
1010
0.0
1020
0.0
1030
0.0
1010
0.0
1020
0.0
1030
1.0
1040
0.0
1040
297.0
1040
261.51769911504419
1040
148.5
1040
50.0
1040
0.0
1040
0.0
1070
     0
1070
   100
1070
     1
1070
     1
1070
     0
1070
     0
1070
     0
1070
     0
1040
0.0
1040
0.0
1040
0.0
1040
1.0
1040
1.0
1040
10.0
1040
10.0
1070
     0
1002
{
1002
}
1002
}
1001
GENIUS_GENODEF_13
1002
{
1000
HIER
1070
     0
1002
}
1002
{
1000
MANEDIT
1070
     0
1002
}
1002
{
1000
NOSEL
1070
     0
1002
}
1002
{
1000
BEHIND
1070
     0
1002
}
1002
{
1000
OTHER
1070
     0
1002
}
1002
{
1000
REACTOR
1002
}
1001
GENIUS_GENOBJ-N-SDF_13
1002
{
1000
OWNER
1000
GEN
1002
}
1001
GENIUS_GENSCREG_15
1000
PF
1040
1.0
1000
DF
1040
1.0
1000
MIN
1011
0.0
1021
0.0
1031
0.0
1021
0.0
1031
0.0
1000
MAX
1011
523.0353982300885
1021
0.0
1031
0.0
1021
297.0
1031
0.0
1000
FLAGS
1070
     4
  0
ENDSEC
  0
EOF
