  0
SECTION
  2
HEADER
  9
$ACADVER
  1
AC1009
  9
$INSBASE
 10
0.0
 20
0.0
 30
0.0
  9
$EXTMIN
 10
-69.047619047619051
 20
-31.500000000000711
 30
0.0
  9
$EXTMAX
 10
99.0
 20
68.000000000000028
 30
0.0
  9
$LIMMIN
 10
0.0
 20
0.0
  9
$LIMMAX
 10
297.0
 20
210.0
  9
$ORTHOMODE
 70
     1
  9
$REGENMODE
 70
     1
  9
$FILLMODE
 70
     1
  9
$QTEXTMODE
 70
     0
  9
$MIRRTEXT
 70
     1
  9
$DRAGMODE
 70
     2
  9
$LTSCALE
 40
10.0
  9
$OSMODE
 70
    37
  9
$ATTMODE
 70
     1
  9
$TEXTSIZE
 40
3.0
  9
$TRACEWID
 40
1.0
  9
$TEXTSTYLE
  7
YOKO
  9
$CLAYER
  8
243
  9
$CELTYPE
  6
BYLAYER
  9
$CECOLOR
 62
   256
  9
$DIMSCALE
 40
1.0
  9
$DIMASZ
 40
2.2299999999999991
  9
$DIMEXO
 40
0.5
  9
$DIMDLI
 40
7.0
  9
$DIMRND
 40
0.0
  9
$DIMDLE
 40
0.0
  9
$DIMEXE
 40
1.0
  9
$DIMTP
 40
0.0
  9
$DIMTM
 40
0.01
  9
$DIMTXT
 40
2.7999999999999989
  9
$DIMCEN
 40
0.0
  9
$DIMTSZ
 40
0.0
  9
$DIMTOL
 70
     0
  9
$DIMLIM
 70
     0
  9
$DIMTIH
 70
     0
  9
$DIMTOH
 70
     0
  9
$DIMSE1
 70
     0
  9
$DIMSE2
 70
     0
  9
$DIMTAD
 70
     3
  9
$DIMZIN
 70
     9
  9
$DIMBLK
  1
OPEN
  9
$DIMASO
 70
     1
  9
$DIMSHO
 70
     1
  9
$DIMPOST
  1

  9
$DIMAPOST
  1

  9
$DIMALT
 70
     0
  9
$DIMALTD
 70
     2
  9
$DIMALTF
 40
25.399999999999999
  9
$DIMLFAC
 40
1.0
  9
$DIMTOFL
 70
     1
  9
$DIMTVP
 40
0.0
  9
$DIMTIX
 70
     1
  9
$DIMSOXD
 70
     0
  9
$DIMSAH
 70
     0
  9
$DIMBLK1
  1

  9
$DIMBLK2
  1

  9
$DIMSTYLE
  2
BIGT
  9
$DIMCLRD
 70
   256
  9
$DIMCLRE
 70
   256
  9
$DIMCLRT
 70
    40
  9
$DIMTFAC
 40
1.0
  9
$DIMGAP
 40
1.0
  9
$LUNITS
 70
     2
  9
$LUPREC
 70
     6
  9
$SKETCHINC
 40
1.0
  9
$FILLETRAD
 40
0.8
  9
$AUNITS
 70
     0
  9
$AUPREC
 70
     6
  9
$MENU
  1
.
  9
$ELEVATION
 40
0.0
  9
$PELEVATION
 40
0.0
  9
$THICKNESS
 40
0.0
  9
$LIMCHECK
 70
     0
  9
$BLIPMODE
 70
     0
  9
$CHAMFERA
 40
0.2
  9
$CHAMFERB
 40
0.2
  9
$SKPOLY
 70
     0
  9
$TDCREATE
 40
2458137.4936710768
  9
$TDUPDATE
 40
2458138.6038437961
  9
$TDINDWG
 40
0.0575903935
  9
$TDUSRTIMER
 40
0.0575846296
  9
$USRTIMER
 70
     1
  9
$ANGBASE
 50
0.0
  9
$ANGDIR
 70
     0
  9
$PDMODE
 70
     1
  9
$PDSIZE
 40
0.0
  9
$PLINEWID
 40
0.0
  9
$COORDS
 70
     1
  9
$SPLFRAME
 70
     0
  9
$SPLINETYPE
 70
     6
  9
$SPLINESEGS
 70
     4
  9
$ATTDIA
 70
     1
  9
$ATTREQ
 70
     1
  9
$HANDLING
 70
     1
  9
$HANDSEED
  5
4602
  9
$SURFTAB1
 70
     6
  9
$SURFTAB2
 70
     6
  9
$SURFTYPE
 70
     6
  9
$SURFU
 70
     6
  9
$SURFV
 70
     6
  9
$UCSNAME
  2

  9
$UCSORG
 10
0.0
 20
0.0
 30
0.0
  9
$UCSXDIR
 10
1.0
 20
0.0
 30
0.0
  9
$UCSYDIR
 10
0.0
 20
1.0
 30
0.0
  9
$PUCSNAME
  2

  9
$PUCSORG
 10
0.0
 20
0.0
 30
0.0
  9
$PUCSXDIR
 10
1.0
 20
0.0
 30
0.0
  9
$PUCSYDIR
 10
0.0
 20
1.0
 30
0.0
  9
$USERI1
 70
     1
  9
$USERI2
 70
     0
  9
$USERI3
 70
     0
  9
$USERI4
 70
     0
  9
$USERI5
 70
     0
  9
$USERR1
 40
0.0
  9
$USERR2
 40
0.0
  9
$USERR3
 40
0.0
  9
$USERR4
 40
0.0
  9
$USERR5
 40
0.0
  9
$WORLDVIEW
 70
     1
  9
$SHADEDGE
 70
     3
  9
$SHADEDIF
 70
    70
  9
$TILEMODE
 70
     1
  9
$MAXACTVP
 70
    16
  9
$PLIMCHECK
 70
     0
  9
$PEXTMIN
 10
1.0000000000000000E+020
 20
1.0000000000000000E+020
 30
1.0000000000000000E+020
  9
$PEXTMAX
 10
-1.0000000000000000E+020
 20
-1.0000000000000000E+020
 30
-1.0000000000000000E+020
  9
$PLIMMIN
 10
0.0
 20
0.0
  9
$PLIMMAX
 10
420.0
 20
297.0
  9
$UNITMODE
 70
     0
  9
$VISRETAIN
 70
     1
  9
$PLINEGEN
 70
     0
  9
$PSLTSCALE
 70
     1
  0
ENDSEC
  0
SECTION
  2
TABLES
  0
TABLE
  2
VPORT
 70
     1
  0
VPORT
  2
*ACTIVE
 70
     0
 10
0.0
 20
0.0
 11
1.0
 21
1.0
 12
27.16565433981842
 22
28.177425449038989
 13
0.0
 23
0.0
 14
7.0
 24
7.0
 15
7.0
 25
7.0
 16
0.0
 26
0.0
 36
1.0
 17
0.0
 27
0.0
 37
0.0
 40
194.27793716053571
 41
1.4533622559652919
 42
50.0
 43
0.0
 44
0.0
 50
0.0
 51
0.0
 71
     0
 72
  2000
 73
     1
 74
     0
 75
     1
 76
     1
 77
     0
 78
     0
  0
ENDTAB
  0
TABLE
  2
LTYPE
 70
    21
  0
LTYPE
  2
CONTINUOUS
 70
     0
  3
Solid line
 72
    65
 73
     0
 40
0.0
  0
LTYPE
  2
CENTER2
 70
     0
  3
___ _ ___ _ ___ _ ___ _ ___ _ ___ _ ___ _ ___ _
 72
    65
 73
     4
 40
1.125
 49
0.75
 49
-0.125
 49
0.125
 49
-0.125
  0
LTYPE
  2
HIDDEN2
 70
     0
  3
_ _ _ _ _ _ _ _ _ _ _ _ _ _ _ _ _ _ _ _ _ _ _ _
 72
    65
 73
     2
 40
0.1875
 49
0.125
 49
-0.0625
  0
LTYPE
  2
AM_ISO02W050
 70
     0
  3
__ __ __ __ __ __ __ __ __ __ __ __ __ __ __
 72
    65
 73
     2
 40
7.5
 49
6.0
 49
-1.5
  0
LTYPE
  2
AMCONSTR
 70
     0
  3
_______________________
 72
    65
 73
     2
 40
9999.0
 49
9999.0
 49
0.0
  0
LTYPE
  2
ACISOWELD
 70
     0
  3
_ _ _ _ _
 72
    65
 73
     2
 40
2.0
 49
2.0
 49
-1.0
  0
LTYPE
  2
ACISOTGB
 70
     0
  3
__ . . __ . .
 72
    65
 73
     6
 40
9.0
 49
4.0
 49
-1.0
 49
1.0
 49
-1.0
 49
1.0
 49
-1.0
  0
LTYPE
  2
ACISOTGL
 70
     0
  3
_ _ _ _ _
 72
    65
 73
     2
 40
3.0
 49
2.0
 49
-1.0
  0
LTYPE
  2
AM_ISO08W050
 70
     0
  3
____ . ____ . ____ . ____ . ____ . ____ . ____
 72
    65
 73
     4
 40
18.0
 49
12.0
 49
-1.5
 49
3.0
 49
-1.5
  0
LTYPE
  2
AM_ISO09W050
 70
     0
  3
_____ . . _____ . . _____ . . ____ .. ____
 72
    65
 73
     6
 40
22.5
 49
12.0
 49
-1.5
 49
3.0
 49
-1.5
 49
3.0
 49
-1.5
  0
LTYPE
  2
AM_ISO08W050X2
 70
     0
  3
__ . __ . __ . __ . __ . __
 72
    65
 73
     4
 40
9.0
 49
6.0
 49
-0.75
 49
1.5
 49
-0.75
  0
LTYPE
  2
AM_ISO02W050X2
 70
     0
  3
 _ _ _ _ _ _ _ _ _ _ _ _
 72
    65
 73
     2
 40
3.75
 49
3.0
 49
-0.75
  0
LTYPE
  2
AMZIGZAG
 70
     0
  3
/\/-/\/-/\/-/\/-/\/-/\/
 72
    65
 73
     2
 40
11.0001
 49
0.0001
 49
-11.0
  0
ENDTAB
  0
TABLE
  2
LAYER
 70
     8
  0
LAYER
  2
0
 70
     0
 62
     7
  6
CONTINUOUS
  0
LAYER
  2
DEFPOINTS
 70
     0
 62
     7
  6
CONTINUOUS
  0
LAYER
  2
245
 70
     0
 62
     2
  6
CENTER2
  0
LAYER
  2
240
 70
     0
 62
     4
  6
CONTINUOUS
  0
LAYER
  2
241
 70
     0
 62
   211
  6
CONTINUOUS
  0
LAYER
  2
243
 70
     0
 62
   211
  6
HIDDEN2
  0
LAYER
  2
247
 70
     0
 62
    60
  6
CONTINUOUS
  0
LAYER
  2
250
 70
     0
 62
     3
  6
CONTINUOUS
  0
ENDTAB
  0
TABLE
  2
STYLE
 70
     8
  0
STYLE
  2
STANDARD
 70
     0
 40
0.0
 41
1.0
 50
0.0
 71
     0
 42
3.0
  3
romans.shx
  4
extfont.shx
  0
STYLE
  2
ACISOGDT
 70
     0
 40
0.0
 41
1.0
 50
0.0
 71
     0
 42
3.0
  3
amgdt.shx
  4
extfont.shx
  0
STYLE
  2
YOKO
 70
     0
 40
0.0
 41
1.0
 50
0.0
 71
     0
 42
3.0
  3
romans.shx
  4
extfont.shx
  0
STYLE
  2

 70
     1
 40
0.0
 41
1.0
 50
0.0
 71
     0
 42
3.0
  3
genltshp.shx
  4

  0
ENDTAB
  0
TABLE
  2
VIEW
 70
     0
  0
ENDTAB
  0
TABLE
  2
UCS
 70
     0
  0
ENDTAB
  0
TABLE
  2
APPID
 70
    41
  0
APPID
  2
ACAD
 70
     0
  0
APPID
  2
GLOBAL
 70
     0
  0
APPID
  2
DETAIL
 70
     0
  0
APPID
  2
GRPNAME
 70
     0
  0
APPID
  2
GPARA
 70
     0
  0
APPID
  2
MCAD_NO_VIS
 70
     0
  0
APPID
  2
ACAD_TEMP_GRAPHIC
 70
     0
  0
APPID
  2
ACATTRIBSERVICES
 70
     0
  0
APPID
  2
GENIUS_GENSCREG_15
 70
     0
  0
APPID
  2
GENIUS_GENODEF_13
 70
     0
  0
APPID
  2
GENIUS_GENOBJ-N-SDF_13
 70
     0
  0
APPID
  2
GENIUS_GENREC_14
 70
     0
  0
APPID
  2
GENIUS_GENOBJ-N-REC_13
 70
     0
  0
APPID
  2
GENIUS_GENDIMSH_14
 70
     0
  0
APPID
  2
GENIUS_GENOBJ-N-DIM_13
 70
     0
  0
APPID
  2
GENIUS_GENDIM_13
 70
     0
  0
APPID
  2
GENIUS_GENDTOL_13
 70
     0
  0
APPID
  2
GENIUS_GENOLIS_13
 70
     0
  0
APPID
  2
GENIUS_GENOENT_13
 70
     0
  0
APPID
  2
GENIUS_GENOBJ-F-FEM_13
 70
     0
  0
APPID
  2
GENIUS_GENOREF_13
 70
     0
  0
APPID
  2
GENIUS_GEFFEM_13
 70
     0
  0
APPID
  2
GENIUS_GEFFEMP_13
 70
     0
  0
APPID
  2
AD_DRAW
 70
     0
  0
APPID
  2
DESIGNERASSEMBLIES
 70
     0
  0
APPID
  2
ACADM_DIM_EDIT
 70
     0
  0
APPID
  2
AMDT_DM_ADJ
 70
     0
  0
APPID
  2
ITEMNAME
 70
     0
  0
APPID
  2
GENIUS_GENOBJ-N-FIL_13
 70
     0
  0
APPID
  2
GENIUS_GENFIL_13
 70
     0
  0
APPID
  2
GENIUS_GENOBJ-N-CHA_13
 70
     0
  0
APPID
  2
ACAECLAYERSTANDARD
 70
     0
  0
APPID
  2
ACAD_NAV_VCDISPLAY
 70
     0
  0
APPID
  2
LAYER_SCALE
 70
     0
  0
APPID
  2
ACAD_PSEXT
 70
     0
  0
APPID
  2
ASK_MEN_XD
 70
     0
  0
APPID
  2
ACAD_DSTYLE_DIMJAG
 70
     0
  0
APPID
  2
ACAD_DSTYLE_DIMBREAK
 70
     0
  0
APPID
  2
ACAD_EXEMPT_FROM_CAD_STANDARDS
 70
     0
  0
APPID
  2
ACAD_DSTYLE_DIMINSPECT
 70
     0
  0
APPID
  2
ACAD_MLEADERVER
 70
     0
  0
ENDTAB
  0
TABLE
  2
DIMSTYLE
 70
    30
  0
DIMSTYLE
  2
BIGT
 70
     0
  3

  4

  5
OPEN
  6

  7

 40
1.0
 41
2.2299999999999991
 42
0.5
 43
7.0
 44
1.0
 45
0.0
 46
0.0
 47
0.0
 48
0.01
140
2.7999999999999989
141
0.0
142
0.0
143
25.399999999999999
144
1.0
145
0.0
146
1.0
147
1.0
 71
     0
 72
     0
 73
     0
 74
     0
 75
     0
 76
     0
 77
     3
 78
     9
170
     0
171
     2
172
     1
173
     0
174
     1
175
     0
176
   256
177
   256
178
    40
  0
DIMSTYLE
  2
AM_ISO
 70
     0
  3

  4
"
  5

  6

  7

 40
1.0
 41
2.5
 42
1.0
 43
10.0
 44
1.0
 45
0.0
 46
0.0
 47
0.1
 48
0.1
140
3.5
141
0.0
142
0.0
143
0.0393701
144
1.0
145
0.0
146
0.71
147
1.5
 71
     0
 72
     0
 73
     0
 74
     0
 75
     0
 76
     0
 77
     1
 78
     8
170
     0
171
     2
172
     1
173
     0
174
     0
175
     0
176
   256
177
   256
178
     2
  0
DIMSTYLE
  2
AM_ISO$3
 70
     0
  3

  4
"
  5

  6

  7

 40
1.0
 41
2.5
 42
1.0
 43
10.0
 44
1.0
 45
0.0
 46
0.0
 47
0.1
 48
0.1
140
3.5
141
0.0
142
0.0
143
0.0393701
144
1.0
145
0.0
146
0.71
147
1.5
 71
     0
 72
     0
 73
     0
 74
     1
 75
     0
 76
     0
 77
     1
 78
     8
170
     0
171
     2
172
     0
173
     0
174
     0
175
     0
176
   256
177
   256
178
     2
  0
DIMSTYLE
  2
AM_ISO$4
 70
     0
  3

  4
"
  5

  6

  7

 40
1.0
 41
2.5
 42
1.0
 43
10.0
 44
1.0
 45
0.0
 46
0.0
 47
0.1
 48
0.1
140
3.5
141
0.0
142
0.0
143
0.0393701
144
1.0
145
0.0
146
0.71
147
1.5
 71
     0
 72
     0
 73
     0
 74
     1
 75
     0
 76
     0
 77
     1
 78
     8
170
     0
171
     2
172
     0
173
     0
174
     0
175
     0
176
   256
177
   256
178
     2
  0
DIMSTYLE
  2
AM_ISO$6
 70
     0
  3

  4
"
  5

  6

  7

 40
1.0
 41
2.5
 42
1.0
 43
10.0
 44
1.0
 45
0.0
 46
0.0
 47
0.1
 48
0.1
140
3.5
141
0.0
142
0.0
143
0.0393701
144
1.0
145
0.0
146
0.71
147
1.5
 71
     0
 72
     0
 73
     0
 74
     0
 75
     0
 76
     0
 77
     0
 78
     8
170
     0
171
     2
172
     1
173
     0
174
     0
175
     0
176
   256
177
   256
178
     2
  0
DIMSTYLE
  2
AM_ISO$7
 70
     0
  3

  4
"
  5

  6

  7

 40
1.0
 41
2.5
 42
1.0
 43
10.0
 44
1.0
 45
0.0
 46
0.0
 47
0.1
 48
0.1
140
5.0
141
0.0
142
0.0
143
0.0393701
144
1.0
145
0.0
146
0.71
147
1.5
 71
     0
 72
     0
 73
     0
 74
     0
 75
     0
 76
     0
 77
     1
 78
     8
170
     0
171
     2
172
     1
173
     0
174
     0
175
     0
176
   256
177
   256
178
     2
  0
DIMSTYLE
  2
AM_ISO$SF
 70
     0
  3

  4
"
  5

  6

  7

 40
1.0
 41
2.5
 42
1.0
 43
10.0
 44
1.0
 45
0.0
 46
0.0
 47
0.1
 48
0.1
140
3.5
141
0.0
142
0.0
143
0.0393701
144
1.0
145
0.0
146
0.71
147
1.5
 71
     0
 72
     0
 73
     0
 74
     0
 75
     1
 76
     1
 77
     1
 78
     8
170
     0
171
     2
172
     1
173
     0
174
     0
175
     0
176
   256
177
   256
178
     2
  0
DIMSTYLE
  2
AM_ISO$SH
 70
     0
  3

  4
"
  5

  6
GENAXEH
  7

 40
1.0
 41
2.5
 42
1.0
 43
10.0
 44
1.0
 45
0.0
 46
0.0
 47
0.1
 48
0.1
140
3.5
141
0.0
142
0.0
143
0.0393701
144
2.0
145
0.0
146
0.71
147
1.5
 71
     0
 72
     0
 73
     0
 74
     0
 75
     1
 76
     1
 77
     1
 78
     8
170
     0
171
     2
172
     1
173
     1
174
     0
175
     0
176
   256
177
   256
178
     2
  0
DIMSTYLE
  2
STANDARD
 70
     0
  3

  4

  5

  6

  7

 40
1.0
 41
0.18
 42
0.0625
 43
0.38
 44
0.18
 45
0.0
 46
0.0
 47
0.0
 48
0.0
140
0.18
141
0.09
142
0.0
143
25.399999999999999
144
1.0
145
0.0
146
1.0
147
0.09
 71
     0
 72
     0
 73
     1
 74
     1
 75
     0
 76
     0
 77
     0
 78
     0
170
     0
171
     2
172
     0
173
     0
174
     0
175
     0
176
     0
177
     0
178
     0
  0
ENDTAB
  0
ENDSEC
  0
SECTION
  2
BLOCKS
  0
BLOCK
  8
0
  2
$MODEL_SPACE
 70
     0
 10
0.0
 20
0.0
 30
0.0
  3
$MODEL_SPACE
  1

  0
ENDBLK
  5
1C
  8
0
  0
BLOCK
 67
     1
  8
0
  2
$PAPER_SPACE
 70
     0
 10
0.0
 20
0.0
 30
0.0
  3
$PAPER_SPACE
  1

  0
ENDBLK
  5
19
 67
     1
  8
0
  0
BLOCK
  8
0
  2
_OPEN
 70
     0
 10
0.0
 20
0.0
 30
0.0
  3
_OPEN
  1

  0
LINE
  5
3E1A
  8
0
  6
BYBLOCK
 62
     0
 10
-1.0
 20
0.1666666666666666
 30
0.0
 11
0.0
 21
0.0
 31
0.0
  0
LINE
  5
3E1B
  8
0
  6
BYBLOCK
 62
     0
 10
-1.0
 20
-0.1666666666666666
 30
0.0
 11
0.0
 21
0.0
 31
0.0
  0
LINE
  5
3E1C
  8
0
  6
BYBLOCK
 62
     0
 10
0.0
 20
0.0
 30
0.0
 11
-1.0
 21
0.0
 31
0.0
  0
ENDBLK
  5
3E1D
  8
0
  0
BLOCK
  8
0
  2
GENAXEH
 70
     0
 10
0.0
 20
0.0
 30
0.0
  3
GENAXEH
  1

  0
LINE
  5
3E45
  8
0
 10
-1.0
 20
0.0
 30
0.0
 11
1.0
 21
0.0
 31
0.0
  0
ENDBLK
  5
3E46
  8
0
  0
ENDSEC
  0
SECTION
  2
ENTITIES
  0
LINE
  5
42A1
  8
240
  6
CONTINUOUS
 10
26.99999999999989
 20
-31.50000000000043
 30
0.0
 11
26.99999999999989
 21
-29.714526282777019
 31
0.0
  0
LINE
  5
42A2
  8
240
  6
CONTINUOUS
 10
-65.400000000000119
 20
-12.68750000000003
 30
0.0
 11
-65.400000000000091
 21
12.687500000000201
 31
0.0
  0
LINE
  5
42A3
  8
240
  6
CONTINUOUS
 10
0.9999999999997442
 20
-31.499999999999631
 30
0.0
 11
0.9999999999998575
 21
-22.225000000000051
 31
0.0
  0
LINE
  5
42A4
  8
241
  6
CONTINUOUS
 10
-0.0000000000000853
 20
-22.225000000000001
 30
0.0
 11
0.0000000000000853
 21
22.225000000000119
 31
0.0
  0
LINE
  5
42A5
  8
240
  6
CONTINUOUS
 10
-0.0000000000001137
 20
-22.225000000000001
 30
0.0
 11
-65.400000000000119
 21
-12.68750000000003
 31
0.0
  0
LINE
  5
42A6
  8
240
  6
CONTINUOUS
 10
26.99999999999989
 20
-31.50000000000043
 30
0.0
 11
21.634494347333309
 21
-31.500000000000711
 31
0.0
  0
LINE
  5
42A7
  8
243
  6
HIDDEN2
 10
22.99999999999989
 20
-22.499999999999972
 30
0.0
 11
22.99999999999989
 21
-31.499999999999972
 31
0.0
  0
LINE
  5
42A8
  8
240
  6
CONTINUOUS
 10
0.9999999999997442
 20
-31.499999999999631
 30
0.0
 11
11.565505652666101
 21
-31.500000000000309
 31
0.0
  0
LINE
  5
42A9
  8
243
  6
HIDDEN2
 10
22.99999999999989
 20
-22.499999999999972
 30
0.0
 11
0.9999999999998864
 21
-22.499999999999972
 31
0.0
  0
LINE
  5
42AA
  8
245
  6
CENTER2
 10
-66.400000000000176
 20
0.0000000000000853
 30
0.0
 11
77.074624196379204
 21
-0.0000000000000284
 31
0.0
  0
LINE
  5
42AB
  8
240
  6
CONTINUOUS
 10
14.45225699861486
 20
-26.499999999999801
 30
0.0
 11
11.565505652666239
 21
-31.50000000000043
 31
0.0
  0
LINE
  5
42AC
  8
240
  6
CONTINUOUS
 10
18.747743001385398
 20
-26.500000000000028
 30
0.0
 11
21.634494347334339
 21
-31.50000000000043
 31
0.0
  0
LINE
  5
42AD
  8
240
  6
CONTINUOUS
 10
14.45225699861453
 20
-26.49999999999952
 30
0.0
 11
18.747743001385398
 21
-26.500000000000028
 31
0.0
  0
LINE
  5
42AE
  8
241
  6
CONTINUOUS
 10
11.565505652666101
 20
31.50000000000043
 30
0.0
 11
11.565505652666239
 21
-31.50000000000043
 31
0.0
  0
LINE
  5
42AF
  8
241
  6
CONTINUOUS
 10
14.45225699861453
 20
-26.49999999999952
 30
0.0
 11
14.452256998614409
 21
26.4999999999994
 31
0.0
  0
LINE
  5
42B0
  8
241
  6
CONTINUOUS
 10
18.747743001385292
 20
-26.499999999999861
 30
0.0
 11
18.747743001385398
 21
26.499999999999972
 31
0.0
  0
LINE
  5
42B1
  8
241
  6
CONTINUOUS
 10
21.634494347333309
 20
-31.500000000000711
 30
0.0
 11
21.634494347333369
 21
31.500000000000661
 31
0.0
  0
LINE
  5
42B2
  8
240
  6
CONTINUOUS
 10
-0.0000000000000853
 20
-22.225000000000001
 30
0.0
 11
0.9999999999998575
 21
-22.225000000000051
 31
0.0
  0
LINE
  5
42B3
  8
241
  6
CONTINUOUS
 10
0.9999999999998575
 20
-22.22499999999982
 30
0.0
 11
0.9999999999998575
 21
22.22499999999982
 31
0.0
  0
LINE
  5
42B4
  8
240
  6
CONTINUOUS
 10
0.9999999999998293
 20
31.499999999999691
 30
0.0
 11
0.9999999999999149
 21
22.225000000000051
 31
0.0
  0
LINE
  5
42B5
  8
240
  6
CONTINUOUS
 10
-0.0000000000000568
 20
22.225000000000001
 30
0.0
 11
-65.400000000000091
 21
12.687500000000201
 31
0.0
  0
LINE
  5
42B6
  8
240
  6
CONTINUOUS
 10
26.99999999999994
 20
31.50000000000038
 30
0.0
 11
21.634494347333369
 21
31.500000000000711
 31
0.0
  0
LINE
  5
42B7
  8
243
  6
HIDDEN2
 10
22.99999999999994
 20
22.499999999999918
 30
0.0
 11
23.0
 21
31.499999999999911
 31
0.0
  0
LINE
  5
42B8
  8
240
  6
CONTINUOUS
 10
0.9999999999998293
 20
31.499999999999691
 30
0.0
 11
11.565505652666189
 21
31.50000000000038
 31
0.0
  0
LINE
  5
42B9
  8
243
  6
HIDDEN2
 10
22.99999999999994
 20
22.499999999999918
 30
0.0
 11
0.9999999999999431
 21
22.500000000000028
 31
0.0
  0
LINE
  5
42BA
  8
240
  6
CONTINUOUS
 10
14.452256998614979
 20
26.499999999999801
 30
0.0
 11
11.56550565266633
 21
31.50000000000043
 31
0.0
  0
LINE
  5
42BB
  8
240
  6
CONTINUOUS
 10
18.747743001385508
 20
26.500000000000028
 30
0.0
 11
21.634494347334449
 21
31.50000000000038
 31
0.0
  0
LINE
  5
42BC
  8
240
  6
CONTINUOUS
 10
14.45225699861459
 20
26.49999999999946
 30
0.0
 11
18.747743001385508
 21
26.500000000000028
 31
0.0
  0
LINE
  5
42BD
  8
240
  6
CONTINUOUS
 10
-0.0000000000000284
 20
22.225000000000051
 30
0.0
 11
0.9999999999999149
 21
22.225000000000051
 31
0.0
  0
LINE
  5
42BE
  8
247
  6
CONTINUOUS
 10
7.999999999999857
 20
-18.250000000069999
 30
0.0
 11
7.999999999999857
 21
-11.557692308029999
 31
0.0
  0
ARC
  5
42BF
  8
247
  6
CONTINUOUS
 10
6.2500000000698321
 20
-18.250000000069999
 30
0.0
 40
1.7499999999299991
 50
180.0
 51
0.0
  0
ARC
  5
42C0
  8
247
  6
CONTINUOUS
 10
6.2500000000698321
 20
-11.557692308029999
 30
0.0
 40
1.7499999999299991
 50
0.0
 51
180.0
  0
LINE
  5
42C1
  8
247
  6
CONTINUOUS
 10
4.5000000001398632
 20
-17.384615384719979
 30
0.0
 11
7.5000000000198659
 21
-18.244851541961989
 31
0.0
  0
LINE
  5
42C2
  8
247
  6
CONTINUOUS
 10
5.9230769231598659
 20
-16.484983818335792
 30
0.0
 11
5.9230769231598659
 21
-17.792676125975809
 31
0.0
  0
ARC
  5
42C3
  8
247
  6
CONTINUOUS
 10
5.0495986677028384
 20
-16.14514381608976
 30
0.0
 40
0.5538165441895349
 50
72.997889675291773
 51
172.92416621851359
  0
ARC
  5
42C4
  8
247
  6
CONTINUOUS
 10
4.9360330444656313
 20
-16.56687832302876
 30
0.0
 40
0.9904354236226808
 50
4.7429368522022122
 51
73.849226273266297
1001
GENIUS_GENOBJ-N-FIL_13
1002
{
1000
OWNER
1000
GEN
1002
}
1001
GENIUS_GENODEF_13
1002
{
1000
HIER
1070
     0
1002
}
1002
{
1000
MANEDIT
1070
     0
1002
}
1002
{
1000
NOSEL
1070
     0
1002
}
1002
{
1000
BEHIND
1070
     0
1002
}
1002
{
1000
OTHER
1070
     0
1002
}
1002
{
1000
REACTOR
1002
}
  0
LINE
  5
42C5
  8
247
  6
CONTINUOUS
 10
7.5000000000198659
 20
-16.937159234322021
 30
0.0
 11
7.5000000000198659
 21
-18.244851541961989
 31
0.0
  0
LINE
  5
42C6
  8
247
  6
CONTINUOUS
 10
4.5000000001398632
 20
-17.384615384719979
 30
0.0
 11
4.5000000001398632
 21
-16.07692307707995
 31
0.0
  0
ARC
  5
42C7
  8
247
  6
CONTINUOUS
 10
6.4820242326653954
 20
-16.56091963654697
 30
0.0
 40
0.5640818586791229
 50
65.990941652528889
 51
172.26344345906909
  0
ARC
  5
42C8
  8
247
  6
CONTINUOUS
 10
6.4874290391864227
 20
-17.03826268534706
 30
0.0
 40
1.0176059446230981
 50
5.701985164259785
 51
77.277338436822376
1001
GENIUS_GENOBJ-N-FIL_13
1002
{
1000
OWNER
1000
GEN
1002
}
1001
GENIUS_GENODEF_13
1002
{
1000
HIER
1070
     0
1002
}
1002
{
1000
MANEDIT
1070
     0
1002
}
1002
{
1000
NOSEL
1070
     0
1002
}
1002
{
1000
BEHIND
1070
     0
1002
}
1002
{
1000
OTHER
1070
     0
1002
}
1002
{
1000
REACTOR
1002
}
  0
LINE
  5
42C9
  8
247
  6
CONTINUOUS
 10
7.5000000000198659
 20
-15.283313080541999
 30
0.0
 11
4.5000000001398632
 21
-14.423076923299989
 31
0.0
  0
LINE
  5
42CA
  8
247
  6
CONTINUOUS
 10
4.5000000001398632
 20
-12.00000000032
 30
0.0
 11
4.5000000001398632
 21
-12.565736619456599
 31
0.0
  0
LINE
  5
42CB
  8
247
  6
CONTINUOUS
 10
7.5000000000198659
 20
-13.461538461799959
 30
0.0
 11
7.5000000000198659
 21
-12.846153846439989
 31
0.0
  0
ARC
  5
42CC
  8
247
  6
CONTINUOUS
 10
6.5832851359732274
 20
-11.708791209122831
 30
0.0
 40
2.2526500823422122
 50
202.35948814152911
 51
254.99324854284609
  0
ARC
  5
42CD
  8
247
  6
CONTINUOUS
 10
5.3083126551943831
 20
-12.374069479213199
 30
0.0
 40
0.8906723995727782
 50
94.994589319075317
 51
155.1663289573039
1001
GENIUS_GENOBJ-N-FIL_13
1002
{
1000
OWNER
1000
GEN
1002
}
1001
GENIUS_GENODEF_13
1002
{
1000
HIER
1070
     0
1002
}
1002
{
1000
MANEDIT
1070
     0
1002
}
1002
{
1000
NOSEL
1070
     0
1002
}
1002
{
1000
BEHIND
1070
     0
1002
}
1002
{
1000
OTHER
1070
     0
1002
}
1002
{
1000
REACTOR
1002
}
  0
ARC
  5
42CE
  8
247
  6
CONTINUOUS
 10
6.1601458886676399
 20
-13.22645888621255
 30
0.0
 40
1.392781735586712
 50
15.8460965557808
 51
82.325137004169065
  0
ARC
  5
42CF
  8
247
  6
CONTINUOUS
 10
6.4592434315271401
 20
-12.64221272584038
 30
0.0
 40
1.324563662670287
 50
249.7136016704969
 51
321.78874565640928
1001
GENIUS_GENOBJ-N-FIL_13
1002
{
1000
OWNER
1000
GEN
1002
}
1001
GENIUS_GENODEF_13
1002
{
1000
HIER
1070
     0
1002
}
1002
{
1000
MANEDIT
1070
     0
1002
}
1002
{
1000
NOSEL
1070
     0
1002
}
1002
{
1000
BEHIND
1070
     0
1002
}
1002
{
1000
OTHER
1070
     0
1002
}
1002
{
1000
REACTOR
1002
}
  0
LINE
  5
42D0
  8
247
  6
CONTINUOUS
 10
6.3461538462198321
 20
-12.53846153876
 30
0.0
 11
6.3461538462198321
 21
-11.84615384648
 31
0.0
  0
LINE
  5
42D1
  8
250
  6
CONTINUOUS
 10
-34.1368727750733
 20
-19.201653317105951
 30
0.0
 11
-32.700000000000102
 21
-17.456249999999979
 31
0.0
  0
LINE
  5
42D2
  8
250
  6
CONTINUOUS
 10
-33.49312722492688
 20
-19.57331998377262
 30
0.0
 11
-32.700000000000102
 21
-17.456249999999979
 31
0.0
  0
LINE
  5
42D3
  8
250
  6
CONTINUOUS
 10
-32.700000000000102
 20
-17.456249999999979
 30
0.0
 11
-33.815000000000111
 21
-19.387486650439278
 31
0.0
  0
LINE
  5
42D4
  8
250
  6
CONTINUOUS
 10
-33.815000000000111
 20
-19.387486650439278
 30
0.0
 11
-38.36313006819131
 21
-27.265079007978191
 31
0.0
1001
ACAD
1000
DSTYLE
1002
{
1070
   140
1040
4.0
1070
   178
1070
   256
1002
}
  0
TEXT
  5
42D5
  8
250
  6
CONTINUOUS
 10
-53.82979673485795
 20
-26.265079007978191
 30
0.0
 40
2.799999999999998
  1
BBT40
  7
YOKO
1001
ITEMNAME
1000
LNSP3
  0
LINE
  5
42D6
  8
250
  6
CONTINUOUS
 10
-38.36313006819131
 20
-27.265079007978191
 30
0.0
 11
-56.096463401524652
 21
-27.265079007978191
 31
0.0
1001
ITEMNAME
1000
LNSP2
  0
LINE
  5
42D7
  8
247
  6
CONTINUOUS
 10
4.500000000139833
 20
-18.250000000069999
 30
0.0
 11
4.500000000139833
 21
-17.576923077020041
 31
0.0
  0
LINE
  5
4313
  8
240
  6
CONTINUOUS
 10
27.107179676972319
 20
-29.314526282777042
 30
0.0
 11
28.443472049379981
 21
-27.00000000000005
 31
0.0
  0
LINE
  5
4315
  8
241
  6
CONTINUOUS
 10
55.999711618681118
 20
20.99999999999725
 30
0.0
 11
55.999711618680088
 21
-21.0
 31
0.0
  0
LINE
  5
4316
  8
241
  6
CONTINUOUS
 10
49.999711618712382
 20
-20.999999999994031
 30
0.0
 11
49.999711618712368
 21
20.999999999995651
 31
0.0
  0
LINE
  5
4317
  8
240
  6
CONTINUOUS
 10
43.73475035236514
 20
-20.999999999993971
 30
0.0
 11
59.835276610154288
 21
-20.99999999999423
 31
0.0
  0
ARC
  5
4318
  8
240
  6
CONTINUOUS
 10
43.73475035236509
 20
-22.999999999993971
 30
0.0
 40
2.0
 50
89.999999999998764
 51
165.00000000000031
1001
ASK_MEN_XD
1005
4324
1070
     1
1005
0
1070
     1
  0
LINE
  5
431A
  8
240
  6
CONTINUOUS
 10
76.200096376407032
 20
-18.845530605198409
 30
0.0
 11
76.200096376406179
 21
18.84553060519854
 31
0.0
  0
LINE
  5
431B
  8
241
  6
CONTINUOUS
 10
59.845108129529791
 20
-21.000000000000281
 30
0.0
 11
59.845108129529791
 21
20.99999999999827
 31
0.0
  0
LINE
  5
431C
  8
240
  6
CONTINUOUS
 10
59.835276610154288
 20
-20.99999999999423
 30
0.0
 11
76.200096376407032
 21
-18.845530605198409
 31
0.0
  0
LINE
  5
431D
  8
240
  6
CONTINUOUS
 10
59.835276610108529
 20
21.000000000000259
 30
0.0
 11
76.200096376406179
 21
18.84553060519854
 31
0.0
  0
LINE
  5
431E
  8
240
  6
CONTINUOUS
 10
43.734750352365758
 20
20.999999999993982
 30
0.0
 11
59.845108129529791
 21
20.99999999999827
 31
0.0
  0
LINE
  5
431F
  8
243
  6
HIDDEN2
 10
33.2000963764064
 20
9.5250000000000714
 30
0.0
 11
76.200096376406393
 21
9.5250000000000661
 31
0.0
  0
LINE
  5
4320
  8
240
  6
CONTINUOUS
 10
29.309497453164429
 20
-26.500000000000028
 30
0.0
 11
40.726375818034541
 21
-26.499999999999961
 31
0.0
  0
ARC
  5
4321
  8
240
  6
CONTINUOUS
 10
29.309497453164429
 20
-27.500000000000028
 30
0.0
 40
1.0
 50
90.0
 51
150.00000000000171
1001
ASK_MEN_XD
1005
4313
1070
     1
1005
4320
1070
     1
  0
LINE
  5
4322
  8
241
  6
CONTINUOUS
 10
28.73214718397486
 20
-26.683503419072281
 30
0.0
 11
28.732147183974799
 21
26.683503419072309
 31
0.0
  0
LINE
  5
4323
  8
241
  6
CONTINUOUS
 10
40.726375818034462
 20
26.500000000000231
 30
0.0
 11
40.726375818034441
 21
-26.499999999999961
 31
0.0
  0
LINE
  5
4324
  8
240
  6
CONTINUOUS
 10
40.726375818034541
 20
-26.499999999999961
 30
0.0
 11
41.802898699786908
 21
-22.482361909788999
 31
0.0
  0
LINE
  5
4325
  8
241
  6
CONTINUOUS
 10
42.200096376407089
 20
-21.717487943880538
 30
0.0
 11
42.200096376407139
 21
21.717487943880489
 31
0.0
  0
ARC
  5
4326
  8
240
  6
CONTINUOUS
 10
43.73475035236509
 20
22.999999999993982
 30
0.0
 40
2.0
 50
194.99999999999801
 51
270.0
1001
ASK_MEN_XD
1005
4324
1070
     1
1005
0
1070
     1
  0
LINE
  5
4327
  8
240
  6
CONTINUOUS
 10
29.309497453164429
 20
26.500000000000028
 30
0.0
 11
40.726375818034541
 21
26.499999999999972
 31
0.0
  0
ARC
  5
4328
  8
240
  6
CONTINUOUS
 10
29.309497453164429
 20
27.500000000000028
 30
0.0
 40
1.0
 50
209.99999999999969
 51
270.0
1001
ASK_MEN_XD
1005
4313
1070
     1
1005
4320
1070
     1
  0
LINE
  5
4329
  8
240
  6
CONTINUOUS
 10
40.726375818034541
 20
26.499999999999972
 30
0.0
 11
41.802898699786908
 21
22.48236190978901
 31
0.0
  0
LINE
  5
432A
  8
240
  6
CONTINUOUS
 10
27.107179676972208
 20
29.31452628277723
 30
0.0
 11
28.443472049379981
 21
27.00000000000006
 31
0.0
  0
LINE
  5
432B
  8
241
  6
CONTINUOUS
 10
45.800096376407112
 20
-20.999999999993971
 30
0.0
 11
45.80009637640719
 21
20.999999999994529
 31
0.0
  0
LINE
  5
432C
  8
241
  6
CONTINUOUS
 10
44.600096376407087
 20
-20.999999999993939
 30
0.0
 11
44.600096376407102
 21
20.999999999994209
 31
0.0
  0
ARC
  5
432E
  8
240
  6
CONTINUOUS
 10
27.799999999999891
 20
-29.714526282777019
 30
0.0
 40
0.8
 50
150.0000000000019
 51
180.00000000000011
1001
GENIUS_GENODEF_13
1002
{
1000
HIER
1070
     0
1002
}
1002
{
1000
MANEDIT
1070
     0
1002
}
1002
{
1000
NOSEL
1070
     0
1002
}
1002
{
1000
BEHIND
1070
     0
1002
}
1002
{
1000
OTHER
1070
     0
1002
}
1002
{
1000
REACTOR
1002
}
1001
GENIUS_GENOBJ-N-FIL_13
1002
{
1000
OWNER
1000
GEN
1002
}
  0
ARC
  5
4330
  8
240
  6
CONTINUOUS
 10
27.79999999999978
 20
29.714526282777211
 30
0.0
 40
0.8
 50
180.00000000000011
 51
209.9999999999981
1001
GENIUS_GENODEF_13
1002
{
1000
HIER
1070
     0
1002
}
1002
{
1000
MANEDIT
1070
     0
1002
}
1002
{
1000
NOSEL
1070
     0
1002
}
1002
{
1000
BEHIND
1070
     0
1002
}
1002
{
1000
OTHER
1070
     0
1002
}
1002
{
1000
REACTOR
1002
}
1001
GENIUS_GENOBJ-N-FIL_13
1002
{
1000
OWNER
1000
GEN
1002
}
  0
LINE
  5
4331
  8
240
  6
CONTINUOUS
 10
26.99999999999978
 20
29.714526282777211
 30
0.0
 11
26.999999999999769
 21
31.50000000000038
 31
0.0
  0
LINE
  5
4339
  8
241
  6
CONTINUOUS
 10
26.99999999999989
 20
-29.714526282777019
 30
0.0
 11
26.99999999999978
 21
29.714526282777211
 31
0.0
  0
LINE
  5
433A
  8
243
  6
HIDDEN2
 10
33.20009637640684
 20
-9.5250000000000359
 30
0.0
 11
76.200096376406378
 21
-9.5250000000001211
 31
0.0
  0
INSERT
  5
43FF
  8
250
  6
CONTINUOUS
  2
_OPEN
 10
34.600096376410818
 20
27.89253783745858
 30
0.0
 41
1.999999999999996
 42
1.999999999999996
 43
1.999999999999996
 50
269.99999999999977
1001
ACAD
1000
DSTYLE
1002
{
1070
    41
1040
2.0
1070
   140
1040
2.799999999999998
1002
}
  0
POLYLINE
  5
4400
  8
250
  6
CONTINUOUS
 66
     1
 10
0.0
 20
0.0
 30
0.0
1001
ACAD
1000
DSTYLE
1002
{
1070
    41
1040
2.0
1070
   140
1040
2.799999999999998
1002
}
  0
VERTEX
  5
45FF
  8
250
  6
CONTINUOUS
 10
34.600096376410839
 20
29.89253783745853
 30
0.0
  0
VERTEX
  5
4600
  8
250
  6
CONTINUOUS
 10
34.600096376410882
 20
35.881836624511287
 30
0.0
  0
SEQEND
  5
4601
  8
250
  6
CONTINUOUS
  0
TEXT
  5
4401
  8
250
  6
CONTINUOUS
 10
30.033202733348858
 20
37.055163606476732
 30
0.0
 40
3.0
  1
Screw
  7
YOKO
 11
30.033202733348858
 21
37.055163606476732
 31
0.0
 73
     1
  0
LINE
  5
44BE
  8
250
  6
CONTINUOUS
 10
4.0000963764080382
 20
9.8999999999998671
 30
0.0
 11
4.0000963764080391
 21
43.0
 31
0.0
  0
LINE
  5
44BF
  8
250
  6
CONTINUOUS
 10
76.200096376406179
 20
19.34553060519854
 30
0.0
 11
76.200096376406179
 21
43.0
 31
0.0
  0
LINE
  5
44C0
  8
250
  6
CONTINUOUS
 10
6.2300963764080404
 20
42.0
 30
0.0
 11
73.970096376406175
 21
42.0
 31
0.0
  0
LINE
  5
44C4
  8
250
  6
CONTINUOUS
 10
-0.0000000000000568
 20
22.725000000000001
 30
0.0
 11
-0.0000000000000551
 21
50.0
 31
0.0
  0
LINE
  5
44C5
  8
250
  6
CONTINUOUS
 10
76.200096376406179
 20
19.34553060519854
 30
0.0
 11
76.200096376406179
 21
50.0
 31
0.0
  0
LINE
  5
44C6
  8
250
  6
CONTINUOUS
 10
2.229999999999944
 20
49.0
 30
0.0
 11
73.970096376406175
 21
49.0
 31
0.0
  0
LINE
  5
44CA
  8
250
  6
CONTINUOUS
 10
76.700096376406393
 20
9.5250000000000661
 30
0.0
 11
92.074625196379188
 21
9.5250000000000643
 31
0.0
  0
LINE
  5
44CB
  8
250
  6
CONTINUOUS
 10
76.700096376406805
 20
-9.5250000000001211
 30
0.0
 11
92.074625196379188
 21
-9.5250000000001247
 31
0.0
  0
LINE
  5
44CC
  8
250
  6
CONTINUOUS
 10
91.074625196379202
 20
7.2950000000000639
 30
0.0
 11
91.074625196379202
 21
-7.2950000000001234
 31
0.0
  0
LINE
  5
44D0
  8
250
  6
CONTINUOUS
 10
60.335276610108536
 20
21.000000000000259
 30
0.0
 11
99.0
 21
21.000000000000249
 31
0.0
  0
LINE
  5
44D1
  8
250
  6
CONTINUOUS
 10
60.345108129529791
 20
-21.000000000000281
 30
0.0
 11
99.0
 21
-21.000000000000291
 31
0.0
  0
LINE
  5
44D2
  8
250
  6
CONTINUOUS
 10
98.0
 20
18.770000000000248
 30
0.0
 11
98.0
 21
-18.770000000000291
 31
0.0
  0
TEXT
  5
44D6
  8
250
  6
CONTINUOUS
 10
90.074625196379174
 20
-5.9333333333333469
 30
0.0
 40
2.7999999999999989
  1
\U+2205.750
 50
90.0
  0
LINE
  5
44D7
  8
250
  6
CONTINUOUS
 10
91.446291863045872
 20
-7.2950000000001243
 30
0.0
 11
91.074625196379202
 21
-9.5250000000001247
 31
0.0
  0
LINE
  5
44D8
  8
250
  6
CONTINUOUS
 10
90.702958529712546
 20
-7.2950000000001243
 30
0.0
 11
91.074625196379202
 21
-9.5250000000001247
 31
0.0
  0
LINE
  5
44D9
  8
250
  6
CONTINUOUS
 10
91.074625196379202
 20
-9.5250000000001247
 30
0.0
 11
91.074625196379202
 21
-7.2950000000001243
 31
0.0
  0
LINE
  5
44DA
  8
250
  6
CONTINUOUS
 10
90.702958529712546
 20
7.295000000000063
 30
0.0
 11
91.074625196379202
 21
9.5250000000000643
 31
0.0
  0
LINE
  5
44DB
  8
250
  6
CONTINUOUS
 10
91.446291863045872
 20
7.295000000000063
 30
0.0
 11
91.074625196379202
 21
9.5250000000000643
 31
0.0
  0
LINE
  5
44DC
  8
250
  6
CONTINUOUS
 10
91.074625196379202
 20
9.5250000000000643
 30
0.0
 11
91.074625196379202
 21
7.295000000000063
 31
0.0
  0
TEXT
  5
44DD
  8
250
  6
CONTINUOUS
 10
96.999999999999986
 20
-7.3333333333333393
 30
0.0
 40
2.7999999999999989
  1
\U+22051.654
 50
90.0
  0
LINE
  5
44DE
  8
250
  6
CONTINUOUS
 10
98.371666666666684
 20
-18.770000000000291
 30
0.0
 11
98.0
 21
-21.000000000000291
 31
0.0
  0
LINE
  5
44DF
  8
250
  6
CONTINUOUS
 10
97.62833333333333
 20
-18.770000000000291
 30
0.0
 11
98.0
 21
-21.000000000000291
 31
0.0
  0
LINE
  5
44E0
  8
250
  6
CONTINUOUS
 10
98.0
 20
-21.000000000000291
 30
0.0
 11
98.0
 21
-18.770000000000291
 31
0.0
  0
LINE
  5
44E1
  8
250
  6
CONTINUOUS
 10
97.62833333333333
 20
18.770000000000248
 30
0.0
 11
98.0
 21
21.000000000000249
 31
0.0
  0
LINE
  5
44E2
  8
250
  6
CONTINUOUS
 10
98.371666666666684
 20
18.770000000000248
 30
0.0
 11
98.0
 21
21.000000000000249
 31
0.0
  0
LINE
  5
44E3
  8
250
  6
CONTINUOUS
 10
98.0
 20
21.000000000000249
 30
0.0
 11
98.0
 21
18.770000000000248
 31
0.0
  0
TEXT
  5
44E4
  8
250
  6
CONTINUOUS
 10
30.41887242612027
 20
43.0
 30
0.0
 40
2.7999999999999989
  1
(max.2.84)
  0
LINE
  5
44E5
  8
250
  6
CONTINUOUS
 10
73.970096376406175
 20
42.371666666666663
 30
0.0
 11
76.200096376406179
 21
42.0
 31
0.0
  0
LINE
  5
44E6
  8
250
  6
CONTINUOUS
 10
73.970096376406175
 20
41.62833333333333
 30
0.0
 11
76.200096376406179
 21
42.0
 31
0.0
  0
LINE
  5
44E7
  8
250
  6
CONTINUOUS
 10
76.200096376406179
 20
42.0
 30
0.0
 11
73.970096376406175
 21
42.0
 31
0.0
  0
LINE
  5
44E8
  8
250
  6
CONTINUOUS
 10
6.2300963764080404
 20
41.62833333333333
 30
0.0
 11
4.0000963764080391
 21
42.0
 31
0.0
  0
LINE
  5
44E9
  8
250
  6
CONTINUOUS
 10
6.2300963764080404
 20
42.371666666666663
 30
0.0
 11
4.0000963764080391
 21
42.0
 31
0.0
  0
LINE
  5
44EA
  8
250
  6
CONTINUOUS
 10
4.0000963764080391
 20
42.0
 30
0.0
 11
6.2300963764080404
 21
42.0
 31
0.0
  0
TEXT
  5
44EB
  8
250
  6
CONTINUOUS
 10
36.766714854869733
 20
50.0
 30
0.0
 40
2.7999999999999989
  1
3.00
  0
LINE
  5
44EC
  8
250
  6
CONTINUOUS
 10
73.970096376406175
 20
49.37166666666667
 30
0.0
 11
76.200096376406179
 21
49.0
 31
0.0
  0
LINE
  5
44ED
  8
250
  6
CONTINUOUS
 10
73.970096376406175
 20
48.62833333333333
 30
0.0
 11
76.200096376406179
 21
49.0
 31
0.0
  0
LINE
  5
44EE
  8
250
  6
CONTINUOUS
 10
76.200096376406179
 20
49.0
 30
0.0
 11
73.970096376406175
 21
49.0
 31
0.0
  0
LINE
  5
44EF
  8
250
  6
CONTINUOUS
 10
2.229999999999944
 20
48.62833333333333
 30
0.0
 11
-0.0000000000000552
 21
49.0
 31
0.0
  0
LINE
  5
44F0
  8
250
  6
CONTINUOUS
 10
2.229999999999944
 20
49.37166666666667
 30
0.0
 11
-0.0000000000000552
 21
49.0
 31
0.0
  0
LINE
  5
44F1
  8
250
  6
CONTINUOUS
 10
-0.0000000000000552
 20
49.0
 30
0.0
 11
2.229999999999944
 21
49.0
 31
0.0
  0
TEXT
  5
44FB
  8
241
  6
CONTINUOUS
 10
-70.0
 20
63.000000000000043
 30
0.0
 40
5.0
  1
BBT40-HDC.750-3
  7
YOKO
 11
-70.0
 21
63.000000000000043
 31
0.0
 73
     1
  0
VIEWPORT
  5
22
 67
     1
  8
0
 10
261.51769911504419
 20
148.5
 30
0.0
 40
523.0353982300885
 41
297.0
 68
     1
 69
     1
1001
ACAD
1000
MVIEW
1002
{
1070
    16
1010
0.0
1020
0.0
1030
0.0
1010
0.0
1020
0.0
1030
1.0
1040
0.0
1040
297.0
1040
261.51769911504419
1040
148.5
1040
50.0
1040
0.0
1040
0.0
1070
     0
1070
   100
1070
     1
1070
     1
1070
     0
1070
     0
1070
     0
1070
     0
1040
0.0
1040
0.0
1040
0.0
1040
1.0
1040
1.0
1040
10.0
1040
10.0
1070
     0
1002
{
1002
}
1002
}
1001
GENIUS_GENODEF_13
1002
{
1000
HIER
1070
     0
1002
}
1002
{
1000
MANEDIT
1070
     0
1002
}
1002
{
1000
NOSEL
1070
     0
1002
}
1002
{
1000
BEHIND
1070
     0
1002
}
1002
{
1000
OTHER
1070
     0
1002
}
1002
{
1000
REACTOR
1002
}
1001
GENIUS_GENOBJ-N-SDF_13
1002
{
1000
OWNER
1000
GEN
1002
}
1001
GENIUS_GENSCREG_15
1000
PF
1040
1.0
1000
DF
1040
1.0
1000
MIN
1011
0.0
1021
0.0
1031
0.0
1021
0.0
1031
0.0
1000
MAX
1011
523.0353982300885
1021
0.0
1031
0.0
1021
297.0
1031
0.0
1000
FLAGS
1070
     4
  0
ENDSEC
  0
EOF
