ISO-10303-21;
HEADER;
FILE_DESCRIPTION((''),'1');
FILE_NAME('V:/90_\X2\53D65F9730C730FC30BF\X0\/00_\X2\6DE18DEF30C730FC30BF\X0\/ALL/BBT-BKUS\X2\FF76FF80FF9BFF78FF9E752852A05DE556F3\X0\201801/BBT40-HDC/BBT40-HDC.500-2.5.stp','2018-02-07T05:00:35',(''),(''),'Spatial Interop R21 SP3','Kubotek KeyCreator 2011 V10.0.2 (22737)',' ');
FILE_SCHEMA(('automotive_design'));
ENDSEC;
DATA;
#1=MECHANICAL_DESIGN_GEOMETRIC_PRESENTATION_REPRESENTATION(' ',(#10,#11,#12,#13,#14,#15,#16,#17,#18,#19,#20,#21,#22,#23,#24,#25,#26,#27,#28,#29,#30,#31,#32,#33,#34,#35,#36,#37,#38,#39),#6);
#2=PRODUCT_DEFINITION_CONTEXT('',#40,'design');
#3=APPLICATION_PROTOCOL_DEFINITION('INTERNATIONAL STANDARD','automotive_design',1994,#40);
#4=PRODUCT_CATEGORY_RELATIONSHIP('NONE','NONE',#41,#42);
#5=SHAPE_DEFINITION_REPRESENTATION(#43,#44);
#6= (GEOMETRIC_REPRESENTATION_CONTEXT(3)GLOBAL_UNCERTAINTY_ASSIGNED_CONTEXT((#47))GLOBAL_UNIT_ASSIGNED_CONTEXT((#49,#50,#51))REPRESENTATION_CONTEXT('NONE','WORKSPACE'));
#10=STYLED_ITEM('',(#53),#54);
#11=STYLED_ITEM('',(#55),#56);
#12=STYLED_ITEM('',(#57,#58),#59);
#13=STYLED_ITEM('',(#60,#61),#62);
#14=STYLED_ITEM('',(#63),#64);
#15=STYLED_ITEM('',(#65,#66),#67);
#16=STYLED_ITEM('',(#68),#69);
#17=STYLED_ITEM('',(#70,#71),#72);
#18=STYLED_ITEM('',(#73),#74);
#19=STYLED_ITEM('',(#75),#76);
#20=STYLED_ITEM('',(#77,#78),#79);
#21=STYLED_ITEM('',(#80,#81),#82);
#22=STYLED_ITEM('',(#83),#84);
#23=STYLED_ITEM('',(#85,#86),#87);
#24=STYLED_ITEM('',(#88),#89);
#25=STYLED_ITEM('',(#90,#91),#92);
#26=STYLED_ITEM('',(#93),#94);
#27=STYLED_ITEM('',(#95,#96),#97);
#28=STYLED_ITEM('',(#98),#99);
#29=STYLED_ITEM('',(#100),#101);
#30=STYLED_ITEM('',(#102,#103),#104);
#31=STYLED_ITEM('',(#105,#106),#107);
#32=STYLED_ITEM('',(#108,#109),#110);
#33=STYLED_ITEM('',(#111,#112),#113);
#34=STYLED_ITEM('',(#114),#115);
#35=STYLED_ITEM('',(#116,#117),#118);
#36=STYLED_ITEM('',(#119),#120);
#37=STYLED_ITEM('',(#121,#122),#123);
#38=STYLED_ITEM('',(#124),#125);
#39=STYLED_ITEM('',(#126,#127),#128);
#40=APPLICATION_CONTEXT(' ');
#41=PRODUCT_CATEGORY('part','NONE');
#42=PRODUCT_RELATED_PRODUCT_CATEGORY('detail',' ',(#129));
#43=PRODUCT_DEFINITION_SHAPE('NONE','NONE',#130);
#44=ADVANCED_BREP_SHAPE_REPRESENTATION('Unnamed[1]',(#97,#131),#6);
#47=UNCERTAINTY_MEASURE_WITH_UNIT(LENGTH_MEASURE(1.0E-006),#49,'','');
#49= (CONVERSION_BASED_UNIT('MILLIMETRE',#134)LENGTH_UNIT()NAMED_UNIT(#137));
#50= (NAMED_UNIT(#139)PLANE_ANGLE_UNIT()SI_UNIT($,.RADIAN.));
#51= (NAMED_UNIT(#139)SOLID_ANGLE_UNIT()SI_UNIT($,.STERADIAN.));
#53=PRESENTATION_STYLE_ASSIGNMENT((#145));
#54=EDGE_CURVE('Unnamed[1]',#146,#146,#147,.T.);
#55=PRESENTATION_STYLE_ASSIGNMENT((#148));
#56=EDGE_CURVE('Unnamed[1]',#149,#149,#150,.T.);
#57=PRESENTATION_STYLE_ASSIGNMENT((#151));
#58=PRESENTATION_STYLE_ASSIGNMENT((#152));
#59=ADVANCED_FACE('Unnamed[1]',(#153,#154),#155,.T.);
#60=PRESENTATION_STYLE_ASSIGNMENT((#156));
#61=PRESENTATION_STYLE_ASSIGNMENT((#157));
#62=ADVANCED_FACE('Unnamed[1]',(#158,#159),#160,.T.);
#63=PRESENTATION_STYLE_ASSIGNMENT((#161));
#64=EDGE_CURVE('Unnamed[1]',#162,#162,#163,.T.);
#65=PRESENTATION_STYLE_ASSIGNMENT((#164));
#66=PRESENTATION_STYLE_ASSIGNMENT((#165));
#67=ADVANCED_FACE('Unnamed[1]',(#166,#167),#168,.T.);
#68=PRESENTATION_STYLE_ASSIGNMENT((#169));
#69=EDGE_CURVE('Unnamed[1]',#170,#170,#171,.T.);
#70=PRESENTATION_STYLE_ASSIGNMENT((#172));
#71=PRESENTATION_STYLE_ASSIGNMENT((#173));
#72=ADVANCED_FACE('Unnamed[1]',(#174),#175,.T.);
#73=PRESENTATION_STYLE_ASSIGNMENT((#176));
#74=EDGE_CURVE('Unnamed[1]',#177,#177,#178,.T.);
#75=PRESENTATION_STYLE_ASSIGNMENT((#179));
#76=EDGE_CURVE('Unnamed[1]',#180,#180,#181,.T.);
#77=PRESENTATION_STYLE_ASSIGNMENT((#182));
#78=PRESENTATION_STYLE_ASSIGNMENT((#183));
#79=ADVANCED_FACE('Unnamed[1]',(#184,#185),#186,.T.);
#80=PRESENTATION_STYLE_ASSIGNMENT((#187));
#81=PRESENTATION_STYLE_ASSIGNMENT((#188));
#82=ADVANCED_FACE('Unnamed[1]',(#189,#190),#191,.T.);
#83=PRESENTATION_STYLE_ASSIGNMENT((#192));
#84=EDGE_CURVE('Unnamed[1]',#193,#193,#194,.T.);
#85=PRESENTATION_STYLE_ASSIGNMENT((#195));
#86=PRESENTATION_STYLE_ASSIGNMENT((#196));
#87=ADVANCED_FACE('Unnamed[1]',(#197),#198,.T.);
#88=PRESENTATION_STYLE_ASSIGNMENT((#199));
#89=EDGE_CURVE('Unnamed[1]',#200,#200,#201,.T.);
#90=PRESENTATION_STYLE_ASSIGNMENT((#202));
#91=PRESENTATION_STYLE_ASSIGNMENT((#203));
#92=ADVANCED_FACE('Unnamed[1]',(#204,#205),#206,.T.);
#93=PRESENTATION_STYLE_ASSIGNMENT((#207));
#94=EDGE_CURVE('Unnamed[1]',#208,#208,#209,.T.);
#95=PRESENTATION_STYLE_ASSIGNMENT((#210));
#96=PRESENTATION_STYLE_ASSIGNMENT((#211));
#97=MANIFOLD_SOLID_BREP('Unnamed[1]',#212);
#98=PRESENTATION_STYLE_ASSIGNMENT((#213));
#99=EDGE_CURVE('Unnamed[1]',#214,#214,#215,.T.);
#100=PRESENTATION_STYLE_ASSIGNMENT((#216));
#101=EDGE_CURVE('Unnamed[1]',#217,#217,#218,.T.);
#102=PRESENTATION_STYLE_ASSIGNMENT((#219));
#103=PRESENTATION_STYLE_ASSIGNMENT((#220));
#104=ADVANCED_FACE('Unnamed[1]',(#221,#222),#223,.T.);
#105=PRESENTATION_STYLE_ASSIGNMENT((#224));
#106=PRESENTATION_STYLE_ASSIGNMENT((#225));
#107=ADVANCED_FACE('Unnamed[1]',(#226,#227),#228,.T.);
#108=PRESENTATION_STYLE_ASSIGNMENT((#229));
#109=PRESENTATION_STYLE_ASSIGNMENT((#230));
#110=ADVANCED_FACE('Unnamed[1]',(#231,#232),#233,.T.);
#111=PRESENTATION_STYLE_ASSIGNMENT((#234));
#112=PRESENTATION_STYLE_ASSIGNMENT((#235));
#113=ADVANCED_FACE('Unnamed[1]',(#236,#237),#238,.T.);
#114=PRESENTATION_STYLE_ASSIGNMENT((#239));
#115=EDGE_CURVE('Unnamed[1]',#240,#240,#241,.T.);
#116=PRESENTATION_STYLE_ASSIGNMENT((#242));
#117=PRESENTATION_STYLE_ASSIGNMENT((#243));
#118=ADVANCED_FACE('Unnamed[1]',(#244,#245),#246,.T.);
#119=PRESENTATION_STYLE_ASSIGNMENT((#247));
#120=EDGE_CURVE('Unnamed[1]',#248,#248,#249,.T.);
#121=PRESENTATION_STYLE_ASSIGNMENT((#250));
#122=PRESENTATION_STYLE_ASSIGNMENT((#251));
#123=ADVANCED_FACE('Unnamed[1]',(#252,#253),#254,.T.);
#124=PRESENTATION_STYLE_ASSIGNMENT((#255));
#125=EDGE_CURVE('Unnamed[1]',#256,#256,#257,.T.);
#126=PRESENTATION_STYLE_ASSIGNMENT((#258));
#127=PRESENTATION_STYLE_ASSIGNMENT((#259));
#128=ADVANCED_FACE('Unnamed[1]',(#260,#261),#262,.T.);
#129=PRODUCT('Unnamed[1]','Unnamed[1]','PART-Unnamed[1]-DESC',(#263));
#130=PRODUCT_DEFINITION('NONE','NONE',#264,#2);
#131=AXIS2_PLACEMENT_3D('',#265,#266,#267);
#134=LENGTH_MEASURE_WITH_UNIT(LENGTH_MEASURE(1.0),#268);
#137=DIMENSIONAL_EXPONENTS(1.0,0.0,0.0,0.0,0.0,0.0,0.0);
#139=DIMENSIONAL_EXPONENTS(0.0,0.0,0.0,0.0,0.0,0.0,0.0);
#145=CURVE_STYLE('',#269,POSITIVE_LENGTH_MEASURE(1000.0),#270);
#146=VERTEX_POINT('',#271);
#147=CIRCLE('',#272,22.225);
#148=CURVE_STYLE('',#273,POSITIVE_LENGTH_MEASURE(1000.0),#274);
#149=VERTEX_POINT('',#275);
#150=CIRCLE('',#276,26.5);
#151=SURFACE_STYLE_USAGE(.BOTH.,#277);
#152=CURVE_STYLE('',#278,POSITIVE_LENGTH_MEASURE(1000.0),#279);
#153=FACE_BOUND('',#280,.T.);
#154=FACE_BOUND('',#281,.T.);
#155=CYLINDRICAL_SURFACE('',#282,22.225);
#156=SURFACE_STYLE_USAGE(.BOTH.,#283);
#157=CURVE_STYLE('',#284,POSITIVE_LENGTH_MEASURE(1000.0),#285);
#158=FACE_BOUND('',#286,.T.);
#159=FACE_BOUND('',#287,.T.);
#160=CONICAL_SURFACE('',#288,26.1261195155513,0.842867621949263);
#161=CURVE_STYLE('',#289,POSITIVE_LENGTH_MEASURE(1000.0),#290);
#162=VERTEX_POINT('',#291);
#163=CIRCLE('',#292,16.5611429494864);
#164=SURFACE_STYLE_USAGE(.BOTH.,#293);
#165=CURVE_STYLE('',#294,POSITIVE_LENGTH_MEASURE(1000.0),#295);
#166=FACE_BOUND('',#296,.T.);
#167=FACE_BOUND('',#297,.T.);
#168=CONICAL_SURFACE('',#298,15.4532541524634,0.130899693899551);
#169=CURVE_STYLE('',#299,POSITIVE_LENGTH_MEASURE(1000.0),#300);
#170=VERTEX_POINT('',#301);
#171=CIRCLE('',#302,22.4999999999999);
#172=SURFACE_STYLE_USAGE(.BOTH.,#303);
#173=CURVE_STYLE('',#304,POSITIVE_LENGTH_MEASURE(1000.0),#305);
#174=FACE_OUTER_BOUND('',#306,.T.);
#175=PLANE('',#307);
#176=CURVE_STYLE('',#308,POSITIVE_LENGTH_MEASURE(1000.0),#309);
#177=VERTEX_POINT('',#310);
#178=CIRCLE('',#311,22.4999999999999);
#179=CURVE_STYLE('',#312,POSITIVE_LENGTH_MEASURE(1000.0),#313);
#180=VERTEX_POINT('',#314);
#181=CIRCLE('',#315,29.7522390311028);
#182=SURFACE_STYLE_USAGE(.BOTH.,#316);
#183=CURVE_STYLE('',#317,POSITIVE_LENGTH_MEASURE(1000.0),#318);
#184=FACE_BOUND('',#319,.T.);
#185=FACE_BOUND('',#320,.T.);
#186=CONICAL_SURFACE('',#321,17.4562500000001,0.144812498238936);
#187=SURFACE_STYLE_USAGE(.BOTH.,#322);
#188=CURVE_STYLE('',#323,POSITIVE_LENGTH_MEASURE(1000.0),#324);
#189=FACE_BOUND('',#325,.T.);
#190=FACE_BOUND('',#326,.T.);
#191=CONICAL_SURFACE('',#327,19.5305714747431,1.12070032043669);
#192=CURVE_STYLE('',#328,POSITIVE_LENGTH_MEASURE(1000.0),#329);
#193=VERTEX_POINT('',#330);
#194=CIRCLE('',#331,22.225);
#195=SURFACE_STYLE_USAGE(.BOTH.,#332);
#196=CURVE_STYLE('',#333,POSITIVE_LENGTH_MEASURE(1000.0),#334);
#197=FACE_OUTER_BOUND('',#335,.T.);
#198=PLANE('',#336);
#199=CURVE_STYLE('',#337,POSITIVE_LENGTH_MEASURE(1000.0),#338);
#200=VERTEX_POINT('',#339);
#201=CIRCLE('',#340,31.5000000000004);
#202=SURFACE_STYLE_USAGE(.BOTH.,#341);
#203=CURVE_STYLE('',#342,POSITIVE_LENGTH_MEASURE(1000.0),#343);
#204=FACE_OUTER_BOUND('',#344,.T.);
#205=FACE_BOUND('',#345,.T.);
#206=PLANE('',#346);
#207=CURVE_STYLE('',#347,POSITIVE_LENGTH_MEASURE(1000.0),#348);
#208=VERTEX_POINT('',#349);
#209=CIRCLE('',#350,12.6875000000001);
#210=SURFACE_STYLE_USAGE(.BOTH.,#351);
#211=CURVE_STYLE('',#352,POSITIVE_LENGTH_MEASURE(1000.0),#353);
#212=CLOSED_SHELL('',(#72,#79,#59,#92,#104,#107,#113,#128,#118,#123,#62,#110,#82,#67,#87));
#213=CURVE_STYLE('',#354,POSITIVE_LENGTH_MEASURE(1000.0),#355);
#214=VERTEX_POINT('',#356);
#215=CIRCLE('',#357,14.3453653554405);
#216=CURVE_STYLE('',#358,POSITIVE_LENGTH_MEASURE(1000.0),#359);
#217=VERTEX_POINT('',#360);
#218=CIRCLE('',#361,26.4999999999994);
#219=SURFACE_STYLE_USAGE(.BOTH.,#362);
#220=CURVE_STYLE('',#363,POSITIVE_LENGTH_MEASURE(1000.0),#364);
#221=FACE_BOUND('',#365,.T.);
#222=FACE_BOUND('',#366,.T.);
#223=CYLINDRICAL_SURFACE('',#367,31.5);
#224=SURFACE_STYLE_USAGE(.BOTH.,#368);
#225=CURVE_STYLE('',#369,POSITIVE_LENGTH_MEASURE(1000.0),#370);
#226=FACE_BOUND('',#371,.T.);
#227=FACE_BOUND('',#372,.T.);
#228=CONICAL_SURFACE('',#373,28.9999999999999,1.04719755119657);
#229=SURFACE_STYLE_USAGE(.BOTH.,#374);
#230=CURVE_STYLE('',#375,POSITIVE_LENGTH_MEASURE(1000.0),#376);
#231=FACE_BOUND('',#377,.T.);
#232=FACE_BOUND('',#378,.T.);
#233=CYLINDRICAL_SURFACE('',#379,22.4999999999999);
#234=SURFACE_STYLE_USAGE(.BOTH.,#380);
#235=CURVE_STYLE('',#381,POSITIVE_LENGTH_MEASURE(1000.0),#382);
#236=FACE_BOUND('',#383,.T.);
#237=FACE_BOUND('',#384,.T.);
#238=CYLINDRICAL_SURFACE('',#385,26.4999999999997);
#239=CURVE_STYLE('',#386,POSITIVE_LENGTH_MEASURE(1000.0),#387);
#240=VERTEX_POINT('',#388);
#241=CIRCLE('',#389,31.5000000000007);
#242=SURFACE_STYLE_USAGE(.BOTH.,#390);
#243=CURVE_STYLE('',#391,POSITIVE_LENGTH_MEASURE(1000.0),#392);
#244=FACE_BOUND('',#393,.T.);
#245=FACE_BOUND('',#394,.T.);
#246=CYLINDRICAL_SURFACE('',#395,31.5000000000005);
#247=CURVE_STYLE('',#396,POSITIVE_LENGTH_MEASURE(1000.0),#397);
#248=VERTEX_POINT('',#398);
#249=CIRCLE('',#399,31.5000000000004);
#250=SURFACE_STYLE_USAGE(.BOTH.,#400);
#251=CURVE_STYLE('',#401,POSITIVE_LENGTH_MEASURE(1000.0),#402);
#252=FACE_BOUND('',#403,.T.);
#253=FACE_OUTER_BOUND('',#404,.T.);
#254=PLANE('',#405);
#255=CURVE_STYLE('',#406,POSITIVE_LENGTH_MEASURE(1000.0),#407);
#256=VERTEX_POINT('',#408);
#257=CIRCLE('',#409,31.4999999999997);
#258=SURFACE_STYLE_USAGE(.BOTH.,#410);
#259=CURVE_STYLE('',#411,POSITIVE_LENGTH_MEASURE(1000.0),#412);
#260=FACE_BOUND('',#413,.T.);
#261=FACE_BOUND('',#414,.T.);
#262=CONICAL_SURFACE('',#415,29.0000000000004,1.04719755119651);
#263=PRODUCT_CONTEXT('',#40,'mechanical');
#264=PRODUCT_DEFINITION_FORMATION_WITH_SPECIFIED_SOURCE(' ','NONE',#129,.NOT_KNOWN.);
#265=CARTESIAN_POINT('',(0.0,0.0,0.0));
#266=DIRECTION('',(0.0,0.0,1.0));
#267=DIRECTION('',(1.0,0.0,0.0));
#268= (NAMED_UNIT(#137)LENGTH_UNIT()SI_UNIT(.MILLI.,.METRE.));
#269=DRAUGHTING_PRE_DEFINED_CURVE_FONT('continuous');
#270=COLOUR_RGB('',0.0,1.0,0.0);
#271=CARTESIAN_POINT('',(1.71319921032766E-029,22.2250000000001,-2.8153873565375E-013));
#272=AXIS2_PLACEMENT_3D('',#417,#418,#419);
#273=DRAUGHTING_PRE_DEFINED_CURVE_FONT('continuous');
#274=COLOUR_RGB('',0.0,1.0,0.0);
#275=CARTESIAN_POINT('',(1.1479681728942E-015,26.5,-18.7477430013855));
#276=AXIS2_PLACEMENT_3D('',#420,#421,#422);
#277=SURFACE_SIDE_STYLE('',(#423));
#278=DRAUGHTING_PRE_DEFINED_CURVE_FONT('continuous');
#279=COLOUR_RGB('',0.0,1.0,0.0);
#280=EDGE_LOOP('',(#424));
#281=EDGE_LOOP('',(#425));
#282=AXIS2_PLACEMENT_3D('',#426,#427,#428);
#283=SURFACE_SIDE_STYLE('',(#429));
#284=DRAUGHTING_PRE_DEFINED_CURVE_FONT('continuous');
#285=COLOUR_RGB('',0.0,1.0,0.0);
#286=EDGE_LOOP('',(#430));
#287=EDGE_LOOP('',(#431));
#288=AXIS2_PLACEMENT_3D('',#432,#433,#434);
#289=DRAUGHTING_PRE_DEFINED_CURVE_FONT('continuous');
#290=COLOUR_RGB('',0.0,1.0,0.0);
#291=CARTESIAN_POINT('',(2.85768258107988E-015,16.5611429494864,-46.6694982270726));
#292=AXIS2_PLACEMENT_3D('',#435,#436,#437);
#293=SURFACE_SIDE_STYLE('',(#438));
#294=DRAUGHTING_PRE_DEFINED_CURVE_FONT('continuous');
#295=COLOUR_RGB('',0.0,1.0,0.0);
#296=EDGE_LOOP('',(#439));
#297=EDGE_LOOP('',(#440));
#298=AXIS2_PLACEMENT_3D('',#441,#442,#443);
#299=DRAUGHTING_PRE_DEFINED_CURVE_FONT('continuous');
#300=COLOUR_RGB('',0.0,1.0,0.0);
#301=CARTESIAN_POINT('',(2.68197649012865E-015,22.4999999999999,-43.7999999999338));
#302=AXIS2_PLACEMENT_3D('',#444,#445,#446);
#303=SURFACE_SIDE_STYLE('',(#447));
#304=DRAUGHTING_PRE_DEFINED_CURVE_FONT('continuous');
#305=COLOUR_RGB('',0.0,1.0,0.0);
#306=EDGE_LOOP('',(#448));
#307=AXIS2_PLACEMENT_3D('',#449,#450,#451);
#308=DRAUGHTING_PRE_DEFINED_CURVE_FONT('continuous');
#309=COLOUR_RGB('',0.0,1.0,0.0);
#310=CARTESIAN_POINT('',(2.04902721682139E-015,22.4999999999999,-33.4631539191219));
#311=AXIS2_PLACEMENT_3D('',#452,#453,#454);
#312=DRAUGHTING_PRE_DEFINED_CURVE_FONT('continuous');
#313=COLOUR_RGB('',0.0,1.0,0.0);
#314=CARTESIAN_POINT('',(1.65327317884891E-015,29.7522390311028,-26.9999999999998));
#315=AXIS2_PLACEMENT_3D('',#455,#456,#457);
#316=SURFACE_SIDE_STYLE('',(#458));
#317=DRAUGHTING_PRE_DEFINED_CURVE_FONT('continuous');
#318=COLOUR_RGB('',0.0,1.0,0.0);
#319=EDGE_LOOP('',(#459));
#320=EDGE_LOOP('',(#460));
#321=AXIS2_PLACEMENT_3D('',#461,#462,#463);
#322=SURFACE_SIDE_STYLE('',(#464));
#323=DRAUGHTING_PRE_DEFINED_CURVE_FONT('continuous');
#324=COLOUR_RGB('',0.0,1.0,0.0);
#325=EDGE_LOOP('',(#465));
#326=EDGE_LOOP('',(#466));
#327=AXIS2_PLACEMENT_3D('',#467,#468,#469);
#328=DRAUGHTING_PRE_DEFINED_CURVE_FONT('continuous');
#329=COLOUR_RGB('',0.0,1.0,0.0);
#330=CARTESIAN_POINT('',(6.12323399573622E-017,22.2250000000001,-0.999999999999912));
#331=AXIS2_PLACEMENT_3D('',#470,#471,#472);
#332=SURFACE_SIDE_STYLE('',(#473));
#333=DRAUGHTING_PRE_DEFINED_CURVE_FONT('continuous');
#334=COLOUR_RGB('',0.0,1.0,0.0);
#335=EDGE_LOOP('',(#474));
#336=AXIS2_PLACEMENT_3D('',#475,#476,#477);
#337=DRAUGHTING_PRE_DEFINED_CURVE_FONT('continuous');
#338=COLOUR_RGB('',0.0,1.0,0.0);
#339=CARTESIAN_POINT('',(1.65327317884891E-015,31.5000000000004,-26.9999999999998));
#340=AXIS2_PLACEMENT_3D('',#478,#479,#480);
#341=SURFACE_SIDE_STYLE('',(#481));
#342=DRAUGHTING_PRE_DEFINED_CURVE_FONT('continuous');
#343=COLOUR_RGB('',0.0,1.0,0.0);
#344=EDGE_LOOP('',(#482));
#345=EDGE_LOOP('',(#483));
#346=AXIS2_PLACEMENT_3D('',#484,#485,#486);
#347=DRAUGHTING_PRE_DEFINED_CURVE_FONT('continuous');
#348=COLOUR_RGB('',0.0,1.0,0.0);
#349=CARTESIAN_POINT('',(-4.00459503321185E-015,12.6875000000002,65.4000000000001));
#350=AXIS2_PLACEMENT_3D('',#487,#488,#489);
#351=SURFACE_SIDE_STYLE('',(#490));
#352=DRAUGHTING_PRE_DEFINED_CURVE_FONT('continuous');
#353=COLOUR_RGB('',0.0,1.0,0.0);
#354=DRAUGHTING_PRE_DEFINED_CURVE_FONT('continuous');
#355=COLOUR_RGB('',0.0,1.0,0.0);
#356=CARTESIAN_POINT('',(3.88825358728879E-015,14.3453653554405,-63.4999999999338));
#357=AXIS2_PLACEMENT_3D('',#491,#492,#493);
#358=DRAUGHTING_PRE_DEFINED_CURVE_FONT('continuous');
#359=COLOUR_RGB('',0.0,1.0,0.0);
#360=CARTESIAN_POINT('',(8.8494551369045E-016,26.4999999999995,-14.4522569986152));
#361=AXIS2_PLACEMENT_3D('',#494,#495,#496);
#362=SURFACE_SIDE_STYLE('',(#497));
#363=DRAUGHTING_PRE_DEFINED_CURVE_FONT('continuous');
#364=COLOUR_RGB('',0.0,1.0,0.0);
#365=EDGE_LOOP('',(#498));
#366=EDGE_LOOP('',(#499));
#367=AXIS2_PLACEMENT_3D('',#500,#501,#502);
#368=SURFACE_SIDE_STYLE('',(#503));
#369=DRAUGHTING_PRE_DEFINED_CURVE_FONT('continuous');
#370=COLOUR_RGB('',0.0,1.0,0.0);
#371=EDGE_LOOP('',(#504));
#372=EDGE_LOOP('',(#505));
#373=AXIS2_PLACEMENT_3D('',#506,#507,#508);
#374=SURFACE_SIDE_STYLE('',(#509));
#375=DRAUGHTING_PRE_DEFINED_CURVE_FONT('continuous');
#376=COLOUR_RGB('',0.0,1.0,0.0);
#377=EDGE_LOOP('',(#510));
#378=EDGE_LOOP('',(#511));
#379=AXIS2_PLACEMENT_3D('',#512,#513,#514);
#380=SURFACE_SIDE_STYLE('',(#515));
#381=DRAUGHTING_PRE_DEFINED_CURVE_FONT('continuous');
#382=COLOUR_RGB('',0.0,1.0,0.0);
#383=EDGE_LOOP('',(#516));
#384=EDGE_LOOP('',(#517));
#385=AXIS2_PLACEMENT_3D('',#518,#519,#520);
#386=DRAUGHTING_PRE_DEFINED_CURVE_FONT('continuous');
#387=COLOUR_RGB('',0.0,1.0,0.0);
#388=CARTESIAN_POINT('',(1.32473071268174E-015,31.5000000000007,-21.6344943473346));
#389=AXIS2_PLACEMENT_3D('',#521,#522,#523);
#390=SURFACE_SIDE_STYLE('',(#524));
#391=DRAUGHTING_PRE_DEFINED_CURVE_FONT('continuous');
#392=COLOUR_RGB('',0.0,1.0,0.0);
#393=EDGE_LOOP('',(#525));
#394=EDGE_LOOP('',(#526));
#395=AXIS2_PLACEMENT_3D('',#527,#528,#529);
#396=DRAUGHTING_PRE_DEFINED_CURVE_FONT('continuous');
#397=COLOUR_RGB('',0.0,1.0,0.0);
#398=CARTESIAN_POINT('',(7.08182973902924E-016,31.5000000000004,-11.5655056526664));
#399=AXIS2_PLACEMENT_3D('',#530,#531,#532);
#400=SURFACE_SIDE_STYLE('',(#533));
#401=DRAUGHTING_PRE_DEFINED_CURVE_FONT('continuous');
#402=COLOUR_RGB('',0.0,1.0,0.0);
#403=EDGE_LOOP('',(#534));
#404=EDGE_LOOP('',(#535));
#405=AXIS2_PLACEMENT_3D('',#536,#537,#538);
#406=DRAUGHTING_PRE_DEFINED_CURVE_FONT('continuous');
#407=COLOUR_RGB('',0.0,1.0,0.0);
#408=CARTESIAN_POINT('',(6.12323399573568E-017,31.4999999999997,-0.999999999999825));
#409=AXIS2_PLACEMENT_3D('',#539,#540,#541);
#410=SURFACE_SIDE_STYLE('',(#542));
#411=DRAUGHTING_PRE_DEFINED_CURVE_FONT('continuous');
#412=COLOUR_RGB('',0.0,1.0,0.0);
#413=EDGE_LOOP('',(#543));
#414=EDGE_LOOP('',(#544));
#415=AXIS2_PLACEMENT_3D('',#545,#546,#547);
#417=CARTESIAN_POINT('',(1.60980319096112E-029,2.7953554670293E-014,-2.62900812231237E-013));
#418=DIRECTION('',(6.12323399573677E-017,-7.41186605171188E-016,-1.0));
#419=DIRECTION('',(4.05574374489206E-032,1.0,-7.41186605171188E-016));
#420=CARTESIAN_POINT('',(1.1479681728942E-015,1.4057978680474E-014,-18.7477430013855));
#421=DIRECTION('',(6.12323399573677E-017,-7.41186605171231E-016,-1.0));
#422=DIRECTION('',(4.05574374489246E-032,1.0,-7.41186605171231E-016));
#423=SURFACE_STYLE_FILL_AREA(#548);
#424=ORIENTED_EDGE('',*,*,#84,.F.);
#425=ORIENTED_EDGE('',*,*,#54,.T.);
#426=CARTESIAN_POINT('',(3.06161699786886E-017,2.75829613677075E-014,-0.500000000000078));
#427=DIRECTION('',(6.12323399573677E-017,-7.41186605171188E-016,-1.0));
#428=DIRECTION('',(4.05574374489206E-032,1.0,-7.41186605171188E-016));
#429=SURFACE_STYLE_FILL_AREA(#549);
#430=ORIENTED_EDGE('',*,*,#74,.F.);
#431=ORIENTED_EDGE('',*,*,#76,.T.);
#432=CARTESIAN_POINT('',(1.85115019783515E-015,5.54631477466413E-015,-30.2315769595608));
#433=DIRECTION('',(-6.12323399573677E-017,7.41186605171182E-016,1.0));
#434=DIRECTION('',(4.05574374489199E-032,1.0,-7.41186605171182E-016));
#435=CARTESIAN_POINT('',(2.85768258107988E-015,-6.63725228567452E-015,-46.6694982270726));
#436=DIRECTION('',(6.12323399573676E-017,-7.41186605171204E-016,-1.0));
#437=DIRECTION('',(4.05574374489187E-032,1.0,-7.41186605171204E-016));
#438=SURFACE_STYLE_FILL_AREA(#550);
#439=ORIENTED_EDGE('',*,*,#99,.F.);
#440=ORIENTED_EDGE('',*,*,#64,.T.);
#441=CARTESIAN_POINT('',(3.37296808418433E-015,-1.2874523521852E-014,-55.0847491135032));
#442=DIRECTION('',(-6.12323399573676E-017,7.41186605171226E-016,1.0));
#443=DIRECTION('',(4.05574374489219E-032,1.0,-7.41186605171226E-016));
#444=CARTESIAN_POINT('',(2.68197649012865E-015,-4.5104186361567E-015,-43.7999999999338));
#445=DIRECTION('',(6.12323399573677E-017,-7.41186605171232E-016,-1.0));
#446=DIRECTION('',(4.05574374489233E-032,1.0,-7.41186605171232E-016));
#447=SURFACE_STYLE_FILL_AREA(#551);
#448=ORIENTED_EDGE('',*,*,#94,.F.);
#449=CARTESIAN_POINT('',(-4.00459503321185E-015,6.34375000000014,65.4000000000001));
#450=DIRECTION('',(-6.12323399573677E-017,9.97602686800683E-016,1.0));
#451=DIRECTION('',(-5.62583941297938E-032,-1.0,9.97602686800683E-016));
#452=CARTESIAN_POINT('',(2.04902721682139E-015,3.15111321865756E-015,-33.4631539191219));
#453=DIRECTION('',(6.12323399573677E-017,-7.41186605171232E-016,-1.0));
#454=DIRECTION('',(4.05574374489193E-032,1.0,-7.41186605171232E-016));
#455=CARTESIAN_POINT('',(1.65327317884891E-015,7.94151633067071E-015,-26.9999999999998));
#456=DIRECTION('',(6.12323399573677E-017,-7.41186605171199E-016,-1.0));
#457=DIRECTION('',(4.05574374489234E-032,1.0,-7.41186605171199E-016));
#458=SURFACE_STYLE_FILL_AREA(#552);
#459=ORIENTED_EDGE('',*,*,#54,.F.);
#460=ORIENTED_EDGE('',*,*,#94,.T.);
#461=CARTESIAN_POINT('',(-2.00229751660592E-015,5.21903566593916E-014,32.6999999999999));
#462=DIRECTION('',(6.12323399573677E-017,-7.41186605171224E-016,-1.0));
#463=DIRECTION('',(4.0557437448921E-032,1.0,-7.41186605171224E-016));
#464=SURFACE_STYLE_FILL_AREA(#553);
#465=ORIENTED_EDGE('',*,*,#64,.F.);
#466=ORIENTED_EDGE('',*,*,#69,.T.);
#467=CARTESIAN_POINT('',(2.76982953560426E-015,-5.57383546091561E-015,-45.2347491135032));
#468=DIRECTION('',(-6.12323399573677E-017,7.41186605171241E-016,1.0));
#469=DIRECTION('',(4.0557437448926E-032,1.0,-7.41186605171241E-016));
#470=CARTESIAN_POINT('',(6.12323399573611E-017,2.7212368065122E-014,-0.999999999999893));
#471=DIRECTION('',(6.12323399573677E-017,-7.41186605171188E-016,-1.0));
#472=DIRECTION('',(4.05574374489206E-032,1.0,-7.41186605171188E-016));
#473=SURFACE_STYLE_FILL_AREA(#554);
#474=ORIENTED_EDGE('',*,*,#99,.T.);
#475=CARTESIAN_POINT('',(3.88825358728879E-015,7.17268267772024,-63.4999999999337));
#476=DIRECTION('',(6.12323399573677E-017,-1.37462630299288E-014,-1.0));
#477=DIRECTION('',(8.36888698261229E-031,1.0,-1.37462630299288E-014));
#478=CARTESIAN_POINT('',(1.65327317884891E-015,7.94151633067071E-015,-26.9999999999997));
#479=DIRECTION('',(6.12323399573676E-017,-7.41186605171188E-016,-1.0));
#480=DIRECTION('',(4.05574374489169E-032,1.0,-7.41186605171188E-016));
#481=SURFACE_STYLE_FILL_AREA(#555);
#482=ORIENTED_EDGE('',*,*,#125,.F.);
#483=ORIENTED_EDGE('',*,*,#84,.T.);
#484=CARTESIAN_POINT('',(6.12323399573595E-017,26.8624999999999,-0.999999999999869));
#485=DIRECTION('',(-6.12323399573677E-017,-9.35138060429241E-015,1.0));
#486=DIRECTION('',(5.77434068963536E-031,-1.0,-9.35138060429241E-015));
#487=CARTESIAN_POINT('',(-4.00459503321185E-015,7.64271586484903E-014,65.4000000000001));
#488=DIRECTION('',(6.12323399573677E-017,-7.41186605171222E-016,-1.0));
#489=DIRECTION('',(4.05574374489252E-032,1.0,-7.41186605171222E-016));
#490=SURFACE_STYLE_FILL_AREA(#556);
#491=CARTESIAN_POINT('',(3.88825358728879E-015,-1.91117947580295E-014,-63.4999999999338));
#492=DIRECTION('',(6.12323399573677E-017,-7.41186605171195E-016,-1.0));
#493=DIRECTION('',(4.05574374489225E-032,1.0,-7.41186605171195E-016));
#494=CARTESIAN_POINT('',(8.84945513690449E-016,1.72417353684277E-014,-14.4522569986152));
#495=DIRECTION('',(6.12323399573677E-017,-7.41186605171186E-016,-1.0));
#496=DIRECTION('',(4.05574374489187E-032,1.0,-7.41186605171186E-016));
#497=SURFACE_STYLE_FILL_AREA(#557);
#498=ORIENTED_EDGE('',*,*,#120,.F.);
#499=ORIENTED_EDGE('',*,*,#125,.T.);
#500=CARTESIAN_POINT('',(3.84707656930139E-016,2.32968624318135E-014,-6.28275282633307));
#501=DIRECTION('',(6.12323399573677E-017,-7.41186605171196E-016,-1.0));
#502=DIRECTION('',(4.05574374489202E-032,1.0,-7.41186605171196E-016));
#503=SURFACE_STYLE_FILL_AREA(#558);
#504=ORIENTED_EDGE('',*,*,#101,.F.);
#505=ORIENTED_EDGE('',*,*,#120,.T.);
#506=CARTESIAN_POINT('',(7.96564243796686E-016,1.83115460834664E-014,-13.0088813256407));
#507=DIRECTION('',(-6.12323399573677E-017,7.41186605171215E-016,1.0));
#508=DIRECTION('',(4.05574374489208E-032,1.0,-7.41186605171215E-016));
#509=SURFACE_STYLE_FILL_AREA(#559);
#510=ORIENTED_EDGE('',*,*,#69,.F.);
#511=ORIENTED_EDGE('',*,*,#74,.T.);
#512=CARTESIAN_POINT('',(2.36550185347502E-015,-6.7965270874957E-016,-38.6315769595278));
#513=DIRECTION('',(6.12323399573677E-017,-7.41186605171232E-016,-1.0));
#514=DIRECTION('',(4.05574374489233E-032,1.0,-7.41186605171232E-016));
#515=SURFACE_STYLE_FILL_AREA(#560);
#516=ORIENTED_EDGE('',*,*,#56,.F.);
#517=ORIENTED_EDGE('',*,*,#101,.T.);
#518=CARTESIAN_POINT('',(1.01645684329232E-015,1.56498570244509E-014,-16.6000000000003));
#519=DIRECTION('',(6.12323399573677E-017,-7.41186605171239E-016,-1.0));
#520=DIRECTION('',(4.05574374489284E-032,1.0,-7.41186605171239E-016));
#521=CARTESIAN_POINT('',(1.32473071268174E-015,1.19183572503965E-014,-21.6344943473346));
#522=DIRECTION('',(6.12323399573677E-017,-7.41186605171231E-016,-1.0));
#523=DIRECTION('',(4.05574374489222E-032,1.0,-7.41186605171231E-016));
#524=SURFACE_STYLE_FILL_AREA(#561);
#525=ORIENTED_EDGE('',*,*,#89,.F.);
#526=ORIENTED_EDGE('',*,*,#115,.T.);
#527=CARTESIAN_POINT('',(1.48900194576533E-015,9.92993679053361E-015,-24.3172471736672));
#528=DIRECTION('',(6.12323399573677E-017,-7.41186605171184E-016,-1.0));
#529=DIRECTION('',(4.05574374489196E-032,1.0,-7.41186605171184E-016));
#530=CARTESIAN_POINT('',(7.08182973902922E-016,1.9381356798505E-014,-11.5655056526663));
#531=DIRECTION('',(6.12323399573677E-017,-7.41186605171188E-016,-1.0));
#532=DIRECTION('',(4.05574374489198E-032,1.0,-7.41186605171188E-016));
#533=SURFACE_STYLE_FILL_AREA(#562);
#534=ORIENTED_EDGE('',*,*,#76,.F.);
#535=ORIENTED_EDGE('',*,*,#89,.T.);
#536=CARTESIAN_POINT('',(1.65327317884891E-015,30.6261195155516,-26.9999999999998));
#537=DIRECTION('',(6.12323399573677E-017,6.22063326593386E-015,-1.0));
#538=DIRECTION('',(-3.85731083620541E-031,1.0,6.22063326593386E-015));
#539=CARTESIAN_POINT('',(6.12323399573555E-017,2.72123680651221E-014,-0.999999999999801));
#540=DIRECTION('',(6.12323399573677E-017,-7.41186605171204E-016,-1.0));
#541=DIRECTION('',(4.05574374489207E-032,1.0,-7.41186605171204E-016));
#542=SURFACE_STYLE_FILL_AREA(#563);
#543=ORIENTED_EDGE('',*,*,#115,.F.);
#544=ORIENTED_EDGE('',*,*,#56,.T.);
#545=CARTESIAN_POINT('',(1.23634944278797E-015,1.29881679654352E-014,-20.19111867436));
#546=DIRECTION('',(6.12323399573677E-017,-7.41186605171203E-016,-1.0));
#547=DIRECTION('',(4.05574374489202E-032,1.0,-7.41186605171203E-016));
#548=FILL_AREA_STYLE('',(#564));
#549=FILL_AREA_STYLE('',(#565));
#550=FILL_AREA_STYLE('',(#566));
#551=FILL_AREA_STYLE('',(#567));
#552=FILL_AREA_STYLE('',(#568));
#553=FILL_AREA_STYLE('',(#569));
#554=FILL_AREA_STYLE('',(#570));
#555=FILL_AREA_STYLE('',(#571));
#556=FILL_AREA_STYLE('',(#572));
#557=FILL_AREA_STYLE('',(#573));
#558=FILL_AREA_STYLE('',(#574));
#559=FILL_AREA_STYLE('',(#575));
#560=FILL_AREA_STYLE('',(#576));
#561=FILL_AREA_STYLE('',(#577));
#562=FILL_AREA_STYLE('',(#578));
#563=FILL_AREA_STYLE('',(#579));
#564=FILL_AREA_STYLE_COLOUR('',#580);
#565=FILL_AREA_STYLE_COLOUR('',#581);
#566=FILL_AREA_STYLE_COLOUR('',#582);
#567=FILL_AREA_STYLE_COLOUR('',#583);
#568=FILL_AREA_STYLE_COLOUR('',#584);
#569=FILL_AREA_STYLE_COLOUR('',#585);
#570=FILL_AREA_STYLE_COLOUR('',#586);
#571=FILL_AREA_STYLE_COLOUR('',#587);
#572=FILL_AREA_STYLE_COLOUR('',#588);
#573=FILL_AREA_STYLE_COLOUR('',#589);
#574=FILL_AREA_STYLE_COLOUR('',#590);
#575=FILL_AREA_STYLE_COLOUR('',#591);
#576=FILL_AREA_STYLE_COLOUR('',#592);
#577=FILL_AREA_STYLE_COLOUR('',#593);
#578=FILL_AREA_STYLE_COLOUR('',#594);
#579=FILL_AREA_STYLE_COLOUR('',#595);
#580=COLOUR_RGB('',0.0,1.0,0.0);
#581=COLOUR_RGB('',0.0,1.0,0.0);
#582=COLOUR_RGB('',0.0,1.0,0.0);
#583=COLOUR_RGB('',0.0,1.0,0.0);
#584=COLOUR_RGB('',0.0,1.0,0.0);
#585=COLOUR_RGB('',0.0,1.0,0.0);
#586=COLOUR_RGB('',0.0,1.0,0.0);
#587=COLOUR_RGB('',0.0,1.0,0.0);
#588=COLOUR_RGB('',0.0,1.0,0.0);
#589=COLOUR_RGB('',0.0,1.0,0.0);
#590=COLOUR_RGB('',0.0,1.0,0.0);
#591=COLOUR_RGB('',0.0,1.0,0.0);
#592=COLOUR_RGB('',0.0,1.0,0.0);
#593=COLOUR_RGB('',0.0,1.0,0.0);
#594=COLOUR_RGB('',0.0,1.0,0.0);
#595=COLOUR_RGB('',0.0,1.0,0.0);
ENDSEC;
END-ISO-10303-21;
