ISO-10303-21;
HEADER;
FILE_DESCRIPTION((''),'1');
FILE_NAME('W:/Translate/BBT40-HDC31-75.stp','2014-04-15T08:41:03',(''),(''),'Spatial Interop R18','Kubotek KeyCreator V8.5.1 (14335)',' ');
FILE_SCHEMA(('CONFIG_CONTROL_DESIGN'));
ENDSEC;
DATA;
#1=DESIGN_CONTEXT('',#27,'design');
#2=APPLICATION_PROTOCOL_DEFINITION('INTERNATIONAL STANDARD','config_control_design',1994,#27);
#3=PRODUCT_CATEGORY_RELATIONSHIP('NONE','NONE',#28,#29);
#4=DATE_AND_TIME(#30,#31);
#5=DATE_TIME_ROLE('creation_date');
#6=DATE_TIME_ROLE('classification_date');
#7=PERSON_AND_ORGANIZATION_ROLE('creator');
#8=PERSON_AND_ORGANIZATION_ROLE('design_supplier');
#9=PERSON_AND_ORGANIZATION_ROLE('classification_officer');
#10=PERSON_AND_ORGANIZATION_ROLE('design_owner');
#11=APPROVAL_PERSON_ORGANIZATION(#32,#33,#34);
#12=APPROVAL_DATE_TIME(#4,#33);
#13=CC_DESIGN_APPROVAL(#33,(#35,#36,#37));
#14=CC_DESIGN_DATE_AND_TIME_ASSIGNMENT(#4,#5,(#37));
#15=CC_DESIGN_DATE_AND_TIME_ASSIGNMENT(#4,#6,(#35));
#16=CC_DESIGN_PERSON_AND_ORGANIZATION_ASSIGNMENT(#32,#10,(#38));
#17=CC_DESIGN_PERSON_AND_ORGANIZATION_ASSIGNMENT(#32,#7,(#37));
#18=CC_DESIGN_PERSON_AND_ORGANIZATION_ASSIGNMENT(#32,#7,(#36));
#19=CC_DESIGN_PERSON_AND_ORGANIZATION_ASSIGNMENT(#32,#8,(#36));
#20=CC_DESIGN_SECURITY_CLASSIFICATION(#35,(#36));
#21=CC_DESIGN_PERSON_AND_ORGANIZATION_ASSIGNMENT(#32,#9,(#35));
#22=SHAPE_DEFINITION_REPRESENTATION(#39,#40);
#23= (GEOMETRIC_REPRESENTATION_CONTEXT(3)GLOBAL_UNCERTAINTY_ASSIGNED_CONTEXT((#43))GLOBAL_UNIT_ASSIGNED_CONTEXT((#45,#46,#47))REPRESENTATION_CONTEXT('NONE','WORKSPACE'));
#27=APPLICATION_CONTEXT('CONFIGURATION CONTROLLED 3D DESIGNS OF MECHANICAL PARTS AND ASSEMBLIES');
#28=PRODUCT_CATEGORY('part','NONE');
#29=PRODUCT_RELATED_PRODUCT_CATEGORY('detail',' ',(#38));
#30=CALENDAR_DATE(2014,15,3);
#31=LOCAL_TIME(17,41,3.0,#49);
#32=PERSON_AND_ORGANIZATION(#50,#51);
#33=APPROVAL(#52,'SOLID MODEL');
#34=APPROVAL_ROLE('APPROVED');
#35=SECURITY_CLASSIFICATION('','',#53);
#36=PRODUCT_DEFINITION_FORMATION_WITH_SPECIFIED_SOURCE(' ','NONE',#38,.NOT_KNOWN.);
#37=PRODUCT_DEFINITION('NONE','NONE',#36,#1);
#38=PRODUCT('1','1','PART-1-DESC',(#54));
#39=PRODUCT_DEFINITION_SHAPE('NONE','NONE',#37);
#40=ADVANCED_BREP_SHAPE_REPRESENTATION('1',(#55,#56),#23);
#43=UNCERTAINTY_MEASURE_WITH_UNIT(LENGTH_MEASURE(1.0E-006),#45,'','');
#45= (CONVERSION_BASED_UNIT('MILLIMETRE',#59)LENGTH_UNIT()NAMED_UNIT(#62));
#46= (NAMED_UNIT(#64)PLANE_ANGLE_UNIT()SI_UNIT($,.RADIAN.));
#47= (NAMED_UNIT(#64)SOLID_ANGLE_UNIT()SI_UNIT($,.STERADIAN.));
#49=COORDINATED_UNIVERSAL_TIME_OFFSET(9,0,.AHEAD.);
#50=PERSON('','UNSPECIFIED',$,$,$,$);
#51=ORGANIZATION('UNSPECIFIED','UNSPECIFIED','UNSPECIFIED');
#52=APPROVAL_STATUS('approved');
#53=SECURITY_CLASSIFICATION_LEVEL('unclassified');
#54=MECHANICAL_CONTEXT('',#27,'mechanical');
#55=MANIFOLD_SOLID_BREP('1',#70);
#56=AXIS2_PLACEMENT_3D('',#71,#72,#73);
#59=LENGTH_MEASURE_WITH_UNIT(LENGTH_MEASURE(1.0),#74);
#62=DIMENSIONAL_EXPONENTS(1.0,0.0,0.0,0.0,0.0,0.0,0.0);
#64=DIMENSIONAL_EXPONENTS(0.0,0.0,0.0,0.0,0.0,0.0,0.0);
#70=CLOSED_SHELL('',(#75,#76,#77,#78,#79,#80,#81,#82,#83,#84,#85,#86,#87,#88,#89,#90,#91));
#71=CARTESIAN_POINT('',(0.0,0.0,0.0));
#72=DIRECTION('',(0.0,0.0,1.0));
#73=DIRECTION('',(1.0,0.0,0.0));
#74= (NAMED_UNIT(#62)LENGTH_UNIT()SI_UNIT(.MILLI.,.METRE.));
#75=ADVANCED_FACE('',(#93),#94,.T.);
#76=ADVANCED_FACE('',(#95,#96),#97,.T.);
#77=ADVANCED_FACE('',(#98,#99),#100,.T.);
#78=ADVANCED_FACE('',(#101,#102),#103,.T.);
#79=ADVANCED_FACE('',(#104,#105),#106,.T.);
#80=ADVANCED_FACE('',(#107,#108),#109,.T.);
#81=ADVANCED_FACE('',(#110,#111),#112,.T.);
#82=ADVANCED_FACE('',(#113,#114),#115,.T.);
#83=ADVANCED_FACE('',(#116,#117),#118,.T.);
#84=ADVANCED_FACE('',(#119,#120),#121,.T.);
#85=ADVANCED_FACE('',(#122,#123),#124,.T.);
#86=ADVANCED_FACE('',(#125,#126),#127,.T.);
#87=ADVANCED_FACE('',(#128,#129),#130,.T.);
#88=ADVANCED_FACE('',(#131,#132),#133,.T.);
#89=ADVANCED_FACE('',(#134,#135),#136,.T.);
#90=ADVANCED_FACE('',(#137,#138),#139,.T.);
#91=ADVANCED_FACE('',(#140),#141,.T.);
#93=FACE_OUTER_BOUND('',#142,.T.);
#94=PLANE('',#143);
#95=FACE_BOUND('',#144,.T.);
#96=FACE_BOUND('',#145,.T.);
#97=CONICAL_SURFACE('',#146,21.1499999999953,0.785398163397532);
#98=FACE_OUTER_BOUND('',#147,.T.);
#99=FACE_BOUND('',#148,.T.);
#100=PLANE('',#149);
#101=FACE_BOUND('',#150,.T.);
#102=FACE_BOUND('',#151,.T.);
#103=CONICAL_SURFACE('',#152,33.2731047821269,0.436332312998577);
#104=FACE_BOUND('',#153,.T.);
#105=FACE_BOUND('',#154,.T.);
#106=CYLINDRICAL_SURFACE('',#155,37.0000000000031);
#107=FACE_BOUND('',#156,.T.);
#108=FACE_BOUND('',#157,.T.);
#109=CONICAL_SURFACE('',#158,34.2500000000004,1.04719755119663);
#110=FACE_BOUND('',#159,.T.);
#111=FACE_BOUND('',#160,.T.);
#112=CYLINDRICAL_SURFACE('',#161,31.5000000000001);
#113=FACE_BOUND('',#162,.T.);
#114=FACE_BOUND('',#163,.T.);
#115=CONICAL_SURFACE('',#164,29.3350635094626,1.04719755119645);
#116=FACE_BOUND('',#165,.T.);
#117=FACE_OUTER_BOUND('',#166,.T.);
#118=PLANE('',#167);
#119=FACE_BOUND('',#168,.T.);
#120=FACE_BOUND('',#169,.T.);
#121=CYLINDRICAL_SURFACE('',#170,26.5000000000001);
#122=FACE_OUTER_BOUND('',#171,.T.);
#123=FACE_BOUND('',#172,.T.);
#124=PLANE('',#173);
#125=FACE_BOUND('',#174,.T.);
#126=FACE_BOUND('',#175,.T.);
#127=CONICAL_SURFACE('',#176,29.3350635094623,1.04719755119656);
#128=FACE_BOUND('',#177,.T.);
#129=FACE_BOUND('',#178,.T.);
#130=CYLINDRICAL_SURFACE('',#179,31.5000000000013);
#131=FACE_BOUND('',#180,.T.);
#132=FACE_OUTER_BOUND('',#181,.T.);
#133=PLANE('',#182);
#134=FACE_BOUND('',#183,.T.);
#135=FACE_BOUND('',#184,.T.);
#136=CYLINDRICAL_SURFACE('',#185,22.2249999999989);
#137=FACE_BOUND('',#186,.T.);
#138=FACE_BOUND('',#187,.T.);
#139=CONICAL_SURFACE('',#188,17.4562815795972,0.144812498267787);
#140=FACE_OUTER_BOUND('',#189,.T.);
#141=PLANE('',#190);
#142=EDGE_LOOP('',(#191));
#143=AXIS2_PLACEMENT_3D('',#192,#193,#194);
#144=EDGE_LOOP('',(#195));
#145=EDGE_LOOP('',(#196));
#146=AXIS2_PLACEMENT_3D('',#197,#198,#199);
#147=EDGE_LOOP('',(#200));
#148=EDGE_LOOP('',(#201));
#149=AXIS2_PLACEMENT_3D('',#202,#203,#204);
#150=EDGE_LOOP('',(#205));
#151=EDGE_LOOP('',(#206));
#152=AXIS2_PLACEMENT_3D('',#207,#208,#209);
#153=EDGE_LOOP('',(#210));
#154=EDGE_LOOP('',(#211));
#155=AXIS2_PLACEMENT_3D('',#212,#213,#214);
#156=EDGE_LOOP('',(#215));
#157=EDGE_LOOP('',(#216));
#158=AXIS2_PLACEMENT_3D('',#217,#218,#219);
#159=EDGE_LOOP('',(#220));
#160=EDGE_LOOP('',(#221));
#161=AXIS2_PLACEMENT_3D('',#222,#223,#224);
#162=EDGE_LOOP('',(#225));
#163=EDGE_LOOP('',(#226));
#164=AXIS2_PLACEMENT_3D('',#227,#228,#229);
#165=EDGE_LOOP('',(#230));
#166=EDGE_LOOP('',(#231));
#167=AXIS2_PLACEMENT_3D('',#232,#233,#234);
#168=EDGE_LOOP('',(#235));
#169=EDGE_LOOP('',(#236));
#170=AXIS2_PLACEMENT_3D('',#237,#238,#239);
#171=EDGE_LOOP('',(#240));
#172=EDGE_LOOP('',(#241));
#173=AXIS2_PLACEMENT_3D('',#242,#243,#244);
#174=EDGE_LOOP('',(#245));
#175=EDGE_LOOP('',(#246));
#176=AXIS2_PLACEMENT_3D('',#247,#248,#249);
#177=EDGE_LOOP('',(#250));
#178=EDGE_LOOP('',(#251));
#179=AXIS2_PLACEMENT_3D('',#252,#253,#254);
#180=EDGE_LOOP('',(#255));
#181=EDGE_LOOP('',(#256));
#182=AXIS2_PLACEMENT_3D('',#257,#258,#259);
#183=EDGE_LOOP('',(#260));
#184=EDGE_LOOP('',(#261));
#185=AXIS2_PLACEMENT_3D('',#262,#263,#264);
#186=EDGE_LOOP('',(#265));
#187=EDGE_LOOP('',(#266));
#188=AXIS2_PLACEMENT_3D('',#267,#268,#269);
#189=EDGE_LOOP('',(#270));
#190=AXIS2_PLACEMENT_3D('',#271,#272,#273);
#191=ORIENTED_EDGE('',*,*,#274,.F.);
#192=CARTESIAN_POINT('',(4.59245201682548E-015,10.3999999999988,-75.0004331048418));
#193=DIRECTION('',(6.12323399573677E-017,1.24203197219179E-014,-1.0));
#194=DIRECTION('',(7.65352392322447E-031,-1.0,-1.24203197219179E-014));
#195=ORIENTED_EDGE('',*,*,#275,.F.);
#196=ORIENTED_EDGE('',*,*,#274,.T.);
#197=CARTESIAN_POINT('',(4.57102069784054E-015,1.69796730797873E-015,-74.6504331048439));
#198=DIRECTION('',(-6.12323399573677E-017,-2.27455787911044E-017,1.0));
#199=DIRECTION('',(-6.21991774383444E-033,1.0,2.27455787911044E-017));
#200=ORIENTED_EDGE('',*,*,#276,.F.);
#201=ORIENTED_EDGE('',*,*,#275,.T.);
#202=CARTESIAN_POINT('',(4.5495893788556E-015,25.5231047821214,-74.3004331048462));
#203=DIRECTION('',(6.12323399573677E-017,8.95324058856757E-015,-1.0));
#204=DIRECTION('',(5.53055024170041E-031,-1.0,-8.95324058856757E-015));
#205=ORIENTED_EDGE('',*,*,#277,.F.);
#206=ORIENTED_EDGE('',*,*,#276,.T.);
#207=CARTESIAN_POINT('',(4.06019892820447E-015,1.50821566991338E-015,-66.3080805180944));
#208=DIRECTION('',(-6.12323399573677E-017,-2.27455787911278E-017,1.0));
#209=DIRECTION('',(-6.21991774382596E-033,1.0,2.27455787911278E-017));
#210=ORIENTED_EDGE('',*,*,#278,.F.);
#211=ORIENTED_EDGE('',*,*,#277,.T.);
#212=CARTESIAN_POINT('',(3.14979960878464E-015,1.17003556009431E-015,-51.4401313256631));
#213=DIRECTION('',(6.12323399573677E-017,2.27455787911362E-017,-1.0));
#214=DIRECTION('',(-6.21991774383436E-033,1.0,2.27455787911362E-017));
#215=ORIENTED_EDGE('',*,*,#279,.F.);
#216=ORIENTED_EDGE('',*,*,#278,.T.);
#217=CARTESIAN_POINT('',(2.63157134313278E-015,9.77532679159404E-016,-42.9768214797112));
#218=DIRECTION('',(6.12323399573677E-017,2.27455787911201E-017,-1.0));
#219=DIRECTION('',(-6.21991774384132E-033,1.0,2.27455787911201E-017));
#220=ORIENTED_EDGE('',*,*,#280,.F.);
#221=ORIENTED_EDGE('',*,*,#279,.T.);
#222=CARTESIAN_POINT('',(1.92849401423855E-015,7.1636511979845E-016,-31.4946973377343));
#223=DIRECTION('',(6.12323399573677E-017,2.27455787910993E-017,-1.0));
#224=DIRECTION('',(-6.21991774382624E-033,1.0,2.27455787910993E-017));
#225=ORIENTED_EDGE('',*,*,#281,.F.);
#226=ORIENTED_EDGE('',*,*,#280,.T.);
#227=CARTESIAN_POINT('',(1.24610014771821E-015,4.62880711586487E-016,-20.3503597704382));
#228=DIRECTION('',(6.12323399573677E-017,2.27455787911072E-017,-1.0));
#229=DIRECTION('',(-6.21991774383532E-033,1.0,2.27455787911072E-017));
#230=ORIENTED_EDGE('',*,*,#282,.F.);
#231=ORIENTED_EDGE('',*,*,#281,.T.);
#232=CARTESIAN_POINT('',(1.16956421320891E-015,26.8350635094618,-19.1004331048464));
#233=DIRECTION('',(-6.12323399573677E-017,1.15031446224415E-012,1.0));
#234=DIRECTION('',(7.04316190572798E-029,1.0,-1.15031446224415E-012));
#235=ORIENTED_EDGE('',*,*,#283,.F.);
#236=ORIENTED_EDGE('',*,*,#282,.T.);
#237=CARTESIAN_POINT('',(1.01648336331542E-015,3.77586459153259E-016,-16.6004331048452));
#238=DIRECTION('',(6.12323399573677E-017,2.27455787911941E-017,-1.0));
#239=DIRECTION('',(-6.21991774384052E-033,1.0,2.27455787911941E-017));
#240=ORIENTED_EDGE('',*,*,#284,.F.);
#241=ORIENTED_EDGE('',*,*,#283,.T.);
#242=CARTESIAN_POINT('',(8.6340251342198E-016,26.8350635094619,-14.1004331048448));
#243=DIRECTION('',(6.12323399573677E-017,-1.35707501593335E-012,-1.0));
#244=DIRECTION('',(-8.30920515705502E-029,-1.0,1.35707501593335E-012));
#245=ORIENTED_EDGE('',*,*,#285,.F.);
#246=ORIENTED_EDGE('',*,*,#284,.T.);
#247=CARTESIAN_POINT('',(7.86866578912746E-016,2.92292206720062E-016,-12.850506439254));
#248=DIRECTION('',(-6.12323399573677E-017,-2.27455787911074E-017,1.0));
#249=DIRECTION('',(-6.21991774383539E-033,1.0,2.27455787911074E-017));
#250=ORIENTED_EDGE('',*,*,#286,.F.);
#251=ORIENTED_EDGE('',*,*,#285,.T.);
#252=CARTESIAN_POINT('',(3.85794752191988E-016,1.43308665638122E-016,-6.30050643925405));
#253=DIRECTION('',(6.12323399573677E-017,2.27455787910984E-017,-1.0));
#254=DIRECTION('',(-6.21991774382601E-033,1.0,2.27455787910984E-017));
#255=ORIENTED_EDGE('',*,*,#287,.F.);
#256=ORIENTED_EDGE('',*,*,#286,.T.);
#257=CARTESIAN_POINT('',(6.12588599805014E-017,26.8625000000001,-1.00043310484545));
#258=DIRECTION('',(-6.12323399573677E-017,-3.11249189524584E-014,1.0));
#259=DIRECTION('',(-1.91067877117322E-030,1.0,3.11249189524584E-014));
#260=ORIENTED_EDGE('',*,*,#288,.F.);
#261=ORIENTED_EDGE('',*,*,#287,.T.);
#262=CARTESIAN_POINT('',(3.06294299902553E-017,1.13777150057621E-017,-0.500216552422799));
#263=DIRECTION('',(6.12323399573677E-017,2.27455787910681E-017,-1.0));
#264=DIRECTION('',(-6.21991774383715E-033,1.0,2.27455787910681E-017));
#265=ORIENTED_EDGE('',*,*,#289,.F.);
#266=ORIENTED_EDGE('',*,*,#288,.T.);
#267=CARTESIAN_POINT('',(-2.00228425659435E-015,-7.43775500859988E-016,32.6997834475772));
#268=DIRECTION('',(6.12323399573677E-017,2.27455787912237E-017,-1.0));
#269=DIRECTION('',(-6.21991774384084E-033,1.0,2.27455787912237E-017));
#270=ORIENTED_EDGE('',*,*,#289,.T.);
#271=CARTESIAN_POINT('',(-4.0045685131887E-015,6.34378157959774,65.3995668951544));
#272=DIRECTION('',(-6.12323399573677E-017,2.11765890203607E-015,1.0));
#273=DIRECTION('',(1.24842057072449E-031,1.0,-2.11765890203607E-015));
#274=EDGE_CURVE('',#290,#290,#291,.T.);
#275=EDGE_CURVE('',#292,#292,#293,.T.);
#276=EDGE_CURVE('',#294,#294,#295,.T.);
#277=EDGE_CURVE('',#296,#296,#297,.T.);
#278=EDGE_CURVE('',#298,#298,#299,.T.);
#279=EDGE_CURVE('',#300,#300,#301,.T.);
#280=EDGE_CURVE('',#302,#302,#303,.T.);
#281=EDGE_CURVE('',#304,#304,#305,.T.);
#282=EDGE_CURVE('',#306,#306,#307,.T.);
#283=EDGE_CURVE('',#308,#308,#309,.T.);
#284=EDGE_CURVE('',#310,#310,#311,.T.);
#285=EDGE_CURVE('',#312,#312,#313,.T.);
#286=EDGE_CURVE('',#314,#314,#315,.T.);
#287=EDGE_CURVE('',#316,#316,#317,.T.);
#288=EDGE_CURVE('',#318,#318,#319,.T.);
#289=EDGE_CURVE('',#320,#320,#321,.T.);
#290=VERTEX_POINT('',#322);
#291=CIRCLE('',#323,20.7999999999975);
#292=VERTEX_POINT('',#324);
#293=CIRCLE('',#325,21.499999999993);
#294=VERTEX_POINT('',#326);
#295=CIRCLE('',#327,29.5462095642497);
#296=VERTEX_POINT('',#328);
#297=CIRCLE('',#329,37.0000000000041);
#298=VERTEX_POINT('',#330);
#299=CIRCLE('',#331,37.0000000000021);
#300=VERTEX_POINT('',#332);
#301=CIRCLE('',#333,31.4999999999987);
#302=VERTEX_POINT('',#334);
#303=CIRCLE('',#335,31.5000000000015);
#304=VERTEX_POINT('',#336);
#305=CIRCLE('',#337,27.1701270189238);
#306=VERTEX_POINT('',#338);
#307=CIRCLE('',#339,26.4999999999998);
#308=VERTEX_POINT('',#340);
#309=CIRCLE('',#341,26.5000000000004);
#310=VERTEX_POINT('',#342);
#311=CIRCLE('',#343,27.1701270189233);
#312=VERTEX_POINT('',#344);
#313=CIRCLE('',#345,31.5000000000013);
#314=VERTEX_POINT('',#346);
#315=CIRCLE('',#347,31.5000000000012);
#316=VERTEX_POINT('',#348);
#317=CIRCLE('',#349,22.2249999999989);
#318=VERTEX_POINT('',#350);
#319=CIRCLE('',#351,22.2249999999989);
#320=VERTEX_POINT('',#352);
#321=CIRCLE('',#353,12.6875631591955);
#322=CARTESIAN_POINT('',(4.59245201682548E-015,20.7999999999975,-75.0004331048416));
#323=AXIS2_PLACEMENT_3D('',#354,#355,#356);
#324=CARTESIAN_POINT('',(4.5495893788556E-015,21.499999999993,-74.3004331048462));
#325=AXIS2_PLACEMENT_3D('',#357,#358,#359);
#326=CARTESIAN_POINT('',(4.5495893788556E-015,29.5462095642497,-74.3004331048462));
#327=AXIS2_PLACEMENT_3D('',#360,#361,#362);
#328=CARTESIAN_POINT('',(3.57080847755333E-015,37.0000000000041,-58.3157279313426));
#329=AXIS2_PLACEMENT_3D('',#363,#364,#365);
#330=CARTESIAN_POINT('',(2.72879074001595E-015,37.0000000000021,-44.5645347199835));
#331=AXIS2_PLACEMENT_3D('',#366,#367,#368);
#332=CARTESIAN_POINT('',(2.53435194624961E-015,31.4999999999987,-41.3891082394388));
#333=AXIS2_PLACEMENT_3D('',#369,#370,#371);
#334=CARTESIAN_POINT('',(1.32263608222749E-015,31.5000000000015,-21.6002864360297));
#335=AXIS2_PLACEMENT_3D('',#372,#373,#374);
#336=CARTESIAN_POINT('',(1.16956421320893E-015,27.1701270189238,-19.1004331048467));
#337=AXIS2_PLACEMENT_3D('',#375,#376,#377);
#338=CARTESIAN_POINT('',(1.16956421320889E-015,26.4999999999998,-19.100433104846));
#339=AXIS2_PLACEMENT_3D('',#378,#379,#380);
#340=CARTESIAN_POINT('',(8.63402513421952E-016,26.5000000000004,-14.1004331048444));
#341=AXIS2_PLACEMENT_3D('',#381,#382,#383);
#342=CARTESIAN_POINT('',(8.63402513422008E-016,27.1701270189233,-14.1004331048453));
#343=AXIS2_PLACEMENT_3D('',#384,#385,#386);
#344=CARTESIAN_POINT('',(7.10330644403484E-016,31.5000000000013,-11.6005797736628));
#345=AXIS2_PLACEMENT_3D('',#387,#388,#389);
#346=CARTESIAN_POINT('',(6.12588599804925E-017,31.5000000000012,-1.00043310484531));
#347=AXIS2_PLACEMENT_3D('',#390,#391,#392);
#348=CARTESIAN_POINT('',(6.12588599805102E-017,22.2249999999989,-1.0004331048456));
#349=AXIS2_PLACEMENT_3D('',#393,#394,#395);
#350=CARTESIAN_POINT('',(-2.71640381593667E-031,22.2249999999989,2.68410510831374E-015));
#351=AXIS2_PLACEMENT_3D('',#396,#397,#398);
#352=CARTESIAN_POINT('',(-4.0045685131887E-015,12.6875631591955,65.3995668951544));
#353=AXIS2_PLACEMENT_3D('',#399,#400,#401);
#354=CARTESIAN_POINT('',(4.59245201682548E-015,1.70592826055558E-015,-75.0004331048416));
#355=DIRECTION('',(-6.12323399573677E-017,-2.27455787911711E-017,1.0));
#356=DIRECTION('',(-6.21991774383889E-033,1.0,2.27455787911711E-017));
#357=CARTESIAN_POINT('',(4.5495893788556E-015,1.69000635540188E-015,-74.3004331048462));
#358=DIRECTION('',(-6.12323399573677E-017,-2.27455787911902E-017,1.0));
#359=DIRECTION('',(-6.21991774383848E-033,1.0,2.27455787911902E-017));
#360=CARTESIAN_POINT('',(4.54958937885559E-015,1.69000635540189E-015,-74.3004331048462));
#361=DIRECTION('',(-6.12323399573677E-017,-2.27455787911181E-017,1.0));
#362=DIRECTION('',(-6.21991774383995E-033,1.0,2.2745578791118E-017));
#363=CARTESIAN_POINT('',(3.57080847755333E-015,1.32642498442487E-015,-58.3157279313426));
#364=DIRECTION('',(-6.12323399573676E-017,-2.27455787911356E-017,1.0));
#365=DIRECTION('',(-6.21991774383418E-033,1.0,2.27455787911356E-017));
#366=CARTESIAN_POINT('',(2.72879074001595E-015,1.01364613576375E-015,-44.5645347199835));
#367=DIRECTION('',(-6.12323399573677E-017,-2.27455787911369E-017,1.0));
#368=DIRECTION('',(-6.21991774383453E-033,1.0,2.27455787911369E-017));
#369=CARTESIAN_POINT('',(2.53435194624961E-015,9.41419222555051E-016,-41.3891082394388));
#370=DIRECTION('',(-6.12323399573677E-017,-2.27455787911003E-017,1.0));
#371=DIRECTION('',(-6.21991774383791E-033,1.0,2.27455787911003E-017));
#372=CARTESIAN_POINT('',(1.32263608222749E-015,4.91311017041841E-016,-21.6002864360297));
#373=DIRECTION('',(-6.12323399573677E-017,-2.27455787910982E-017,1.0));
#374=DIRECTION('',(-6.21991774383735E-033,1.0,2.27455787910982E-017));
#375=CARTESIAN_POINT('',(1.16956421320894E-015,4.34450406131132E-016,-19.1004331048467));
#376=DIRECTION('',(-6.12323399573677E-017,-2.27455787911175E-017,1.0));
#377=DIRECTION('',(-6.21991774383296E-033,1.0,2.27455787911175E-017));
#378=CARTESIAN_POINT('',(1.16956421320889E-015,4.34450406131113E-016,-19.100433104846));
#379=DIRECTION('',(-6.12323399573677E-017,-2.27455787911944E-017,1.0));
#380=DIRECTION('',(-6.21991774383384E-033,1.0,2.27455787911944E-017));
#381=CARTESIAN_POINT('',(8.63402513421953E-016,3.20722512175391E-016,-14.1004331048444));
#382=DIRECTION('',(-6.12323399573677E-017,-2.27455787911938E-017,1.0));
#383=DIRECTION('',(-6.21991774384045E-033,1.0,2.27455787911938E-017));
#384=CARTESIAN_POINT('',(8.63402513422008E-016,3.20722512175416E-016,-14.1004331048453));
#385=DIRECTION('',(-6.12323399573676E-017,-2.27455787911179E-017,1.0));
#386=DIRECTION('',(-6.21991774383307E-033,1.0,2.27455787911179E-017));
#387=CARTESIAN_POINT('',(7.10330644403484E-016,2.63861901264714E-016,-11.6005797736628));
#388=DIRECTION('',(-6.12323399573677E-017,-2.27455787910984E-017,1.0));
#389=DIRECTION('',(-6.219917743826E-033,1.0,2.27455787910984E-017));
#390=CARTESIAN_POINT('',(6.12588599804931E-017,2.27554300115178E-017,-1.00043310484531));
#391=DIRECTION('',(-6.12323399573677E-017,-2.27455787910984E-017,1.0));
#392=DIRECTION('',(-6.2199177438374E-033,1.0,2.27455787910984E-017));
#393=CARTESIAN_POINT('',(6.12588599805105E-017,2.27554300115241E-017,-1.0004331048456));
#394=DIRECTION('',(-6.12323399573677E-017,-2.27455787910682E-017,1.0));
#395=DIRECTION('',(-6.21991774382909E-033,1.0,2.27455787910682E-017));
#396=CARTESIAN_POINT('',(0.0,0.0,0.0));
#397=DIRECTION('',(-6.12323399573677E-017,-2.27455787910681E-017,1.0));
#398=DIRECTION('',(-6.21991774383714E-033,1.0,2.27455787910681E-017));
#399=CARTESIAN_POINT('',(-4.0045685131887E-015,-1.48755100171998E-015,65.3995668951544));
#400=DIRECTION('',(-6.12323399573677E-017,-2.27455787911142E-017,1.0));
#401=DIRECTION('',(-6.21991774384026E-033,1.0,2.27455787911142E-017));
ENDSEC;
END-ISO-10303-21;
