ISO-10303-21;
HEADER;
FILE_DESCRIPTION((''),'1');
FILE_NAME('U:/Translate/BIG-HP/\X2\30C030A630F330ED30FC30C930C730FC30BF\X0\/201309/LINK\X2\7528FF83FF9EFF70FF80FF8EFF99FF80FF9E\X0\/CK\X2\FF8DFF6FFF84FF9E30FBFF71FF78FF7EFF7BFF98\X0\/11_CK\X2\8D85786CFF7DFF84FF9AFF70FF84FF7CFF6CFF9DFF78\X0\/02_CK\X2\8D85786C\X0\ST\X2\7528FF8AFF72FF84FF9EFF9BFF81FF6CFF6FFF78\X0\/BBT40-HDC24-75.stp','2013-10-11T07:19:03',(''),(''),'Spatial Interop R18','Kubotek KeyCreator V8.5.1 (14335)',' ');
FILE_SCHEMA(('CONFIG_CONTROL_DESIGN'));
ENDSEC;
DATA;
#1=DESIGN_CONTEXT('',#27,'design');
#2=APPLICATION_PROTOCOL_DEFINITION('INTERNATIONAL STANDARD','config_control_design',1994,#27);
#3=PRODUCT_CATEGORY_RELATIONSHIP('NONE','NONE',#28,#29);
#4=DATE_AND_TIME(#30,#31);
#5=DATE_TIME_ROLE('creation_date');
#6=DATE_TIME_ROLE('classification_date');
#7=PERSON_AND_ORGANIZATION_ROLE('creator');
#8=PERSON_AND_ORGANIZATION_ROLE('design_supplier');
#9=PERSON_AND_ORGANIZATION_ROLE('classification_officer');
#10=PERSON_AND_ORGANIZATION_ROLE('design_owner');
#11=APPROVAL_PERSON_ORGANIZATION(#32,#33,#34);
#12=APPROVAL_DATE_TIME(#4,#33);
#13=CC_DESIGN_APPROVAL(#33,(#35,#36,#37));
#14=CC_DESIGN_DATE_AND_TIME_ASSIGNMENT(#4,#5,(#37));
#15=CC_DESIGN_DATE_AND_TIME_ASSIGNMENT(#4,#6,(#35));
#16=CC_DESIGN_PERSON_AND_ORGANIZATION_ASSIGNMENT(#32,#10,(#38));
#17=CC_DESIGN_PERSON_AND_ORGANIZATION_ASSIGNMENT(#32,#7,(#37));
#18=CC_DESIGN_PERSON_AND_ORGANIZATION_ASSIGNMENT(#32,#7,(#36));
#19=CC_DESIGN_PERSON_AND_ORGANIZATION_ASSIGNMENT(#32,#8,(#36));
#20=CC_DESIGN_SECURITY_CLASSIFICATION(#35,(#36));
#21=CC_DESIGN_PERSON_AND_ORGANIZATION_ASSIGNMENT(#32,#9,(#35));
#22=SHAPE_DEFINITION_REPRESENTATION(#39,#40);
#23= (GEOMETRIC_REPRESENTATION_CONTEXT(3)GLOBAL_UNCERTAINTY_ASSIGNED_CONTEXT((#43))GLOBAL_UNIT_ASSIGNED_CONTEXT((#45,#46,#47))REPRESENTATION_CONTEXT('NONE','WORKSPACE'));
#27=APPLICATION_CONTEXT('CONFIGURATION CONTROLLED 3D DESIGNS OF MECHANICAL PARTS AND ASSEMBLIES');
#28=PRODUCT_CATEGORY('part','NONE');
#29=PRODUCT_RELATED_PRODUCT_CATEGORY('detail',' ',(#38));
#30=CALENDAR_DATE(2013,11,9);
#31=LOCAL_TIME(16,19,3.0,#49);
#32=PERSON_AND_ORGANIZATION(#50,#51);
#33=APPROVAL(#52,'SOLID MODEL');
#34=APPROVAL_ROLE('APPROVED');
#35=SECURITY_CLASSIFICATION('','',#53);
#36=PRODUCT_DEFINITION_FORMATION_WITH_SPECIFIED_SOURCE(' ','NONE',#38,.NOT_KNOWN.);
#37=PRODUCT_DEFINITION('NONE','NONE',#36,#1);
#38=PRODUCT('1','1','PART-1-DESC',(#54));
#39=PRODUCT_DEFINITION_SHAPE('NONE','NONE',#37);
#40=ADVANCED_BREP_SHAPE_REPRESENTATION('1',(#55,#56),#23);
#43=UNCERTAINTY_MEASURE_WITH_UNIT(LENGTH_MEASURE(1.0E-006),#45,'','');
#45= (CONVERSION_BASED_UNIT('MILLIMETRE',#59)LENGTH_UNIT()NAMED_UNIT(#62));
#46= (NAMED_UNIT(#64)PLANE_ANGLE_UNIT()SI_UNIT($,.RADIAN.));
#47= (NAMED_UNIT(#64)SOLID_ANGLE_UNIT()SI_UNIT($,.STERADIAN.));
#49=COORDINATED_UNIVERSAL_TIME_OFFSET(9,0,.AHEAD.);
#50=PERSON('','UNSPECIFIED',$,$,$,$);
#51=ORGANIZATION('UNSPECIFIED','UNSPECIFIED','UNSPECIFIED');
#52=APPROVAL_STATUS('approved');
#53=SECURITY_CLASSIFICATION_LEVEL('unclassified');
#54=MECHANICAL_CONTEXT('',#27,'mechanical');
#55=MANIFOLD_SOLID_BREP('1',#70);
#56=AXIS2_PLACEMENT_3D('',#71,#72,#73);
#59=LENGTH_MEASURE_WITH_UNIT(LENGTH_MEASURE(1.0),#74);
#62=DIMENSIONAL_EXPONENTS(1.0,0.0,0.0,0.0,0.0,0.0,0.0);
#64=DIMENSIONAL_EXPONENTS(0.0,0.0,0.0,0.0,0.0,0.0,0.0);
#70=CLOSED_SHELL('',(#75,#76,#77,#78,#79,#80,#81,#82,#83,#84,#85,#86,#87,#88,#89));
#71=CARTESIAN_POINT('',(0.0,0.0,0.0));
#72=DIRECTION('',(0.0,0.0,1.0));
#73=DIRECTION('',(1.0,0.0,0.0));
#74= (NAMED_UNIT(#62)LENGTH_UNIT()SI_UNIT(.MILLI.,.METRE.));
#75=ADVANCED_FACE('',(#91),#92,.T.);
#76=ADVANCED_FACE('',(#93,#94),#95,.T.);
#77=ADVANCED_FACE('',(#96,#97),#98,.T.);
#78=ADVANCED_FACE('',(#99,#100),#101,.T.);
#79=ADVANCED_FACE('',(#102,#103),#104,.T.);
#80=ADVANCED_FACE('',(#105,#106),#107,.T.);
#81=ADVANCED_FACE('',(#108,#109),#110,.T.);
#82=ADVANCED_FACE('',(#111,#112),#113,.T.);
#83=ADVANCED_FACE('',(#114,#115),#116,.T.);
#84=ADVANCED_FACE('',(#117,#118),#119,.T.);
#85=ADVANCED_FACE('',(#120,#121),#122,.T.);
#86=ADVANCED_FACE('',(#123,#124),#125,.T.);
#87=ADVANCED_FACE('',(#126,#127),#128,.T.);
#88=ADVANCED_FACE('',(#129,#130),#131,.T.);
#89=ADVANCED_FACE('',(#132),#133,.T.);
#91=FACE_OUTER_BOUND('',#134,.T.);
#92=PLANE('',#135);
#93=FACE_BOUND('',#136,.T.);
#94=FACE_BOUND('',#137,.T.);
#95=CONICAL_SURFACE('',#138,15.1499999999951,0.785398163416352);
#96=FACE_OUTER_BOUND('',#139,.T.);
#97=FACE_BOUND('',#140,.T.);
#98=PLANE('',#141);
#99=FACE_BOUND('',#142,.T.);
#100=FACE_BOUND('',#143,.T.);
#101=CONICAL_SURFACE('',#144,26.6749999999893,0.523598775598276);
#102=FACE_BOUND('',#145,.T.);
#103=FACE_BOUND('',#146,.T.);
#104=CYLINDRICAL_SURFACE('',#147,31.0499999999786);
#105=FACE_BOUND('',#148,.T.);
#106=FACE_BOUND('',#149,.T.);
#107=CONICAL_SURFACE('',#150,31.2749999999896,0.785398163391728);
#108=FACE_BOUND('',#151,.T.);
#109=FACE_BOUND('',#152,.T.);
#110=CYLINDRICAL_SURFACE('',#153,31.5000000000009);
#111=FACE_BOUND('',#154,.T.);
#112=FACE_BOUND('',#155,.T.);
#113=CONICAL_SURFACE('',#156,29.0000000000007,1.04719755119653);
#114=FACE_BOUND('',#157,.T.);
#115=FACE_BOUND('',#158,.T.);
#116=CYLINDRICAL_SURFACE('',#159,26.5000000000001);
#117=FACE_BOUND('',#160,.T.);
#118=FACE_BOUND('',#161,.T.);
#119=CONICAL_SURFACE('',#162,29.0000000000006,1.04719755119657);
#120=FACE_BOUND('',#163,.T.);
#121=FACE_BOUND('',#164,.T.);
#122=CYLINDRICAL_SURFACE('',#165,31.5000000000011);
#123=FACE_BOUND('',#166,.T.);
#124=FACE_OUTER_BOUND('',#167,.T.);
#125=PLANE('',#168);
#126=FACE_BOUND('',#169,.T.);
#127=FACE_BOUND('',#170,.T.);
#128=CYLINDRICAL_SURFACE('',#171,22.2250631611222);
#129=FACE_BOUND('',#172,.T.);
#130=FACE_BOUND('',#173,.T.);
#131=CONICAL_SURFACE('',#174,17.4563131601589,0.144812498267785);
#132=FACE_OUTER_BOUND('',#175,.T.);
#133=PLANE('',#176);
#134=EDGE_LOOP('',(#177));
#135=AXIS2_PLACEMENT_3D('',#178,#179,#180);
#136=EDGE_LOOP('',(#181));
#137=EDGE_LOOP('',(#182));
#138=AXIS2_PLACEMENT_3D('',#183,#184,#185);
#139=EDGE_LOOP('',(#186));
#140=EDGE_LOOP('',(#187));
#141=AXIS2_PLACEMENT_3D('',#188,#189,#190);
#142=EDGE_LOOP('',(#191));
#143=EDGE_LOOP('',(#192));
#144=AXIS2_PLACEMENT_3D('',#193,#194,#195);
#145=EDGE_LOOP('',(#196));
#146=EDGE_LOOP('',(#197));
#147=AXIS2_PLACEMENT_3D('',#198,#199,#200);
#148=EDGE_LOOP('',(#201));
#149=EDGE_LOOP('',(#202));
#150=AXIS2_PLACEMENT_3D('',#203,#204,#205);
#151=EDGE_LOOP('',(#206));
#152=EDGE_LOOP('',(#207));
#153=AXIS2_PLACEMENT_3D('',#208,#209,#210);
#154=EDGE_LOOP('',(#211));
#155=EDGE_LOOP('',(#212));
#156=AXIS2_PLACEMENT_3D('',#213,#214,#215);
#157=EDGE_LOOP('',(#216));
#158=EDGE_LOOP('',(#217));
#159=AXIS2_PLACEMENT_3D('',#218,#219,#220);
#160=EDGE_LOOP('',(#221));
#161=EDGE_LOOP('',(#222));
#162=AXIS2_PLACEMENT_3D('',#223,#224,#225);
#163=EDGE_LOOP('',(#226));
#164=EDGE_LOOP('',(#227));
#165=AXIS2_PLACEMENT_3D('',#228,#229,#230);
#166=EDGE_LOOP('',(#231));
#167=EDGE_LOOP('',(#232));
#168=AXIS2_PLACEMENT_3D('',#233,#234,#235);
#169=EDGE_LOOP('',(#236));
#170=EDGE_LOOP('',(#237));
#171=AXIS2_PLACEMENT_3D('',#238,#239,#240);
#172=EDGE_LOOP('',(#241));
#173=EDGE_LOOP('',(#242));
#174=AXIS2_PLACEMENT_3D('',#243,#244,#245);
#175=EDGE_LOOP('',(#246));
#176=AXIS2_PLACEMENT_3D('',#247,#248,#249);
#177=ORIENTED_EDGE('',*,*,#250,.F.);
#178=CARTESIAN_POINT('',(4.59242549680211E-015,7.39999999999092,-74.9999999999924));
#179=DIRECTION('',(6.12323399573677E-017,-1.62008143848644E-014,-1.0));
#180=DIRECTION('',(-9.87186621269458E-031,-1.0,1.62008143848644E-014));
#181=ORIENTED_EDGE('',*,*,#251,.F.);
#182=ORIENTED_EDGE('',*,*,#250,.T.);
#183=CARTESIAN_POINT('',(4.57099417781704E-015,9.14198835563408E-015,-74.6499999999925));
#184=DIRECTION('',(-6.12323399573677E-017,-1.22464679914749E-016,1.0));
#185=DIRECTION('',(-1.23259516440776E-032,1.0,1.22464679914749E-016));
#186=ORIENTED_EDGE('',*,*,#252,.F.);
#187=ORIENTED_EDGE('',*,*,#251,.T.);
#188=CARTESIAN_POINT('',(4.54956285883196E-015,18.9000000000041,-74.2999999999926));
#189=DIRECTION('',(6.12323399573677E-017,-1.86860195019934E-014,-1.0));
#190=DIRECTION('',(-1.13936154586529E-030,-1.0,1.86860195019934E-014));
#191=ORIENTED_EDGE('',*,*,#253,.F.);
#192=ORIENTED_EDGE('',*,*,#252,.T.);
#193=CARTESIAN_POINT('',(4.08556119189093E-015,8.17112238378185E-015,-66.7222777168969));
#194=DIRECTION('',(-6.12323399573677E-017,-1.22464679914743E-016,1.0));
#195=DIRECTION('',(-1.23259516440779E-032,1.0,1.22464679914743E-016));
#196=ORIENTED_EDGE('',*,*,#254,.F.);
#197=ORIENTED_EDGE('',*,*,#253,.T.);
#198=CARTESIAN_POINT('',(2.65578605388668E-015,5.31157210777335E-015,-43.3722777169015));
#199=DIRECTION('',(6.12323399573677E-017,1.22464679914728E-016,-1.0));
#200=DIRECTION('',(-1.23259516440822E-032,1.0,1.22464679914728E-016));
#201=ORIENTED_EDGE('',*,*,#255,.F.);
#202=ORIENTED_EDGE('',*,*,#254,.T.);
#203=CARTESIAN_POINT('',(1.67623530633224E-015,3.35247061266447E-015,-27.3749999999885));
#204=DIRECTION('',(-6.12323399573677E-017,-1.22464679914696E-016,1.0));
#205=DIRECTION('',(-1.23259516440801E-032,1.0,1.22464679914696E-016));
#206=ORIENTED_EDGE('',*,*,#256,.F.);
#207=ORIENTED_EDGE('',*,*,#255,.T.);
#208=CARTESIAN_POINT('',(1.49253379602267E-015,2.98506759204535E-015,-24.3749266655796));
#209=DIRECTION('',(6.12323399573677E-017,1.22464679914766E-016,-1.0));
#210=DIRECTION('',(-1.23259516440779E-032,1.0,1.22464679914766E-016));
#211=ORIENTED_EDGE('',*,*,#257,.F.);
#212=ORIENTED_EDGE('',*,*,#256,.T.);
#213=CARTESIAN_POINT('',(1.23422829231057E-015,2.46845658462114E-015,-20.1564776582095));
#214=DIRECTION('',(6.12323399573677E-017,1.22464679914709E-016,-1.0));
#215=DIRECTION('',(-1.2325951644078E-032,1.0,1.22464679914709E-016));
#216=ORIENTED_EDGE('',*,*,#258,.F.);
#217=ORIENTED_EDGE('',*,*,#257,.T.);
#218=CARTESIAN_POINT('',(1.01645684329235E-015,2.0329136865847E-015,-16.6000000000007));
#219=DIRECTION('',(6.12323399573677E-017,1.22464679914764E-016,-1.0));
#220=DIRECTION('',(-1.23259516440783E-032,1.0,1.22464679914764E-016));
#221=ORIENTED_EDGE('',*,*,#259,.F.);
#222=ORIENTED_EDGE('',*,*,#258,.T.);
#223=CARTESIAN_POINT('',(7.9868539427414E-016,1.59737078854828E-015,-13.0435223417922));
#224=DIRECTION('',(-6.12323399573677E-017,-1.22464679914709E-016,1.0));
#225=DIRECTION('',(-1.2325951644078E-032,1.0,1.22464679914709E-016));
#226=ORIENTED_EDGE('',*,*,#260,.F.);
#227=ORIENTED_EDGE('',*,*,#259,.T.);
#228=CARTESIAN_POINT('',(3.85768232168875E-016,7.71536464337749E-016,-6.30007333440894));
#229=DIRECTION('',(6.12323399573677E-017,1.22464679914766E-016,-1.0));
#230=DIRECTION('',(-1.23259516440779E-032,1.0,1.22464679914766E-016));
#231=ORIENTED_EDGE('',*,*,#261,.F.);
#232=ORIENTED_EDGE('',*,*,#260,.T.);
#233=CARTESIAN_POINT('',(6.12323399573835E-017,26.8625315805617,-1.00000000000026));
#234=DIRECTION('',(-6.12323399573677E-017,-2.57146263073516E-014,1.0));
#235=DIRECTION('',(-1.57939389265919E-030,1.0,2.57146263073516E-014));
#236=ORIENTED_EDGE('',*,*,#262,.F.);
#237=ORIENTED_EDGE('',*,*,#261,.T.);
#238=CARTESIAN_POINT('',(3.06161699786951E-017,6.12323399573903E-017,-0.500000000000185));
#239=DIRECTION('',(6.12323399573677E-017,1.22464679914671E-016,-1.0));
#240=DIRECTION('',(-1.23259516440794E-032,1.0,1.22464679914671E-016));
#241=ORIENTED_EDGE('',*,*,#263,.F.);
#242=ORIENTED_EDGE('',*,*,#262,.T.);
#243=CARTESIAN_POINT('',(-2.00229751660591E-015,-4.00459503321182E-015,32.6999999999998));
#244=DIRECTION('',(6.12323399573677E-017,1.22464679914812E-016,-1.0));
#245=DIRECTION('',(-1.23259516440797E-032,1.0,1.22464679914812E-016));
#246=ORIENTED_EDGE('',*,*,#263,.T.);
#247=CARTESIAN_POINT('',(-4.00459503321182E-015,6.34378157959777,65.3999999999995));
#248=DIRECTION('',(-6.12323399573677E-017,-1.22464679914735E-016,1.0));
#249=DIRECTION('',(-1.23259516440783E-032,1.0,1.22464679914735E-016));
#250=EDGE_CURVE('',#264,#264,#265,.T.);
#251=EDGE_CURVE('',#266,#266,#267,.T.);
#252=EDGE_CURVE('',#268,#268,#269,.T.);
#253=EDGE_CURVE('',#270,#270,#271,.T.);
#254=EDGE_CURVE('',#272,#272,#273,.T.);
#255=EDGE_CURVE('',#274,#274,#275,.T.);
#256=EDGE_CURVE('',#276,#276,#277,.T.);
#257=EDGE_CURVE('',#278,#278,#279,.T.);
#258=EDGE_CURVE('',#280,#280,#281,.T.);
#259=EDGE_CURVE('',#282,#282,#283,.T.);
#260=EDGE_CURVE('',#284,#284,#285,.T.);
#261=EDGE_CURVE('',#286,#286,#287,.T.);
#262=EDGE_CURVE('',#288,#288,#289,.T.);
#263=EDGE_CURVE('',#290,#290,#291,.T.);
#264=VERTEX_POINT('',#292);
#265=CIRCLE('',#293,14.7999999999818);
#266=VERTEX_POINT('',#294);
#267=CIRCLE('',#295,15.5000000000083);
#268=VERTEX_POINT('',#296);
#269=CIRCLE('',#297,22.2999999999999);
#270=VERTEX_POINT('',#298);
#271=CIRCLE('',#299,31.0499999999786);
#272=VERTEX_POINT('',#300);
#273=CIRCLE('',#301,31.0499999999786);
#274=VERTEX_POINT('',#302);
#275=CIRCLE('',#303,31.5000000000005);
#276=VERTEX_POINT('',#304);
#277=CIRCLE('',#305,31.5000000000014);
#278=VERTEX_POINT('',#306);
#279=CIRCLE('',#307,26.5000000000001);
#280=VERTEX_POINT('',#308);
#281=CIRCLE('',#309,26.5000000000001);
#282=VERTEX_POINT('',#310);
#283=CIRCLE('',#311,31.5000000000011);
#284=VERTEX_POINT('',#312);
#285=CIRCLE('',#313,31.5000000000011);
#286=VERTEX_POINT('',#314);
#287=CIRCLE('',#315,22.2250631611222);
#288=VERTEX_POINT('',#316);
#289=CIRCLE('',#317,22.2250631611222);
#290=VERTEX_POINT('',#318);
#291=CIRCLE('',#319,12.6875631591956);
#292=CARTESIAN_POINT('',(4.59242549680212E-015,14.7999999999818,-74.9999999999925));
#293=AXIS2_PLACEMENT_3D('',#320,#321,#322);
#294=CARTESIAN_POINT('',(4.54956285883196E-015,15.5000000000083,-74.2999999999925));
#295=AXIS2_PLACEMENT_3D('',#323,#324,#325);
#296=CARTESIAN_POINT('',(4.54956285883197E-015,22.2999999999999,-74.2999999999927));
#297=AXIS2_PLACEMENT_3D('',#326,#327,#328);
#298=CARTESIAN_POINT('',(3.62155952494988E-015,31.0499999999786,-59.144555433801));
#299=AXIS2_PLACEMENT_3D('',#329,#330,#331);
#300=CARTESIAN_POINT('',(1.69001258282347E-015,31.0499999999786,-27.600000000002));
#301=AXIS2_PLACEMENT_3D('',#332,#333,#334);
#302=CARTESIAN_POINT('',(1.662458029841E-015,31.5000000000005,-27.149999999975));
#303=AXIS2_PLACEMENT_3D('',#335,#336,#337);
#304=CARTESIAN_POINT('',(1.32260956220435E-015,31.5000000000014,-21.5998533311842));
#305=AXIS2_PLACEMENT_3D('',#338,#339,#340);
#306=CARTESIAN_POINT('',(1.14584702241679E-015,26.5000000000001,-18.7131019852348));
#307=AXIS2_PLACEMENT_3D('',#341,#342,#343);
#308=CARTESIAN_POINT('',(8.87066664167907E-016,26.5000000000001,-14.4868980147667));
#309=AXIS2_PLACEMENT_3D('',#344,#345,#346);
#310=CARTESIAN_POINT('',(7.10304124380372E-016,31.5000000000011,-11.6001466688177));
#311=AXIS2_PLACEMENT_3D('',#347,#348,#349);
#312=CARTESIAN_POINT('',(6.12323399573762E-017,31.5000000000011,-1.00000000000014));
#313=AXIS2_PLACEMENT_3D('',#350,#351,#352);
#314=CARTESIAN_POINT('',(6.12323399573908E-017,22.2250631611222,-1.00000000000038));
#315=AXIS2_PLACEMENT_3D('',#353,#354,#355);
#316=CARTESIAN_POINT('',(-2.43328883831894E-031,22.2250631611222,2.2217852461116E-015));
#317=AXIS2_PLACEMENT_3D('',#356,#357,#358);
#318=CARTESIAN_POINT('',(-4.00459503321182E-015,12.6875631591955,65.3999999999995));
#319=AXIS2_PLACEMENT_3D('',#359,#360,#361);
#320=CARTESIAN_POINT('',(4.59242549680212E-015,9.18485099360423E-015,-74.9999999999925));
#321=DIRECTION('',(-6.12323399573677E-017,-1.22464679914785E-016,1.0));
#322=DIRECTION('',(-1.23259516440837E-032,1.0,1.22464679914785E-016));
#323=CARTESIAN_POINT('',(4.54956285883196E-015,9.09912571766392E-015,-74.2999999999925));
#324=DIRECTION('',(-6.12323399573677E-017,-1.22464679914715E-016,1.0));
#325=DIRECTION('',(-1.23259516440833E-032,1.0,1.22464679914715E-016));
#326=CARTESIAN_POINT('',(4.54956285883197E-015,9.09912571766394E-015,-74.2999999999927));
#327=DIRECTION('',(-6.12323399573677E-017,-1.22464679914764E-016,1.0));
#328=DIRECTION('',(-1.232595164408E-032,1.0,1.22464679914764E-016));
#329=CARTESIAN_POINT('',(3.62155952494988E-015,7.24311904989976E-015,-59.144555433801));
#330=DIRECTION('',(-6.12323399573677E-017,-1.22464679914728E-016,1.0));
#331=DIRECTION('',(-1.23259516440822E-032,1.0,1.22464679914728E-016));
#332=CARTESIAN_POINT('',(1.69001258282347E-015,3.38002516564694E-015,-27.600000000002));
#333=DIRECTION('',(-6.12323399573677E-017,-1.22464679914728E-016,1.0));
#334=DIRECTION('',(-1.23259516440822E-032,1.0,1.22464679914728E-016));
#335=CARTESIAN_POINT('',(1.662458029841E-015,3.324916059682E-015,-27.149999999975));
#336=DIRECTION('',(-6.12323399573677E-017,-1.22464679914768E-016,1.0));
#337=DIRECTION('',(-1.23259516440781E-032,1.0,1.22464679914768E-016));
#338=CARTESIAN_POINT('',(1.32260956220435E-015,2.6452191244087E-015,-21.5998533311842));
#339=DIRECTION('',(-6.12323399573677E-017,-1.22464679914765E-016,1.0));
#340=DIRECTION('',(-1.23259516440778E-032,1.0,1.22464679914765E-016));
#341=CARTESIAN_POINT('',(1.14584702241679E-015,2.29169404483358E-015,-18.7131019852348));
#342=DIRECTION('',(-6.12323399573677E-017,-1.22464679914764E-016,1.0));
#343=DIRECTION('',(-1.23259516440783E-032,1.0,1.22464679914764E-016));
#344=CARTESIAN_POINT('',(8.87066664167907E-016,1.77413332833581E-015,-14.4868980147667));
#345=DIRECTION('',(-6.12323399573677E-017,-1.22464679914764E-016,1.0));
#346=DIRECTION('',(-1.23259516440783E-032,1.0,1.22464679914764E-016));
#347=CARTESIAN_POINT('',(7.10304124380372E-016,1.42060824876074E-015,-11.6001466688177));
#348=DIRECTION('',(-6.12323399573677E-017,-1.22464679914766E-016,1.0));
#349=DIRECTION('',(-1.23259516440779E-032,1.0,1.22464679914766E-016));
#350=CARTESIAN_POINT('',(6.12323399573764E-017,1.22464679914753E-016,-1.00000000000014));
#351=DIRECTION('',(-6.12323399573677E-017,-1.22464679914766E-016,1.0));
#352=DIRECTION('',(-1.23259516440779E-032,1.0,1.22464679914766E-016));
#353=CARTESIAN_POINT('',(6.12323399573912E-017,1.22464679914782E-016,-1.00000000000038));
#354=DIRECTION('',(-6.12323399573677E-017,-1.22464679914671E-016,1.0));
#355=DIRECTION('',(-1.23259516440794E-032,1.0,1.22464679914671E-016));
#356=CARTESIAN_POINT('',(0.0,0.0,0.0));
#357=DIRECTION('',(-6.12323399573677E-017,-1.22464679914671E-016,1.0));
#358=DIRECTION('',(-1.23259516440794E-032,1.0,1.22464679914671E-016));
#359=CARTESIAN_POINT('',(-4.00459503321182E-015,-8.00919006642363E-015,65.3999999999995));
#360=DIRECTION('',(-6.12323399573677E-017,-1.22464679914676E-016,1.0));
#361=DIRECTION('',(-1.23259516440802E-032,1.0,1.22464679914676E-016));
ENDSEC;
END-ISO-10303-21;
