  0
SECTION
  2
HEADER
  9
$ACADVER
  1
AC1009
  9
$INSBASE
 10
0.0
 20
0.0
 30
0.0
  9
$EXTMIN
 10
-69.047619047619051
 20
-31.5000000000007105
 30
0.0
  9
$EXTMAX
 10
148.0000000000019043
 20
82.0000000000000853
 30
0.0
  9
$LIMMIN
 10
0.0
 20
0.0
  9
$LIMMAX
 10
297.0
 20
210.0
  9
$ORTHOMODE
 70
     0
  9
$REGENMODE
 70
     1
  9
$FILLMODE
 70
     1
  9
$QTEXTMODE
 70
     0
  9
$MIRRTEXT
 70
     1
  9
$DRAGMODE
 70
     2
  9
$LTSCALE
 40
10.0
  9
$OSMODE
 70
   807
  9
$ATTMODE
 70
     1
  9
$TEXTSIZE
 40
3.0
  9
$TRACEWID
 40
1.0
  9
$TEXTSTYLE
  7
YOKO
  9
$CLAYER
  8
240
  9
$CELTYPE
  6
BYLAYER
  9
$CECOLOR
 62
   256
  9
$DIMSCALE
 40
1.0
  9
$DIMASZ
 40
2.2299999999999991
  9
$DIMEXO
 40
0.5
  9
$DIMDLI
 40
7.0
  9
$DIMRND
 40
0.0
  9
$DIMDLE
 40
0.0
  9
$DIMEXE
 40
1.0
  9
$DIMTP
 40
0.0
  9
$DIMTM
 40
0.01
  9
$DIMTXT
 40
2.799999999999998
  9
$DIMCEN
 40
0.0
  9
$DIMTSZ
 40
0.0
  9
$DIMTOL
 70
     0
  9
$DIMLIM
 70
     0
  9
$DIMTIH
 70
     0
  9
$DIMTOH
 70
     0
  9
$DIMSE1
 70
     0
  9
$DIMSE2
 70
     0
  9
$DIMTAD
 70
     3
  9
$DIMZIN
 70
     9
  9
$DIMBLK
  1
OPEN
  9
$DIMASO
 70
     1
  9
$DIMSHO
 70
     1
  9
$DIMPOST
  1

  9
$DIMAPOST
  1

  9
$DIMALT
 70
     0
  9
$DIMALTD
 70
     2
  9
$DIMALTF
 40
25.3999999999999986
  9
$DIMLFAC
 40
1.0
  9
$DIMTOFL
 70
     1
  9
$DIMTVP
 40
0.0
  9
$DIMTIX
 70
     1
  9
$DIMSOXD
 70
     0
  9
$DIMSAH
 70
     0
  9
$DIMBLK1
  1

  9
$DIMBLK2
  1

  9
$DIMSTYLE
  2
BIGT
  9
$DIMCLRD
 70
   256
  9
$DIMCLRE
 70
   256
  9
$DIMCLRT
 70
    40
  9
$DIMTFAC
 40
1.0
  9
$DIMGAP
 40
1.0
  9
$LUNITS
 70
     2
  9
$LUPREC
 70
     3
  9
$SKETCHINC
 40
1.0
  9
$FILLETRAD
 40
0.0
  9
$AUNITS
 70
     0
  9
$AUPREC
 70
     3
  9
$MENU
  1
.
  9
$ELEVATION
 40
0.0
  9
$PELEVATION
 40
0.0
  9
$THICKNESS
 40
0.0
  9
$LIMCHECK
 70
     0
  9
$BLIPMODE
 70
     0
  9
$CHAMFERA
 40
0.25
  9
$CHAMFERB
 40
0.25
  9
$SKPOLY
 70
     0
  9
$TDCREATE
 40
2458156.6410069451667368
  9
$TDUPDATE
 40
2458156.6942476849071681
  9
$TDINDWG
 40
0.0434143519
  9
$TDUSRTIMER
 40
0.0434143519
  9
$USRTIMER
 70
     1
  9
$ANGBASE
 50
0.0
  9
$ANGDIR
 70
     0
  9
$PDMODE
 70
     1
  9
$PDSIZE
 40
0.0
  9
$PLINEWID
 40
0.0
  9
$COORDS
 70
     1
  9
$SPLFRAME
 70
     0
  9
$SPLINETYPE
 70
     6
  9
$SPLINESEGS
 70
     4
  9
$ATTDIA
 70
     1
  9
$ATTREQ
 70
     1
  9
$HANDLING
 70
     1
  9
$HANDSEED
  5
1F23
  9
$SURFTAB1
 70
     6
  9
$SURFTAB2
 70
     6
  9
$SURFTYPE
 70
     6
  9
$SURFU
 70
     6
  9
$SURFV
 70
     6
  9
$UCSNAME
  2

  9
$UCSORG
 10
0.0
 20
0.0
 30
0.0
  9
$UCSXDIR
 10
1.0
 20
0.0
 30
0.0
  9
$UCSYDIR
 10
0.0
 20
1.0
 30
0.0
  9
$PUCSNAME
  2

  9
$PUCSORG
 10
0.0
 20
0.0
 30
0.0
  9
$PUCSXDIR
 10
1.0
 20
0.0
 30
0.0
  9
$PUCSYDIR
 10
0.0
 20
1.0
 30
0.0
  9
$USERI1
 70
     1
  9
$USERI2
 70
     0
  9
$USERI3
 70
     0
  9
$USERI4
 70
     0
  9
$USERI5
 70
     0
  9
$USERR1
 40
0.0
  9
$USERR2
 40
0.0
  9
$USERR3
 40
0.0
  9
$USERR4
 40
0.0
  9
$USERR5
 40
0.0
  9
$WORLDVIEW
 70
     1
  9
$SHADEDGE
 70
     3
  9
$SHADEDIF
 70
    70
  9
$TILEMODE
 70
     1
  9
$MAXACTVP
 70
    16
  9
$PLIMCHECK
 70
     0
  9
$PEXTMIN
 10
1.0000000000000000E+20
 20
1.0000000000000000E+20
 30
1.0000000000000000E+20
  9
$PEXTMAX
 10
-1.0000000000000000E+20
 20
-1.0000000000000000E+20
 30
-1.0000000000000000E+20
  9
$PLIMMIN
 10
0.0
 20
0.0
  9
$PLIMMAX
 10
420.0
 20
297.0
  9
$UNITMODE
 70
     0
  9
$VISRETAIN
 70
     1
  9
$PLINEGEN
 70
     0
  9
$PSLTSCALE
 70
     1
  0
ENDSEC
  0
SECTION
  2
TABLES
  0
TABLE
  2
VPORT
 70
     1
  0
VPORT
  2
*ACTIVE
 70
     0
 10
0.0
 20
0.0
 11
1.0
 21
1.0
 12
52.4545430195412266
 22
18.7864319338525192
 13
0.0
 23
0.0
 14
7.0
 24
7.0
 15
7.0
 25
7.0
 16
0.0
 26
0.0
 36
1.0
 17
0.0
 27
0.0
 37
0.0
 40
145.0177173525860894
 41
1.986180904522612
 42
50.0
 43
0.0
 44
0.0
 50
0.0
 51
0.0
 71
     0
 72
  2000
 73
     1
 74
     0
 75
     0
 76
     1
 77
     0
 78
     0
  0
ENDTAB
  0
TABLE
  2
LTYPE
 70
    21
  0
LTYPE
  2
CONTINUOUS
 70
     0
  3
Solid line
 72
    65
 73
     0
 40
0.0
  0
LTYPE
  2
CENTER2
 70
     0
  3
___ _ ___ _ ___ _ ___ _ ___ _ ___ _ ___ _ ___ _
 72
    65
 73
     4
 40
1.125
 49
0.75
 49
-0.125
 49
0.125
 49
-0.125
  0
LTYPE
  2
HIDDEN2
 70
     0
  3
_ _ _ _ _ _ _ _ _ _ _ _ _ _ _ _ _ _ _ _ _ _ _ _
 72
    65
 73
     2
 40
0.1875
 49
0.125
 49
-0.0625
  0
LTYPE
  2
PHANTOM2
 70
     0
  3
___ _ _ ___ _ _ ___ _ _ ___ _ _ ___ _ _ ___ _ _
 72
    65
 73
     6
 40
1.25
 49
0.625
 49
-0.125
 49
0.125
 49
-0.125
 49
0.125
 49
-0.125
  0
LTYPE
  2
CENTER
 70
     0
  3
____ _ ____ _ ____ _ ____ _ ____ _ ____ _ ____ 
 72
    65
 73
     4
 40
2.0
 49
1.25
 49
-0.25
 49
0.25
 49
-0.25
  0
LTYPE
  2
AMCONSTR
 70
     0
  3
_______________________
 72
    65
 73
     2
 40
9999.0
 49
9999.0
 49
0.0
  0
LTYPE
  2
HIDDEN
 70
     0
  3
Hidden __ __ __ __ __ __ __ __ __ __ __ __ __ _
 72
    65
 73
     2
 40
9.5249999999999986
 49
6.3499999999999979
 49
-3.174999999999998
  0
LTYPE
  2
AMZIGZAG2
 70
     0
  3
/\/-/\/-/\/-/\/-/\/-/\/
 72
    65
 73
     2
 40
0.4401
 49
0.0001
 49
-0.4400000000000002
  0
LTYPE
  2
ACANSTGB
 70
     0
  3
__ . . __ . .
 72
    65
 73
     6
 40
0.35433070866
 49
0.15748031496
 49
-0.03937007874
 49
0.03937007874
 49
-0.03937007874
 49
0.03937007874
 49
-0.03937007874
  0
LTYPE
  2
ACANSTGL
 70
     0
  3
_ _ _ _ _
 72
    65
 73
     2
 40
0.11811023622
 49
0.07874015748
 49
-0.03937007874
  0
ENDTAB
  0
TABLE
  2
LAYER
 70
     8
  0
LAYER
  2
0
 70
     0
 62
     7
  6
CONTINUOUS
  0
LAYER
  2
240
 70
     0
 62
     4
  6
CONTINUOUS
  0
LAYER
  2
DEFPOINTS
 70
     0
 62
     7
  6
CONTINUOUS
  0
LAYER
  2
245
 70
     0
 62
     2
  6
CENTER2
  0
LAYER
  2
241
 70
     0
 62
   211
  6
CONTINUOUS
  0
LAYER
  2
243
 70
     0
 62
   211
  6
HIDDEN2
  0
LAYER
  2
247
 70
     0
 62
    60
  6
CONTINUOUS
  0
LAYER
  2
250
 70
     0
 62
     3
  6
CONTINUOUS
  0
ENDTAB
  0
TABLE
  2
STYLE
 70
    10
  0
STYLE
  2
STANDARD
 70
     0
 40
0.0
 41
1.0
 50
0.0
 71
     0
 42
3.0
  3
romans.shx
  4
extfont.shx
  0
STYLE
  2
YOKO
 70
     0
 40
0.0
 41
1.0
 50
0.0
 71
     0
 42
3.0
  3
romans.shx
  4
extfont.shx
  0
STYLE
  2
ACANSGDT
 70
     0
 40
0.0
 41
1.0
 50
0.0
 71
     0
 42
3.0
  3
amgdt.shx
  4

  0
ENDTAB
  0
TABLE
  2
VIEW
 70
     0
  0
ENDTAB
  0
TABLE
  2
UCS
 70
     0
  0
ENDTAB
  0
TABLE
  2
APPID
 70
    46
  0
APPID
  2
ACAD
 70
     0
  0
APPID
  2
ACADANNOTATIVE
 70
     0
  0
APPID
  2
GLOBAL
 70
     0
  0
APPID
  2
DETAIL
 70
     0
  0
APPID
  2
GRPNAME
 70
     0
  0
APPID
  2
GPARA
 70
     0
  0
APPID
  2
MCAD_NO_VIS
 70
     0
  0
APPID
  2
ACAD_TEMP_GRAPHIC
 70
     0
  0
APPID
  2
ACATTRIBSERVICES
 70
     0
  0
APPID
  2
GENIUS_GENSCREG_15
 70
     0
  0
APPID
  2
GENIUS_GENODEF_13
 70
     0
  0
APPID
  2
GENIUS_GENOBJ-N-SDF_13
 70
     0
  0
APPID
  2
GENIUS_GENREC_14
 70
     0
  0
APPID
  2
GENIUS_GENOBJ-N-REC_13
 70
     0
  0
APPID
  2
GENIUS_GENDIMSH_14
 70
     0
  0
APPID
  2
GENIUS_GENOBJ-N-DIM_13
 70
     0
  0
APPID
  2
GENIUS_GENDIM_13
 70
     0
  0
APPID
  2
GENIUS_GENDTOL_13
 70
     0
  0
APPID
  2
GENIUS_GENOLIS_13
 70
     0
  0
APPID
  2
GENIUS_GENOENT_13
 70
     0
  0
APPID
  2
GENIUS_GENOBJ-F-FEM_13
 70
     0
  0
APPID
  2
GENIUS_GENOREF_13
 70
     0
  0
APPID
  2
GENIUS_GEFFEM_13
 70
     0
  0
APPID
  2
GENIUS_GEFFEMP_13
 70
     0
  0
APPID
  2
AD_DRAW
 70
     0
  0
APPID
  2
DESIGNERASSEMBLIES
 70
     0
  0
APPID
  2
ACADM_DIM_EDIT
 70
     0
  0
APPID
  2
AMDT_DM_ADJ
 70
     0
  0
APPID
  2
ACAD_NAV_VCDISPLAY
 70
     0
  0
APPID
  2
ITEMNAME
 70
     0
  0
APPID
  2
GENIUS_GENOBJ-N-FIL_13
 70
     0
  0
APPID
  2
ACAD_DSTYLE_DIMJAG
 70
     0
  0
APPID
  2
ACAD_DSTYLE_DIMBREAK
 70
     0
  0
APPID
  2
ACAECLAYERSTANDARD
 70
     0
  0
APPID
  2
LAYER_SCALE
 70
     0
  0
APPID
  2
ACAD_PSEXT
 70
     0
  0
APPID
  2
ACAD_EXEMPT_FROM_CAD_STANDARDS
 70
     0
  0
APPID
  2
ASK_MEN_XD
 70
     0
  0
APPID
  2
ACAD_DSTYLE_DIMINSPECT
 70
     0
  0
APPID
  2
ACADANNOMONITORALERTICONDI
 70
     0
  0
APPID
  2
ACAD_DSTYLE_DIMANGULAR_EXT
 70
     0
  0
APPID
  2
ACAD_MLEADERVER
 70
     0
  0
APPID
  2
ACAD_DSTYLE_DIMARC_LENGTH_
 70
     0
  0
APPID
  2
ACAD_DSTYLE_DIM_LINETYPE
 70
     0
  0
APPID
  2
ACAD_DSTYLE_DIM_EXT1_LINETYPE
 70
     0
  0
APPID
  2
ACAD_DSTYLE_DIM_EXT2_LINETYPE
 70
     0
  0
ENDTAB
  0
TABLE
  2
DIMSTYLE
 70
    31
  0
DIMSTYLE
  2
STANDARD
 70
     0
  3

  4

  5

  6

  7

 40
1.0
 41
0.18
 42
0.0625
 43
0.38
 44
0.18
 45
0.0
 46
0.0
 47
0.0
 48
0.0
140
0.18
141
0.09
142
0.0
143
25.3999999999999986
144
1.0
145
0.0
146
1.0
147
0.09
 71
     0
 72
     0
 73
     1
 74
     1
 75
     0
 76
     0
 77
     0
 78
     0
170
     0
171
     2
172
     0
173
     0
174
     0
175
     0
176
     0
177
     0
178
     0
  0
DIMSTYLE
  2
BIGT
 70
     0
  3

  4

  5

  6

  7

 40
1.0
 41
2.2299999999999991
 42
0.5
 43
7.0
 44
1.0
 45
0.0
 46
0.0
 47
0.0
 48
0.01
140
2.799999999999998
141
0.0
142
0.0
143
25.3999999999999986
144
1.0
145
0.0
146
1.0
147
1.0
 71
     0
 72
     0
 73
     0
 74
     0
 75
     0
 76
     0
 77
     3
 78
     9
170
     0
171
     2
172
     1
173
     0
174
     1
175
     0
176
   256
177
   256
178
    40
  0
DIMSTYLE
  2
AM_ANSI
 70
     0
  3

  4
mm
  5

  6

  7

 40
1.0
 41
0.12
 42
0.05
 43
0.5
 44
0.1
 45
0.0
 46
0.0
 47
0.1
 48
0.1
140
0.12
141
0.0
142
0.0
143
25.3999999999999986
144
1.0
145
0.0
146
0.71
147
0.06
 71
     0
 72
     0
 73
     1
 74
     1
 75
     0
 76
     0
 77
     0
 78
     7
170
     0
171
     2
172
     0
173
     0
174
     0
175
     0
176
   256
177
   256
178
     3
  0
DIMSTYLE
  2
AM_ANSI$3
 70
     0
  3

  4
mm
  5

  6

  7

 40
1.0
 41
0.12
 42
0.05
 43
0.5
 44
0.1
 45
0.0
 46
0.0
 47
0.1
 48
0.1
140
0.12
141
0.0
142
0.0
143
25.3999999999999986
144
1.0
145
0.0
146
0.71
147
0.06
 71
     0
 72
     0
 73
     1
 74
     1
 75
     0
 76
     0
 77
     0
 78
     7
170
     0
171
     2
172
     0
173
     0
174
     0
175
     0
176
   256
177
   256
178
     3
  0
DIMSTYLE
  2
AM_ANSI$4
 70
     0
  3

  4
mm
  5

  6

  7

 40
1.0
 41
0.12
 42
0.05
 43
0.5
 44
0.1
 45
0.0
 46
0.0
 47
0.1
 48
0.1
140
0.12
141
0.0
142
0.0
143
25.3999999999999986
144
1.0
145
0.0
146
0.71
147
0.06
 71
     0
 72
     0
 73
     1
 74
     1
 75
     0
 76
     0
 77
     0
 78
     7
170
     0
171
     2
172
     0
173
     0
174
     0
175
     0
176
   256
177
   256
178
     3
  0
DIMSTYLE
  2
AM_ANSI$7
 70
     0
  3

  4
mm
  5

  6

  7

 40
1.0
 41
0.12
 42
0.05
 43
0.5
 44
0.1
 45
0.0
 46
0.0
 47
0.1
 48
0.1
140
0.12
141
0.0
142
0.0
143
25.3999999999999986
144
1.0
145
0.0
146
0.71
147
0.06
 71
     0
 72
     0
 73
     1
 74
     1
 75
     0
 76
     0
 77
     0
 78
     7
170
     0
171
     2
172
     0
173
     0
174
     0
175
     0
176
   256
177
   256
178
     3
  0
DIMSTYLE
  2
AM_ANSI$SF
 70
     0
  3

  4
mm
  5

  6

  7

 40
1.0
 41
0.12
 42
0.05
 43
0.5
 44
0.1
 45
0.0
 46
0.0
 47
0.1
 48
0.1
140
0.12
141
0.0
142
0.0
143
25.3999999999999986
144
1.0
145
0.0
146
0.71
147
0.06
 71
     0
 72
     0
 73
     1
 74
     1
 75
     1
 76
     1
 77
     0
 78
     7
170
     0
171
     2
172
     0
173
     0
174
     0
175
     0
176
   256
177
   256
178
     3
  0
DIMSTYLE
  2
AM_ANSI$SH
 70
     0
  3

  4
mm
  5

  6

  7

 40
1.0
 41
0.12
 42
0.05
 43
0.5
 44
0.1
 45
0.0
 46
0.0
 47
0.1
 48
0.1
140
0.12
141
0.0
142
0.0
143
25.3999999999999986
144
1.0
145
0.0
146
0.71
147
0.06
 71
     0
 72
     0
 73
     1
 74
     1
 75
     1
 76
     1
 77
     0
 78
     7
170
     0
171
     2
172
     0
173
     1
174
     0
175
     0
176
   256
177
   256
178
     3
  0
ENDTAB
  0
ENDSEC
  0
SECTION
  2
BLOCKS
  0
BLOCK
  8
0
  2
$MODEL_SPACE
 70
     0
 10
0.0
 20
0.0
 30
0.0
  3
$MODEL_SPACE
  1

  0
ENDBLK
  5
1DDC
  8
0
  0
BLOCK
 67
     1
  8
0
  2
$PAPER_SPACE
 70
     0
 10
0.0
 20
0.0
 30
0.0
  3
$PAPER_SPACE
  1

  0
ENDBLK
  5
1DD8
 67
     1
  8
0
  0
BLOCK
  8
0
  2
_OPEN
 70
     0
 10
0.0
 20
0.0
 30
0.0
  3
_OPEN
  1

  0
LINE
  5
595
  8
0
  6
BYBLOCK
 62
     0
 10
-1.0
 20
0.1666666666666666
 30
0.0
 11
0.0
 21
0.0
 31
0.0
  0
LINE
  5
596
  8
0
  6
BYBLOCK
 62
     0
 10
-1.0
 20
-0.1666666666666666
 30
0.0
 11
0.0
 21
0.0
 31
0.0
  0
LINE
  5
597
  8
0
  6
BYBLOCK
 62
     0
 10
0.0
 20
0.0
 30
0.0
 11
-1.0
 21
0.0
 31
0.0
  0
ENDBLK
  5
599
  8
0
  0
BLOCK
  8
0
  2
_ACMFILLEDHALF
 70
     0
 10
0.0
 20
0.0
 30
0.0
  3
_ACMFILLEDHALF
  1

  0
TRACE
  5
1EA6
  8
240
 62
     0
 10
-0.8
 20
0.0
 30
0.0
 11
-1.0
 21
0.166666666
 31
0.0
 12
0.0
 22
0.0
 32
0.0
 13
0.0
 23
0.0
 33
0.0
  0
LINE
  5
1EA7
  8
240
 62
     0
 10
-1.0
 20
0.0
 30
0.0
 11
-0.8
 21
0.0
 31
0.0
  0
ENDBLK
  5
1EA5
  8
0
  0
ENDSEC
  0
SECTION
  2
ENTITIES
  0
LINE
  5
1441
  8
241
  6
CONTINUOUS
 10
26.9999999999998899
 20
-31.5000000000004299
 30
0.0
 11
26.9999999999997691
 21
31.5000000000003801
 31
0.0
  0
LINE
  5
1442
  8
240
  6
CONTINUOUS
 10
-65.4000000000001194
 20
-12.6875000000000302
 30
0.0
 11
-65.4000000000000909
 21
12.6875000000002007
 31
0.0
  0
LINE
  5
1443
  8
240
  6
CONTINUOUS
 10
0.9999999999997442
 20
-31.4999999999996305
 30
0.0
 11
0.9999999999998574
 21
-22.2250000000000512
 31
0.0
  0
LINE
  5
1444
  8
241
  6
CONTINUOUS
 10
-0.0000000000000853
 20
-22.2250000000000014
 30
0.0
 11
0.0000000000000853
 21
22.2250000000001187
 31
0.0
  0
LINE
  5
1445
  8
240
  6
CONTINUOUS
 10
-0.0000000000001137
 20
-22.2250000000000014
 30
0.0
 11
-65.4000000000001194
 21
-12.6875000000000302
 31
0.0
  0
LINE
  5
1446
  8
240
  6
CONTINUOUS
 10
26.9999999999998295
 20
-31.5000000000004299
 30
0.0
 11
21.6344943473333089
 21
-31.5000000000007105
 31
0.0
  0
LINE
  5
1447
  8
243
  6
HIDDEN2
 10
22.9999999999998899
 20
-22.4999999999999716
 30
0.0
 11
22.9999999999998899
 21
-31.4999999999999716
 31
0.0
  0
LINE
  5
1448
  8
240
  6
CONTINUOUS
 10
0.9999999999997442
 20
-31.4999999999996305
 30
0.0
 11
11.5655056526661006
 21
-31.5000000000002984
 31
0.0
  0
LINE
  5
1449
  8
243
  6
HIDDEN2
 10
22.9999999999998899
 20
-22.4999999999999716
 30
0.0
 11
0.9999999999998864
 21
-22.4999999999999716
 31
0.0
  0
LINE
  5
144A
  8
245
  6
CENTER2
 10
-66.4000000000001762
 20
0.0000000000000853
 30
0.0
 11
127.9608380866635002
 21
0.0
 31
0.0
  0
LINE
  5
144B
  8
240
  6
CONTINUOUS
 10
14.4522569986148604
 20
-26.499999999999801
 30
0.0
 11
11.5655056526662392
 21
-31.5000000000004299
 31
0.0
  0
LINE
  5
144C
  8
240
  6
CONTINUOUS
 10
18.7477430013853983
 20
-26.5000000000000284
 30
0.0
 11
21.6344943473343392
 21
-31.5000000000004299
 31
0.0
  0
LINE
  5
144D
  8
240
  6
CONTINUOUS
 10
14.4522569986145299
 20
-26.4999999999995204
 30
0.0
 11
18.7477430013853983
 21
-26.5000000000000284
 31
0.0
  0
LINE
  5
144E
  8
241
  6
CONTINUOUS
 10
11.5655056526661006
 20
31.5000000000004299
 30
0.0
 11
11.5655056526662392
 21
-31.5000000000004299
 31
0.0
  0
LINE
  5
144F
  8
241
  6
CONTINUOUS
 10
14.4522569986145299
 20
-26.4999999999995204
 30
0.0
 11
14.4522569986144003
 21
26.4999999999993996
 31
0.0
  0
LINE
  5
1450
  8
241
  6
CONTINUOUS
 10
18.7477430013852917
 20
-26.4999999999998614
 30
0.0
 11
18.7477430013853983
 21
26.4999999999999716
 31
0.0
  0
LINE
  5
1451
  8
241
  6
CONTINUOUS
 10
21.6344943473333089
 20
-31.5000000000007105
 30
0.0
 11
21.6344943473333693
 21
31.5000000000006608
 31
0.0
  0
LINE
  5
1452
  8
240
  6
CONTINUOUS
 10
-0.0000000000000853
 20
-22.2250000000000014
 30
0.0
 11
0.9999999999998574
 21
-22.2250000000000512
 31
0.0
  0
LINE
  5
1453
  8
241
  6
CONTINUOUS
 10
0.9999999999998574
 20
-22.2249999999998202
 30
0.0
 11
0.9999999999998574
 21
22.2249999999998202
 31
0.0
  0
LINE
  5
1454
  8
240
  6
CONTINUOUS
 10
0.9999999999998292
 20
31.4999999999996909
 30
0.0
 11
0.9999999999999148
 21
22.2250000000000512
 31
0.0
  0
LINE
  5
1455
  8
240
  6
CONTINUOUS
 10
-0.0000000000000568
 20
22.2250000000000014
 30
0.0
 11
-65.4000000000000909
 21
12.6875000000002007
 31
0.0
  0
LINE
  5
1456
  8
240
  6
CONTINUOUS
 10
26.9999999999998295
 20
31.5000000000003801
 30
0.0
 11
21.6344943473333693
 21
31.5000000000007105
 31
0.0
  0
LINE
  5
1457
  8
243
  6
HIDDEN2
 10
22.9999999999999396
 20
22.4999999999999183
 30
0.0
 11
23.0
 21
31.4999999999999112
 31
0.0
  0
LINE
  5
1458
  8
240
  6
CONTINUOUS
 10
0.9999999999998292
 20
31.4999999999996909
 30
0.0
 11
11.5655056526661895
 21
31.5000000000003801
 31
0.0
  0
LINE
  5
1459
  8
243
  6
HIDDEN2
 10
22.9999999999999396
 20
22.4999999999999183
 30
0.0
 11
0.9999999999999429
 21
22.5000000000000284
 31
0.0
  0
LINE
  5
145A
  8
240
  6
CONTINUOUS
 10
14.4522569986149794
 20
26.499999999999801
 30
0.0
 11
11.5655056526663298
 21
31.5000000000004299
 31
0.0
  0
LINE
  5
145B
  8
240
  6
CONTINUOUS
 10
18.7477430013855084
 20
26.5000000000000284
 30
0.0
 11
21.6344943473344493
 21
31.5000000000003801
 31
0.0
  0
LINE
  5
145C
  8
240
  6
CONTINUOUS
 10
14.4522569986145903
 20
26.49999999999946
 30
0.0
 11
18.7477430013855084
 21
26.5000000000000284
 31
0.0
  0
LINE
  5
145D
  8
240
  6
CONTINUOUS
 10
-0.0000000000000284
 20
22.2250000000000512
 30
0.0
 11
0.9999999999999148
 21
22.2250000000000512
 31
0.0
  0
LINE
  5
145E
  8
247
  6
CONTINUOUS
 10
7.999999999999857
 20
-18.2500000000699991
 30
0.0
 11
7.999999999999857
 21
-11.5576923080299991
 31
0.0
  0
ARC
  5
145F
  8
247
  6
CONTINUOUS
 10
6.2500000000698321
 20
-18.2500000000699991
 30
0.0
 40
1.7499999999299991
 50
180.0
 51
0.0
  0
ARC
  5
1460
  8
247
  6
CONTINUOUS
 10
6.2500000000698321
 20
-11.5576923080299991
 30
0.0
 40
1.7499999999299991
 50
0.0
 51
180.0
  0
LINE
  5
1461
  8
247
  6
CONTINUOUS
 10
4.5000000001398632
 20
-17.3846153847199787
 30
0.0
 11
7.5000000000198659
 21
-18.2448515419619888
 31
0.0
  0
LINE
  5
1462
  8
247
  6
CONTINUOUS
 10
5.923076923159865
 20
-16.4849838183357917
 30
0.0
 11
5.923076923159865
 21
-17.7926761259758095
 31
0.0
  0
ARC
  5
1463
  8
247
  6
CONTINUOUS
 10
5.0495986677028384
 20
-16.1451438160897602
 30
0.0
 40
0.5538165441895349
 50
72.9978896752917734
 51
172.9241662185135908
  0
ARC
  5
1464
  8
247
  6
CONTINUOUS
 10
4.9360330444656313
 20
-16.5668783230287602
 30
0.0
 40
0.9904354236226808
 50
4.7429368522022122
 51
73.8492262732662965
1001
GENIUS_GENOBJ-N-FIL_13
1002
{
1000
OWNER
1000
GEN
1002
}
1001
GENIUS_GENODEF_13
1002
{
1000
HIER
1070
     0
1002
}
1002
{
1000
MANEDIT
1070
     0
1002
}
1002
{
1000
NOSEL
1070
     0
1002
}
1002
{
1000
BEHIND
1070
     0
1002
}
1002
{
1000
OTHER
1070
     0
1002
}
1002
{
1000
REACTOR
1002
}
  0
LINE
  5
1465
  8
247
  6
CONTINUOUS
 10
7.5000000000198659
 20
-16.9371592343220208
 30
0.0
 11
7.5000000000198659
 21
-18.2448515419619888
 31
0.0
  0
LINE
  5
1466
  8
247
  6
CONTINUOUS
 10
4.5000000001398632
 20
-17.3846153847199787
 30
0.0
 11
4.5000000001398632
 21
-16.0769230770799503
 31
0.0
  0
ARC
  5
1467
  8
247
  6
CONTINUOUS
 10
6.4820242326653954
 20
-16.56091963654697
 30
0.0
 40
0.5640818586791229
 50
65.990941652528889
 51
172.2634434590690944
  0
ARC
  5
1468
  8
247
  6
CONTINUOUS
 10
6.4874290391864227
 20
-17.0382626853470605
 30
0.0
 40
1.0176059446230981
 50
5.701985164259785
 51
77.2773384368223759
1001
GENIUS_GENOBJ-N-FIL_13
1002
{
1000
OWNER
1000
GEN
1002
}
1001
GENIUS_GENODEF_13
1002
{
1000
HIER
1070
     0
1002
}
1002
{
1000
MANEDIT
1070
     0
1002
}
1002
{
1000
NOSEL
1070
     0
1002
}
1002
{
1000
BEHIND
1070
     0
1002
}
1002
{
1000
OTHER
1070
     0
1002
}
1002
{
1000
REACTOR
1002
}
  0
LINE
  5
1469
  8
247
  6
CONTINUOUS
 10
7.5000000000198659
 20
-15.2833130805419994
 30
0.0
 11
4.5000000001398632
 21
-14.4230769232999894
 31
0.0
  0
LINE
  5
146A
  8
247
  6
CONTINUOUS
 10
4.5000000001398632
 20
-12.00000000032
 30
0.0
 11
4.5000000001398632
 21
-12.5657366194565991
 31
0.0
  0
LINE
  5
146B
  8
247
  6
CONTINUOUS
 10
7.5000000000198659
 20
-13.4615384617999592
 30
0.0
 11
7.5000000000198659
 21
-12.8461538464399894
 31
0.0
  0
ARC
  5
146C
  8
247
  6
CONTINUOUS
 10
6.5832851359732274
 20
-11.7087912091228308
 30
0.0
 40
2.2526500823422122
 50
202.3594881415291127
 51
254.9932485428460893
  0
ARC
  5
146D
  8
247
  6
CONTINUOUS
 10
5.3083126551943831
 20
-12.3740694792131993
 30
0.0
 40
0.8906723995727782
 50
94.9945893190753168
 51
155.1663289573039037
1001
GENIUS_GENOBJ-N-FIL_13
1002
{
1000
OWNER
1000
GEN
1002
}
1001
GENIUS_GENODEF_13
1002
{
1000
HIER
1070
     0
1002
}
1002
{
1000
MANEDIT
1070
     0
1002
}
1002
{
1000
NOSEL
1070
     0
1002
}
1002
{
1000
BEHIND
1070
     0
1002
}
1002
{
1000
OTHER
1070
     0
1002
}
1002
{
1000
REACTOR
1002
}
  0
ARC
  5
146E
  8
247
  6
CONTINUOUS
 10
6.1601458886676381
 20
-13.2264588862125496
 30
0.0
 40
1.392781735586712
 50
15.8460965557808002
 51
82.3251370041690649
  0
ARC
  5
146F
  8
247
  6
CONTINUOUS
 10
6.4592434315271401
 20
-12.6422127258403805
 30
0.0
 40
1.324563662670287
 50
249.7136016704968995
 51
321.7887456564092759
1001
GENIUS_GENOBJ-N-FIL_13
1002
{
1000
OWNER
1000
GEN
1002
}
1001
GENIUS_GENODEF_13
1002
{
1000
HIER
1070
     0
1002
}
1002
{
1000
MANEDIT
1070
     0
1002
}
1002
{
1000
NOSEL
1070
     0
1002
}
1002
{
1000
BEHIND
1070
     0
1002
}
1002
{
1000
OTHER
1070
     0
1002
}
1002
{
1000
REACTOR
1002
}
  0
LINE
  5
1470
  8
247
  6
CONTINUOUS
 10
6.3461538462198321
 20
-12.53846153876
 30
0.0
 11
6.3461538462198321
 21
-11.84615384648
 31
0.0
  0
LINE
  5
1471
  8
250
  6
CONTINUOUS
 10
-34.1368727750733001
 20
-19.2016533171059507
 30
0.0
 11
-32.7000000000001023
 21
-17.4562499999999794
 31
0.0
  0
LINE
  5
1472
  8
250
  6
CONTINUOUS
 10
-33.4931272249268801
 20
-19.5733199837726204
 30
0.0
 11
-32.7000000000001023
 21
-17.4562499999999794
 31
0.0
  0
LINE
  5
1473
  8
250
  6
CONTINUOUS
 10
-32.7000000000001023
 20
-17.4562499999999794
 30
0.0
 11
-33.8150000000001185
 21
-19.3874866504392784
 31
0.0
  0
LINE
  5
1474
  8
250
  6
CONTINUOUS
 10
-33.8150000000001185
 20
-19.3874866504392784
 30
0.0
 11
-38.3631300681913103
 21
-27.2650790079781906
 31
0.0
1001
ACAD
1000
DSTYLE
1002
{
1070
   140
1040
4.0
1070
   178
1070
   256
1002
}
  0
TEXT
  5
1475
  8
250
  6
CONTINUOUS
 10
-53.8297967348579505
 20
-26.2650790079781906
 30
0.0
 40
2.799999999999998
  1
BBT40
  7
YOKO
1001
ITEMNAME
1000
LNSP3
  0
LINE
  5
1476
  8
250
  6
CONTINUOUS
 10
-38.3631300681913103
 20
-27.2650790079781906
 30
0.0
 11
-56.0964634015246375
 21
-27.2650790079781906
 31
0.0
1001
ITEMNAME
1000
LNSP2
  0
LINE
  5
1477
  8
247
  6
CONTINUOUS
 10
4.500000000139833
 20
-18.2500000000699991
 30
0.0
 11
4.500000000139833
 21
-17.5769230770200409
 31
0.0
  0
TEXT
  5
14BA
  8
241
  6
CONTINUOUS
 10
-70.0
 20
77.0000000000000711
 30
0.0
 40
5.0
  1
BBT40-HDC1.250-5
  7
YOKO
 11
-70.0
 21
77.0000000000000711
 31
0.0
 73
     1
  0
LINE
  5
150E
  8
240
  6
CONTINUOUS
 10
27.0500000000010807
 20
-31.4500000000001414
 30
0.0
 11
27.0000000000002593
 21
-31.5000000000000711
 31
0.0
  0
LINE
  5
1514
  8
241
  6
CONTINUOUS
 10
46.200000000000351
 20
31.4500000000001805
 30
0.0
 11
46.1999999999991573
 21
-31.4499999999997399
 31
0.0
  0
LINE
  5
1515
  8
241
  6
CONTINUOUS
 10
65.5999999999999375
 20
31.4500000000001592
 30
0.0
 11
65.5999999999988006
 21
-31.4499999999997399
 31
0.0
  0
LINE
  5
1516
  8
241
  6
CONTINUOUS
 10
48.1999999999927269
 20
-31.4500000000002302
 30
0.0
 11
48.1999999999927127
 21
31.4500000000001805
 31
0.0
  0
LINE
  5
1517
  8
241
  6
CONTINUOUS
 10
63.6000000000052168
 20
-31.4500000000001698
 30
0.0
 11
63.6000000000075971
 21
31.4500000000001592
 31
0.0
  0
LINE
  5
1524
  8
241
  6
CONTINUOUS
 10
104.2995357881171969
 20
-31.4500000000001414
 30
0.0
 11
104.2995357881173959
 21
31.4500000000001201
 31
0.0
  0
LINE
  5
1525
  8
241
  6
CONTINUOUS
 10
98.2995357881202239
 20
-31.4500000000001414
 30
0.0
 11
98.2995357881201812
 21
31.4500000000001201
 31
0.0
  0
LINE
  5
1526
  8
241
  6
CONTINUOUS
 10
96.2995357880937632
 20
-31.4500000000001414
 30
0.0
 11
96.2995357880937632
 21
31.4500000000001201
 31
0.0
  0
LINE
  5
1527
  8
241
  6
CONTINUOUS
 10
90.2995357880876099
 20
-31.4500000000001414
 30
0.0
 11
90.2995357880872689
 21
31.4500000000001414
 31
0.0
  0
LINE
  5
1528
  8
240
  6
CONTINUOUS
 10
127.000000000000199
 20
-28.6735846392913807
 30
0.0
 11
126.9999999999990052
 21
28.6735846392919314
 31
0.0
  0
LINE
  5
1529
  8
240
  6
CONTINUOUS
 10
127.000000000000199
 20
-28.6735846392913807
 30
0.0
 11
121.0459580447513019
 21
-31.4500000000001414
 31
0.0
  0
LINE
  5
1530
  8
241
  6
CONTINUOUS
 10
76.1000000000022396
 20
-31.4499999999996014
 30
0.0
 11
76.1000000000020549
 21
31.4500000000001592
 31
0.0
  0
LINE
  5
1531
  8
241
  6
CONTINUOUS
 10
74.9000000000023078
 20
-31.4500000000001982
 30
0.0
 11
74.9000000000019241
 21
31.4500000000001485
 31
0.0
  0
LINE
  5
1541
  8
241
  6
CONTINUOUS
 10
121.0459580447513019
 20
-31.4500000000001485
 30
0.0
 11
121.045958044751103
 21
31.4500000000002409
 31
0.0
  0
LINE
  5
1566
  8
240
  6
CONTINUOUS
 10
27.0500000000011092
 20
31.4500000000002089
 30
0.0
 11
27.0000000000002913
 21
31.5000000000001386
 31
0.0
  0
LINE
  5
1567
  8
240
  6
CONTINUOUS
 10
126.9999999999990052
 20
28.6735846392919314
 30
0.0
 11
121.0459580447513019
 21
31.4500000000001094
 31
0.0
  0
LINE
  5
1568
  8
240
  6
CONTINUOUS
 10
121.0459580447513019
 20
31.4500000000001094
 30
0.0
 11
27.0500000000011092
 21
31.4500000000002089
 31
0.0
  0
LINE
  5
16A1
  8
243
  6
HIDDEN2
 10
70.9999999999994031
 20
15.875
 30
0.0
 11
126.9999999999994031
 21
15.875
 31
0.0
  0
LINE
  5
16A2
  8
243
  6
HIDDEN2
 10
70.9999999999998437
 20
-15.8749999999999503
 30
0.0
 11
126.9999999999994031
 21
-15.8749999999999893
 31
0.0
  0
INSERT
  5
17B2
  8
250
  6
CONTINUOUS
  2
_OPEN
 10
36.9999999999989697
 20
33.5015269270167479
 30
0.0
 41
1.999999999999994
 42
1.999999999999994
 43
1.999999999999994
 50
269.9999999999997158
1001
ACAD
1000
DSTYLE
1002
{
1070
    41
1040
2.0
1070
   140
1040
2.799999999999998
1002
}
  0
POLYLINE
  5
17B3
  8
250
  6
CONTINUOUS
 66
     1
 10
0.0
 20
0.0
 30
0.0
1001
ACAD
1000
DSTYLE
1002
{
1070
    41
1040
2.0
1070
   140
1040
2.799999999999998
1002
}
  0
VERTEX
  5
17B4
  8
250
  6
CONTINUOUS
 10
36.9999999999989768
 20
35.5015269270166982
 30
0.0
  0
VERTEX
  5
17B5
  8
250
  6
CONTINUOUS
 10
36.9999999999990266
 20
41.4908257140694374
 30
0.0
  0
SEQEND
  5
17B6
  8
250
  6
CONTINUOUS
  0
TEXT
  5
17B7
  8
250
  6
CONTINUOUS
 10
30.4518524072196897
 20
42.6641526960348898
 30
0.0
 40
3.0
  1
Screw
  7
YOKO
 11
30.4518524072196897
 21
42.6641526960348898
 31
0.0
 73
     1
  0
LINE
  5
1BFC
  8
250
  6
CONTINUOUS
 10
126.9999999999990052
 20
29.1735846392919207
 30
0.0
 11
126.9999999999990052
 21
64.0
 31
0.0
  0
LINE
  5
1BFD
  8
250
  6
CONTINUOUS
 10
-0.0000000000000568
 20
22.7250000000000014
 30
0.0
 11
-0.0000000000000542
 21
64.0
 31
0.0
  0
LINE
  5
1BFE
  8
250
  6
CONTINUOUS
 10
124.7699999999990013
 20
63.0
 30
0.0
 11
2.229999999999944
 21
63.0
 31
0.0
  0
LINE
  5
1C02
  8
250
  6
CONTINUOUS
 10
124.7699999999990013
 20
63.3716666666666626
 30
0.0
 11
126.9999999999990052
 21
63.0
 31
0.0
  0
LINE
  5
1C03
  8
250
  6
CONTINUOUS
 10
124.7699999999990013
 20
62.6283333333333303
 30
0.0
 11
126.9999999999990052
 21
63.0
 31
0.0
  0
LINE
  5
1C04
  8
250
  6
CONTINUOUS
 10
126.9999999999990052
 20
63.0
 30
0.0
 11
124.7699999999990013
 21
63.0
 31
0.0
  0
LINE
  5
1C05
  8
250
  6
CONTINUOUS
 10
126.9999999999990052
 20
29.1735846392919207
 30
0.0
 11
126.9999999999990052
 21
56.9999999999999929
 31
0.0
  0
LINE
  5
1C06
  8
250
  6
CONTINUOUS
 10
44.8999999999995225
 20
16.2500000000004512
 30
0.0
 11
44.8999999999995225
 21
56.9999999999999929
 31
0.0
  0
LINE
  5
1C07
  8
250
  6
CONTINUOUS
 10
124.7699999999990013
 20
55.9999999999999929
 30
0.0
 11
47.1299999999995194
 21
55.9999999999999929
 31
0.0
  0
LINE
  5
1C0B
  8
250
  6
CONTINUOUS
 10
2.229999999999944
 20
62.6283333333333303
 30
0.0
 11
-0.0000000000000543
 21
63.0
 31
0.0
  0
LINE
  5
1C0C
  8
250
  6
CONTINUOUS
 10
2.229999999999944
 20
63.3716666666666626
 30
0.0
 11
-0.0000000000000543
 21
63.0
 31
0.0
  0
LINE
  5
1C0D
  8
250
  6
CONTINUOUS
 10
-0.0000000000000543
 20
63.0
 30
0.0
 11
2.229999999999944
 21
63.0
 31
0.0
  0
LINE
  5
1C0E
  8
250
  6
CONTINUOUS
 10
47.1299999999995194
 20
55.628333333333309
 30
0.0
 11
44.8999999999995225
 21
55.9999999999999929
 31
0.0
  0
LINE
  5
1C0F
  8
250
  6
CONTINUOUS
 10
47.1299999999995194
 20
56.3716666666666484
 30
0.0
 11
44.8999999999995225
 21
55.9999999999999929
 31
0.0
  0
LINE
  5
1C10
  8
250
  6
CONTINUOUS
 10
44.8999999999995225
 20
55.9999999999999929
 30
0.0
 11
47.1299999999995194
 21
55.9999999999999929
 31
0.0
  0
TEXT
  5
1C11
  8
250
  6
CONTINUOUS
 10
58.8333333333328099
 20
64.0000000000000142
 30
0.0
 40
2.799999999999998
  1
5.00
  0
TEXT
  5
1C12
  8
250
  6
CONTINUOUS
 10
74.3499999999992838
 20
58.1999999999999886
 30
0.0
 40
2.799999999999998
  1
(max.3.23)
  0
LINE
  5
1C13
  8
250
  6
CONTINUOUS
 10
124.7699999999990013
 20
56.3716666666666484
 30
0.0
 11
126.9999999999990052
 21
55.9999999999999929
 31
0.0
  0
LINE
  5
1C14
  8
250
  6
CONTINUOUS
 10
124.7699999999990013
 20
55.628333333333309
 30
0.0
 11
126.9999999999990052
 21
55.9999999999999929
 31
0.0
  0
LINE
  5
1C15
  8
250
  6
CONTINUOUS
 10
126.9999999999990052
 20
55.9999999999999929
 30
0.0
 11
124.7699999999990013
 21
55.9999999999999929
 31
0.0
  0
LINE
  5
1C16
  8
250
  6
CONTINUOUS
 10
121.545958044751103
 20
31.4500000000001201
 30
0.0
 11
148.0000000000019043
 21
31.4500000000001201
 31
0.0
  0
LINE
  5
1C17
  8
250
  6
CONTINUOUS
 10
121.5459580447513019
 20
-31.4500000000001698
 30
0.0
 11
148.0000000000019043
 21
-31.4500000000001592
 31
0.0
  0
LINE
  5
1C18
  8
250
  6
CONTINUOUS
 10
147.0000000000019043
 20
29.2200000000001303
 30
0.0
 11
147.0000000000019043
 21
-29.2200000000001587
 31
0.0
  0
LINE
  5
1C1C
  8
250
  6
CONTINUOUS
 10
146.6283333333352061
 20
29.2200000000001303
 30
0.0
 11
147.0000000000019043
 21
31.4500000000001201
 31
0.0
  0
LINE
  5
1C1D
  8
250
  6
CONTINUOUS
 10
147.3716666666686024
 20
29.2200000000001303
 30
0.0
 11
147.0000000000019043
 21
31.4500000000001201
 31
0.0
  0
LINE
  5
1C1E
  8
250
  6
CONTINUOUS
 10
147.0000000000019043
 20
31.4500000000001201
 30
0.0
 11
147.0000000000019043
 21
29.2200000000001303
 31
0.0
  0
LINE
  5
1C1F
  8
250
  6
CONTINUOUS
 10
147.3716666666686024
 20
-29.2200000000001587
 30
0.0
 11
147.0000000000019043
 21
-31.4500000000001592
 31
0.0
  0
LINE
  5
1C20
  8
250
  6
CONTINUOUS
 10
146.6283333333352061
 20
-29.2200000000001587
 30
0.0
 11
147.0000000000019043
 21
-31.4500000000001592
 31
0.0
  0
LINE
  5
1C21
  8
250
  6
CONTINUOUS
 10
147.0000000000019043
 20
-31.4500000000001592
 30
0.0
 11
147.0000000000019043
 21
-29.2200000000001587
 31
0.0
  0
TEXT
  5
1C22
  8
250
  6
CONTINUOUS
 10
146.0000000000019043
 20
-7.2666666666667261
 30
0.0
 40
2.799999999999998
  1
\U+22052.476
 50
90.0
  0
LINE
  5
1C23
  8
250
  6
CONTINUOUS
 10
127.4999999999995026
 20
15.8750000000000107
 30
0.0
 11
141.0000000000019043
 21
15.8750000000000107
 31
0.0
  0
LINE
  5
1C24
  8
250
  6
CONTINUOUS
 10
127.5
 20
-15.875
 30
0.0
 11
141.0000000000019043
 21
-15.875
 31
0.0
  0
LINE
  5
1C25
  8
250
  6
CONTINUOUS
 10
140.0000000000019043
 20
13.6450000000000102
 30
0.0
 11
140.0000000000019043
 21
-13.6449999999999996
 31
0.0
  0
LINE
  5
1C29
  8
250
  6
CONTINUOUS
 10
139.6283333333352061
 20
13.6450000000000102
 30
0.0
 11
140.0000000000019043
 21
15.8750000000000107
 31
0.0
  0
LINE
  5
1C2A
  8
250
  6
CONTINUOUS
 10
140.3716666666686024
 20
13.6450000000000102
 30
0.0
 11
140.0000000000019043
 21
15.8750000000000107
 31
0.0
  0
LINE
  5
1C2B
  8
250
  6
CONTINUOUS
 10
140.0000000000019043
 20
15.8750000000000107
 30
0.0
 11
140.0000000000019043
 21
13.6450000000000102
 31
0.0
  0
LINE
  5
1C2C
  8
250
  6
CONTINUOUS
 10
140.3716666666686024
 20
-13.6449999999999996
 30
0.0
 11
140.0000000000019043
 21
-15.875
 31
0.0
  0
LINE
  5
1C2D
  8
250
  6
CONTINUOUS
 10
139.6283333333352061
 20
-13.6449999999999996
 30
0.0
 11
140.0000000000019043
 21
-15.875
 31
0.0
  0
LINE
  5
1C2E
  8
250
  6
CONTINUOUS
 10
140.0000000000019043
 20
-15.875
 30
0.0
 11
140.0000000000019043
 21
-13.6449999999999996
 31
0.0
  0
TEXT
  5
1C2F
  8
250
  6
CONTINUOUS
 10
139.0000000000019043
 20
-7.2666666666666968
 30
0.0
 40
2.799999999999998
  1
\U+22051.250
 50
90.0
  0
LINE
  5
1EC4
  8
240
  6
CONTINUOUS
 10
121.0459580447492982
 20
-31.4500000000048203
 30
0.0
 11
27.0499999999990912
 21
-31.4499999999989015
 31
0.0
  0
VIEWPORT
  5
22
 67
     1
  8
0
 10
261.517699115044195
 20
148.5
 30
0.0
 40
523.0353982300885036
 41
297.0
 68
     1
 69
     1
1001
ACAD
1000
MVIEW
1002
{
1070
    16
1010
0.0
1020
0.0
1030
0.0
1010
0.0
1020
0.0
1030
1.0
1040
0.0
1040
297.0
1040
261.517699115044195
1040
148.5
1040
50.0
1040
0.0
1040
0.0
1070
     0
1070
   100
1070
     1
1070
     1
1070
     0
1070
     0
1070
     0
1070
     0
1040
0.0
1040
0.0
1040
0.0
1040
1.0
1040
1.0
1040
10.0
1040
10.0
1070
     0
1002
{
1002
}
1002
}
1001
GENIUS_GENODEF_13
1002
{
1000
HIER
1070
     0
1002
}
1002
{
1000
MANEDIT
1070
     0
1002
}
1002
{
1000
NOSEL
1070
     0
1002
}
1002
{
1000
BEHIND
1070
     0
1002
}
1002
{
1000
OTHER
1070
     0
1002
}
1002
{
1000
REACTOR
1002
}
1001
GENIUS_GENOBJ-N-SDF_13
1002
{
1000
OWNER
1000
GEN
1002
}
1001
GENIUS_GENSCREG_15
1000
PF
1040
1.0
1000
DF
1040
1.0
1000
MIN
1011
0.0
1021
0.0
1031
0.0
1021
0.0
1031
0.0
1000
MAX
1011
523.0353982300885036
1021
0.0
1031
0.0
1021
297.0
1031
0.0
1000
FLAGS
1070
     4
  0
ENDSEC
  0
EOF
