  0
SECTION
  2
HEADER
  9
$ACADVER
  1
AC1009
  9
$INSBASE
 10
0.0
 20
0.0
 30
0.0
  9
$EXTMIN
 10
-66.429685690455244
 20
-31.7271682455779
 30
-0.000000039842541
  9
$EXTMAX
 10
134.00416445502941
 20
61.015444238903449
 30
0.0000000765687993
  9
$LIMMIN
 10
0.0
 20
0.0
  9
$LIMMAX
 10
420.0
 20
297.0
  9
$ORTHOMODE
 70
     0
  9
$REGENMODE
 70
     1
  9
$FILLMODE
 70
     1
  9
$QTEXTMODE
 70
     0
  9
$MIRRTEXT
 70
     1
  9
$DRAGMODE
 70
     2
  9
$LTSCALE
 40
10.0
  9
$OSMODE
 70
    39
  9
$ATTMODE
 70
     1
  9
$TEXTSIZE
 40
3.0
  9
$TRACEWID
 40
1.0
  9
$TEXTSTYLE
  7
YOKO
  9
$CLAYER
  8
240
  9
$CELTYPE
  6
BYLAYER
  9
$CECOLOR
 62
   256
  9
$DIMSCALE
 40
1.0
  9
$DIMASZ
 40
2.2299999999999991
  9
$DIMEXO
 40
0.5
  9
$DIMDLI
 40
2.5
  9
$DIMRND
 40
0.0
  9
$DIMDLE
 40
0.0
  9
$DIMEXE
 40
1.0
  9
$DIMTP
 40
0.0
  9
$DIMTM
 40
0.0
  9
$DIMTXT
 40
2.7999999999999989
  9
$DIMCEN
 40
0.0
  9
$DIMTSZ
 40
0.0
  9
$DIMTOL
 70
     0
  9
$DIMLIM
 70
     0
  9
$DIMTIH
 70
     0
  9
$DIMTOH
 70
     0
  9
$DIMSE1
 70
     0
  9
$DIMSE2
 70
     0
  9
$DIMTAD
 70
     3
  9
$DIMZIN
 70
     8
  9
$DIMBLK
  1

  9
$DIMASO
 70
     1
  9
$DIMSHO
 70
     1
  9
$DIMPOST
  1

  9
$DIMAPOST
  1

  9
$DIMALT
 70
     0
  9
$DIMALTD
 70
     2
  9
$DIMALTF
 40
25.399999999999999
  9
$DIMLFAC
 40
1.0
  9
$DIMTOFL
 70
     1
  9
$DIMTVP
 40
0.0
  9
$DIMTIX
 70
     1
  9
$DIMSOXD
 70
     0
  9
$DIMSAH
 70
     1
  9
$DIMBLK1
  1
OPEN
  9
$DIMBLK2
  1
OPEN
  9
$DIMSTYLE
  2
BIGT
  9
$DIMCLRD
 70
   256
  9
$DIMCLRE
 70
   256
  9
$DIMCLRT
 70
    40
  9
$DIMTFAC
 40
1.0
  9
$DIMGAP
 40
1.0
  9
$LUNITS
 70
     2
  9
$LUPREC
 70
     3
  9
$SKETCHINC
 40
1.0
  9
$FILLETRAD
 40
1.6000000000000001
  9
$AUNITS
 70
     0
  9
$AUPREC
 70
     3
  9
$MENU
  1
.
  9
$ELEVATION
 40
0.0
  9
$PELEVATION
 40
0.0
  9
$THICKNESS
 40
0.0
  9
$LIMCHECK
 70
     0
  9
$BLIPMODE
 70
     0
  9
$CHAMFERA
 40
10.0
  9
$CHAMFERB
 40
10.0
  9
$SKPOLY
 70
     0
  9
$TDCREATE
 40
2455141.4209555788
  9
$TDUPDATE
 40
2456092.4582003471
  9
$TDINDWG
 40
0.0072924884
  9
$TDUSRTIMER
 40
0.0072924884
  9
$USRTIMER
 70
     1
  9
$ANGBASE
 50
0.0
  9
$ANGDIR
 70
     0
  9
$PDMODE
 70
     1
  9
$PDSIZE
 40
-5.0
  9
$PLINEWID
 40
0.0
  9
$COORDS
 70
     0
  9
$SPLFRAME
 70
     0
  9
$SPLINETYPE
 70
     6
  9
$SPLINESEGS
 70
     8
  9
$ATTDIA
 70
     1
  9
$ATTREQ
 70
     1
  9
$HANDLING
 70
     1
  9
$HANDSEED
  5
15A5
  9
$SURFTAB1
 70
     6
  9
$SURFTAB2
 70
     6
  9
$SURFTYPE
 70
     6
  9
$SURFU
 70
     6
  9
$SURFV
 70
     6
  9
$UCSNAME
  2

  9
$UCSORG
 10
0.0
 20
0.0
 30
0.0
  9
$UCSXDIR
 10
1.0
 20
0.0
 30
0.0
  9
$UCSYDIR
 10
0.0
 20
1.0
 30
0.0
  9
$PUCSNAME
  2

  9
$PUCSORG
 10
0.0
 20
0.0
 30
0.0
  9
$PUCSXDIR
 10
1.0
 20
0.0
 30
0.0
  9
$PUCSYDIR
 10
0.0
 20
1.0
 30
0.0
  9
$USERI1
 70
     1
  9
$USERI2
 70
     0
  9
$USERI3
 70
     0
  9
$USERI4
 70
     0
  9
$USERI5
 70
     0
  9
$USERR1
 40
0.0
  9
$USERR2
 40
0.0
  9
$USERR3
 40
0.0
  9
$USERR4
 40
0.0
  9
$USERR5
 40
0.0
  9
$WORLDVIEW
 70
     1
  9
$SHADEDGE
 70
     3
  9
$SHADEDIF
 70
    70
  9
$TILEMODE
 70
     1
  9
$MAXACTVP
 70
    16
  9
$PLIMCHECK
 70
     0
  9
$PEXTMIN
 10
1.0000000000000000E+020
 20
1.0000000000000000E+020
 30
1.0000000000000000E+020
  9
$PEXTMAX
 10
-1.0000000000000000E+020
 20
-1.0000000000000000E+020
 30
-1.0000000000000000E+020
  9
$PLIMMIN
 10
0.0
 20
0.0
  9
$PLIMMAX
 10
420.0
 20
297.0
  9
$UNITMODE
 70
     0
  9
$VISRETAIN
 70
     0
  9
$PLINEGEN
 70
     0
  9
$PSLTSCALE
 70
     1
  0
ENDSEC
  0
SECTION
  2
TABLES
  0
TABLE
  2
VPORT
 70
    42
  0
VPORT
  2
*ACTIVE
 70
     0
 10
0.0
 20
0.0
 11
1.0
 21
1.0
 12
33.787239382287112
 22
14.64413799666278
 13
0.0
 23
0.0
 14
7.0
 24
7.0
 15
7.0
 25
7.0
 16
0.0
 26
0.0
 36
1.0
 17
0.0
 27
0.0
 37
0.0
 40
138.3517632920196
 41
1.4552401746724879
 42
50.0
 43
0.0
 44
0.0
 50
0.0
 51
0.0
 71
     0
 72
  2000
 73
     1
 74
     0
 75
     0
 76
     0
 77
     0
 78
     0
  0
ENDTAB
  0
TABLE
  2
LTYPE
 70
    16
  0
LTYPE
  2
CONTINUOUS
 70
     0
  3
Solid line
 72
    65
 73
     0
 40
0.0
  0
LTYPE
  2
CENTER2
 70
     0
  3
___ _ ___ _ ___ _ ___ _ ___ _ ___ _ ___ _ ___ _
 72
    65
 73
     4
 40
1.125
 49
0.75
 49
-0.125
 49
0.125
 49
-0.125
  0
LTYPE
  2
HIDDEN2
 70
     0
  3
_ _ _ _ _ _ _ _ _ _ _ _ _ _ _ _ _ _ _ _ _ _ _ _
 72
    65
 73
     2
 40
0.1875
 49
0.125
 49
-0.0625
  0
LTYPE
  2
PHANTOM2
 70
     0
  3
___ _ _ ___ _ _ ___ _ _ ___ _ _ ___ _ _ ___ _ _
 72
    65
 73
     6
 40
1.25
 49
0.625
 49
-0.125
 49
0.125
 49
-0.125
 49
0.125
 49
-0.125
  0
LTYPE
  2
AMCONSTR
 70
     0
  3
_______________________
 72
    65
 73
     2
 40
9999.0
 49
9999.0
 49
0.0
  0
LTYPE
  2
AM_ISO02W050
 70
     0
  3
__ __ __ __ __ __ __ __ __ __ __ __ __ __ __
 72
    65
 73
     2
 40
7.5
 49
6.0
 49
-1.5
  0
LTYPE
  2
HIDDEN
 70
     0
  3
Hidden __ __ __ __ __ __ __ __ __ __ __ __ __ _
 72
    65
 73
     2
 40
9.5249999999999986
 49
6.3499999999999988
 49
-3.1749999999999989
  0
LTYPE
  2
CENTER
 70
     0
  3
____ _ ____ _ ____ _ ____ _ ____ _ ____ _ ____ 
 72
    65
 73
     4
 40
2.0
 49
1.25
 49
-0.25
 49
0.25
 49
-0.25
  0
LTYPE
  2
ACJISTGB
 70
     0
  3
__ . . __ . .
 72
    65
 73
     6
 40
9.0
 49
4.0
 49
-1.0
 49
1.0
 49
-1.0
 49
1.0
 49
-1.0
  0
LTYPE
  2
ACJISTGL
 70
     0
  3
_ _ _ _ _
 72
    65
 73
     2
 40
3.0
 49
2.0
 49
-1.0
  0
LTYPE
  2
ACISOWELD
 70
     0
  3
_ _ _ _ _
 72
    65
 73
     2
 40
2.0
 49
2.0
 49
-1.0
  0
LTYPE
  2
ACISOTGB
 70
     0
  3
__ . . __ . .
 72
    65
 73
     6
 40
9.0
 49
4.0
 49
-1.0
 49
1.0
 49
-1.0
 49
1.0
 49
-1.0
  0
LTYPE
  2
ACISOTGL
 70
     0
  3
_ _ _ _ _
 72
    65
 73
     2
 40
3.0
 49
2.0
 49
-1.0
  0
LTYPE
  2
ACANSTGB
 70
     0
  3
__ . . __ . .
 72
    65
 73
     6
 40
0.35433070866
 49
0.15748031496
 49
-0.03937007874
 49
0.03937007874
 49
-0.03937007874
 49
0.03937007874
 49
-0.03937007874
  0
LTYPE
  2
ACANSTGL
 70
     0
  3
_ _ _ _ _
 72
    65
 73
     2
 40
0.11811023622
 49
0.07874015748
 49
-0.03937007874
  0
ENDTAB
  0
TABLE
  2
LAYER
 70
    10
  0
LAYER
  2
0
 70
     0
 62
     7
  6
CONTINUOUS
  0
LAYER
  2
240
 70
     0
 62
     4
  6
CONTINUOUS
  0
LAYER
  2
241
 70
     0
 62
   211
  6
CONTINUOUS
  0
LAYER
  2
245
 70
     0
 62
     2
  6
CENTER2
  0
LAYER
  2
250
 70
     0
 62
     3
  6
CONTINUOUS
  0
LAYER
  2
DEFPOINTS
 70
     0
 62
     7
  6
CONTINUOUS
  0
LAYER
  2
242
 70
     0
 62
     3
  6
CONTINUOUS
  0
ENDTAB
  0
TABLE
  2
STYLE
 70
     9
  0
STYLE
  2
STANDARD
 70
     0
 40
0.0
 41
1.0
 50
0.0
 71
     0
 42
3.0
  3
romans.shx
  4
BIGFONT.SHX
  0
STYLE
  2
YOKO
 70
     0
 40
0.0
 41
1.0
 50
0.0
 71
     0
 42
3.0
  3
romans.shx
  4
extfont.shx
  0
STYLE
  2
ACJISGDT
 70
     0
 40
0.0
 41
1.0
 50
0.0
 71
     0
 42
3.0
  3
amgdt.shx
  4
extfont.shx
  0
STYLE
  2
ACJISTS
 70
     0
 40
1.0
 41
1.0
 50
0.0
 71
     0
 42
3.0
  3
amgdt.shx
  4
extfont.shx
  0
STYLE
  2
ACISOTS
 70
     0
 40
1.0
 41
1.0
 50
0.0
 71
     0
 42
3.0
  3
amgdt.shx
  4
extfont.shx
  0
STYLE
  2
ACISOGDT
 70
     0
 40
0.0
 41
1.0
 50
0.0
 71
     0
 42
3.0
  3
amgdt.shx
  4
extfont.shx
  0
STYLE
  2
ACANSTS
 70
     0
 40
1.0
 41
1.0
 50
0.0
 71
     0
 42
3.0
  3
romans.shx
  4
extfont.shx
  0
STYLE
  2
ACANSGDT
 70
     0
 40
0.0
 41
1.0
 50
0.0
 71
     0
 42
3.0
  3
amgdtans.shx
  4

  0
ENDTAB
  0
TABLE
  2
VIEW
 70
     0
  0
ENDTAB
  0
TABLE
  2
UCS
 70
     0
  0
ENDTAB
  0
TABLE
  2
APPID
 70
    32
  0
APPID
  2
ACAD
 70
     0
  0
APPID
  2
GLOBAL
 70
     0
  0
APPID
  2
DETAIL
 70
     0
  0
APPID
  2
GRPNAME
 70
     0
  0
APPID
  2
GPARA
 70
     0
  0
APPID
  2
DCO15
 70
     0
  0
APPID
  2
ITEMNAME
 70
     0
  0
APPID
  2
GRADE_0
 70
     0
  0
APPID
  2
CONTENTBLOCKICON
 70
     0
  0
APPID
  2
MCAD_NO_VIS
 70
     0
  0
APPID
  2
ACAD_TEMP_GRAPHIC
 70
     0
  0
APPID
  2
ACATTRIBSERVICES
 70
     0
  0
APPID
  2
GENIUS_GENSCREG_15
 70
     0
  0
APPID
  2
GENIUS_GENODEF_13
 70
     0
  0
APPID
  2
GENIUS_GENOBJ-N-SDF_13
 70
     0
  0
APPID
  2
GENIUS_GENREC_14
 70
     0
  0
APPID
  2
GENIUS_GENOBJ-N-REC_13
 70
     0
  0
APPID
  2
GENIUS_GENDIMSH_14
 70
     0
  0
APPID
  2
GENIUS_GENOBJ-N-DIM_13
 70
     0
  0
APPID
  2
GENIUS_GENDIM_13
 70
     0
  0
APPID
  2
GENIUS_GENDTOL_13
 70
     0
  0
APPID
  2
GENIUS_GENOLIS_13
 70
     0
  0
APPID
  2
GENIUS_GENOENT_13
 70
     0
  0
APPID
  2
GENIUS_GENOBJ-F-FEM_13
 70
     0
  0
APPID
  2
GENIUS_GENOREF_13
 70
     0
  0
APPID
  2
GENIUS_GEFFEM_13
 70
     0
  0
APPID
  2
GENIUS_GEFFEMP_13
 70
     0
  0
APPID
  2
AD_DRAW
 70
     0
  0
APPID
  2
DESIGNERASSEMBLIES
 70
     0
  0
APPID
  2
ACADM_DIM_EDIT
 70
     0
  0
APPID
  2
AMDT_DM_ADJ
 70
     0
  0
APPID
  2
GENIUS_GENOBJ-N-FIL_13
 70
     0
  0
ENDTAB
  0
TABLE
  2
DIMSTYLE
 70
    29
  0
DIMSTYLE
  2
BIGT
 70
     0
  3

  4

  5
OPEN
  6

  7

 40
1.0
 41
2.2299999999999991
 42
0.5
 43
7.0
 44
1.0
 45
0.0
 46
0.0
 47
0.0
 48
0.01
140
2.7999999999999989
141
0.0
142
0.0
143
25.399999999999999
144
1.0
145
0.0
146
1.0
147
1.0
 71
     0
 72
     0
 73
     0
 74
     0
 75
     0
 76
     0
 77
     3
 78
     9
170
     0
171
     2
172
     1
173
     0
174
     1
175
     0
176
   256
177
   256
178
    40
  0
DIMSTYLE
  2
BIGT$0
 70
     0
  3

  4

  5
OPEN
  6

  7

 40
1.0
 41
2.2299999999999991
 42
0.5
 43
7.0
 44
1.0
 45
0.0
 46
0.0
 47
0.0
 48
0.01
140
2.7999999999999989
141
0.0
142
0.0
143
25.399999999999999
144
1.0
145
0.0
146
1.0
147
1.0
 71
     0
 72
     0
 73
     0
 74
     0
 75
     0
 76
     0
 77
     3
 78
     9
170
     0
171
     2
172
     1
173
     0
174
     0
175
     0
176
   256
177
   256
178
    40
  0
DIMSTYLE
  2
BIGT$2
 70
     0
  3

  4

  5
OPEN
  6

  7

 40
1.0
 41
2.2299999999999991
 42
0.5
 43
7.0
 44
1.0
 45
0.0
 46
0.0
 47
0.0
 48
0.01
140
2.7999999999999989
141
0.0
142
0.0
143
25.399999999999999
144
1.0
145
0.0
146
1.0
147
1.0
 71
     0
 72
     0
 73
     0
 74
     0
 75
     0
 76
     0
 77
     3
 78
     9
170
     0
171
     2
172
     1
173
     0
174
     0
175
     0
176
   256
177
   256
178
    40
  0
DIMSTYLE
  2
BIGT$3
 70
     0
  3

  4

  5
OPEN
  6

  7

 40
1.0
 41
2.2299999999999991
 42
0.5
 43
2.5
 44
1.0
 45
0.0
 46
0.0
 47
0.0
 48
0.01
140
2.7999999999999989
141
0.0
142
0.0
143
25.399999999999999
144
1.0
145
0.0
146
1.0
147
1.0
 71
     0
 72
     0
 73
     0
 74
     0
 75
     0
 76
     0
 77
     3
 78
     9
170
     0
171
     2
172
     1
173
     0
174
     0
175
     0
176
   256
177
   256
178
    40
  0
DIMSTYLE
  2
BIGT$4
 70
     0
  3

  4

  5
OPEN
  6

  7

 40
1.0
 41
2.2299999999999991
 42
0.5
 43
2.5
 44
1.0
 45
0.0
 46
0.0
 47
0.0
 48
0.01
140
2.7999999999999989
141
0.0
142
0.0
143
25.399999999999999
144
1.0
145
0.0
146
1.0
147
1.0
 71
     0
 72
     0
 73
     0
 74
     0
 75
     0
 76
     0
 77
     3
 78
     9
170
     0
171
     2
172
     1
173
     0
174
     0
175
     0
176
   256
177
   256
178
    40
  0
DIMSTYLE
  2
BIGT$6
 70
     0
  3

  4

  5
OPEN
  6

  7

 40
1.0
 41
2.2299999999999991
 42
0.5
 43
2.5
 44
1.0
 45
0.0
 46
0.0
 47
0.0
 48
0.01
140
2.7999999999999989
141
0.0
142
0.0
143
25.399999999999999
144
1.0
145
0.0
146
1.0
147
1.0
 71
     0
 72
     0
 73
     0
 74
     0
 75
     0
 76
     0
 77
     3
 78
     9
170
     0
171
     2
172
     1
173
     0
174
     0
175
     0
176
   256
177
   256
178
    40
  0
DIMSTYLE
  2
BIGT$7
 70
     0
  3

  4

  5
OPEN
  6

  7

 40
0.0
 41
2.2299999999999991
 42
0.5
 43
7.0
 44
1.0
 45
0.0
 46
0.0
 47
0.0
 48
0.01
140
2.7999999999999989
141
0.0
142
0.0
143
25.399999999999999
144
1.0
145
0.0
146
1.0
147
1.0
 71
     0
 72
     0
 73
     0
 74
     0
 75
     0
 76
     0
 77
     3
 78
     9
170
     0
171
     2
172
     0
173
     0
174
     0
175
     0
176
   256
177
   256
178
    40
  0
DIMSTYLE
  2
BIGT$SF
 70
     0
  3

  4

  5
OPEN
  6

  7

 40
1.0
 41
2.2299999999999991
 42
0.5
 43
7.0
 44
1.0
 45
0.0
 46
0.0
 47
0.0
 48
0.0
140
2.7999999999999989
141
0.0
142
0.0
143
25.399999999999999
144
1.0
145
0.0
146
1.0
147
1.0
 71
     0
 72
     0
 73
     0
 74
     0
 75
     0
 76
     0
 77
     3
 78
     9
170
     0
171
     2
172
     1
173
     0
174
     0
175
     0
176
   256
177
   256
178
    40
  0
DIMSTYLE
  2
BIGT$SH
 70
     0
  3

  4

  5
OPEN
  6

  7

 40
1.0
 41
2.2299999999999991
 42
0.5
 43
7.0
 44
1.0
 45
0.0
 46
0.0
 47
0.0
 48
0.0
140
2.7999999999999989
141
0.0
142
0.0
143
25.399999999999999
144
1.0
145
0.0
146
1.0
147
1.0
 71
     0
 72
     0
 73
     0
 74
     0
 75
     0
 76
     0
 77
     3
 78
     9
170
     0
171
     2
172
     1
173
     0
174
     0
175
     0
176
   256
177
   256
178
    40
  0
DIMSTYLE
  2
AM_ISO
 70
     0
  3

  4
"
  5

  6

  7

 40
1.0
 41
2.5
 42
1.0
 43
10.0
 44
1.0
 45
0.0
 46
0.0
 47
0.1
 48
0.1
140
3.5
141
0.0
142
0.0
143
0.0393701
144
1.0
145
0.0
146
0.71
147
1.5
 71
     0
 72
     0
 73
     0
 74
     0
 75
     0
 76
     0
 77
     1
 78
     8
170
     0
171
     2
172
     1
173
     0
174
     0
175
     0
176
   256
177
   256
178
     2
  0
DIMSTYLE
  2
AM_ISO$3
 70
     0
  3

  4
"
  5

  6

  7

 40
1.0
 41
2.5
 42
1.0
 43
10.0
 44
1.0
 45
0.0
 46
0.0
 47
0.1
 48
0.1
140
3.5
141
0.0
142
0.0
143
0.0393701
144
1.0
145
0.0
146
0.71
147
1.5
 71
     0
 72
     0
 73
     0
 74
     1
 75
     0
 76
     0
 77
     1
 78
     8
170
     0
171
     2
172
     0
173
     0
174
     0
175
     0
176
   256
177
   256
178
     2
  0
DIMSTYLE
  2
AM_ISO$4
 70
     0
  3

  4
"
  5

  6

  7

 40
1.0
 41
2.5
 42
1.0
 43
10.0
 44
1.0
 45
0.0
 46
0.0
 47
0.1
 48
0.1
140
3.5
141
0.0
142
0.0
143
0.0393701
144
1.0
145
0.0
146
0.71
147
1.5
 71
     0
 72
     0
 73
     0
 74
     1
 75
     0
 76
     0
 77
     1
 78
     8
170
     0
171
     2
172
     0
173
     0
174
     0
175
     0
176
   256
177
   256
178
     2
  0
DIMSTYLE
  2
AM_ISO$6
 70
     0
  3

  4
"
  5

  6

  7

 40
1.0
 41
2.5
 42
1.0
 43
10.0
 44
1.0
 45
0.0
 46
0.0
 47
0.1
 48
0.1
140
3.5
141
0.0
142
0.0
143
0.0393701
144
1.0
145
0.0
146
0.71
147
1.5
 71
     0
 72
     0
 73
     0
 74
     0
 75
     0
 76
     0
 77
     0
 78
     8
170
     0
171
     2
172
     1
173
     0
174
     0
175
     0
176
   256
177
   256
178
     2
  0
DIMSTYLE
  2
AM_ISO$7
 70
     0
  3

  4
"
  5

  6

  7

 40
1.0
 41
2.5
 42
1.0
 43
10.0
 44
1.0
 45
0.0
 46
0.0
 47
0.1
 48
0.1
140
5.0
141
0.0
142
0.0
143
0.0393701
144
1.0
145
0.0
146
0.71
147
1.5
 71
     0
 72
     0
 73
     0
 74
     0
 75
     0
 76
     0
 77
     1
 78
     8
170
     0
171
     2
172
     1
173
     0
174
     0
175
     0
176
   256
177
   256
178
     2
  0
DIMSTYLE
  2
AM_ISO$SF
 70
     0
  3

  4
"
  5

  6

  7

 40
1.0
 41
2.5
 42
1.0
 43
10.0
 44
1.0
 45
0.0
 46
0.0
 47
0.1
 48
0.1
140
3.5
141
0.0
142
0.0
143
0.0393701
144
1.0
145
0.0
146
0.71
147
1.5
 71
     0
 72
     0
 73
     0
 74
     0
 75
     1
 76
     1
 77
     1
 78
     8
170
     0
171
     2
172
     1
173
     0
174
     0
175
     0
176
   256
177
   256
178
     2
  0
DIMSTYLE
  2
AM_ISO$SH
 70
     0
  3

  4
"
  5

  6
GENAXEH
  7

 40
1.0
 41
2.5
 42
1.0
 43
10.0
 44
1.0
 45
0.0
 46
0.0
 47
0.1
 48
0.1
140
3.5
141
0.0
142
0.0
143
0.0393701
144
2.0
145
0.0
146
0.71
147
1.5
 71
     0
 72
     0
 73
     0
 74
     0
 75
     1
 76
     1
 77
     1
 78
     8
170
     0
171
     2
172
     1
173
     1
174
     0
175
     0
176
   256
177
   256
178
     2
  0
DIMSTYLE
  2
TECHNICAL_OSAKA
 70
     0
  3

  4
"
  5
OPEN30
  6

  7

 40
1.0
 41
2.5
 42
1.0
 43
10.0
 44
1.0
 45
0.0
 46
0.0
 47
0.1
 48
0.1
140
2.7999999999999989
141
0.0
142
0.0
143
0.0393701
144
1.0
145
0.0
146
0.71
147
1.5
 71
     0
 72
     0
 73
     0
 74
     0
 75
     0
 76
     0
 77
     3
 78
     8
170
     0
171
     2
172
     1
173
     0
174
     0
175
     0
176
   256
177
   256
178
    40
  0
DIMSTYLE
  2
TECHNICAL_OSAKA$3
 70
     0
  3

  4
"
  5
OPEN30
  6

  7

 40
1.0
 41
2.5
 42
1.0
 43
10.0
 44
1.0
 45
0.0
 46
0.0
 47
0.1
 48
0.1
140
2.7999999999999989
141
0.0
142
0.0
143
0.0393701
144
1.0
145
0.0
146
0.71
147
1.5
 71
     0
 72
     0
 73
     0
 74
     1
 75
     0
 76
     0
 77
     3
 78
     8
170
     0
171
     2
172
     0
173
     0
174
     0
175
     0
176
   256
177
   256
178
    40
  0
DIMSTYLE
  2
TECHNICAL_OSAKA$4
 70
     0
  3

  4
"
  5
OPEN30
  6

  7

 40
1.0
 41
2.5
 42
1.0
 43
10.0
 44
1.0
 45
0.0
 46
0.0
 47
0.1
 48
0.1
140
2.7999999999999989
141
0.0
142
0.0
143
0.0393701
144
1.0
145
0.0
146
0.71
147
1.5
 71
     0
 72
     0
 73
     0
 74
     1
 75
     0
 76
     0
 77
     3
 78
     8
170
     0
171
     2
172
     0
173
     0
174
     0
175
     0
176
   256
177
   256
178
    40
  0
DIMSTYLE
  2
TECHNICAL_OSAKA$6
 70
     0
  3

  4
"
  5
OPEN30
  6

  7

 40
1.0
 41
2.5
 42
1.0
 43
10.0
 44
1.0
 45
0.0
 46
0.0
 47
0.1
 48
0.1
140
2.7999999999999989
141
0.0
142
0.0
143
0.0393701
144
1.0
145
0.0
146
0.71
147
1.5
 71
     0
 72
     0
 73
     0
 74
     0
 75
     0
 76
     0
 77
     0
 78
     8
170
     0
171
     2
172
     1
173
     0
174
     0
175
     0
176
   256
177
   256
178
    40
  0
DIMSTYLE
  2
TECHNICAL_OSAKA$7
 70
     0
  3

  4
"
  5
OPEN30
  6

  7

 40
1.0
 41
2.5
 42
1.0
 43
10.0
 44
1.0
 45
0.0
 46
0.0
 47
0.1
 48
0.1
140
2.7999999999999989
141
0.0
142
0.0
143
0.0393701
144
1.0
145
0.0
146
0.71
147
1.5
 71
     0
 72
     0
 73
     0
 74
     0
 75
     0
 76
     0
 77
     3
 78
     8
170
     0
171
     2
172
     1
173
     0
174
     0
175
     0
176
   256
177
   256
178
    40
  0
DIMSTYLE
  2
TECHNICAL_OSAKA$SF
 70
     0
  3

  4
"
  5
OPEN30
  6
OPEN30
  7
OPEN30
 40
1.0
 41
2.5
 42
1.0
 43
10.0
 44
1.0
 45
0.0
 46
0.0
 47
0.1
 48
0.1
140
3.5
141
0.0
142
0.0
143
0.0393701
144
1.0
145
0.0
146
0.71
147
1.5
 71
     0
 72
     0
 73
     0
 74
     0
 75
     1
 76
     1
 77
     3
 78
     8
170
     0
171
     2
172
     1
173
     0
174
     0
175
     0
176
   256
177
   256
178
    40
  0
DIMSTYLE
  2
TECHNICAL_OSAKA$SH
 70
     0
  3

  4
"
  5
OPEN30
  6
GENAXEH
  7
OPEN30
 40
1.0
 41
2.5
 42
1.0
 43
10.0
 44
1.0
 45
0.0
 46
0.0
 47
0.1
 48
0.1
140
3.5
141
0.0
142
0.0
143
0.0393701
144
2.0
145
0.0
146
0.71
147
1.5
 71
     0
 72
     0
 73
     0
 74
     0
 75
     1
 76
     1
 77
     3
 78
     8
170
     0
171
     2
172
     1
173
     1
174
     0
175
     0
176
   256
177
   256
178
    40
  0
DIMSTYLE
  2
AM_ANSI
 70
     0
  3

  4
mm
  5

  6

  7

 40
1.0
 41
0.1
 42
0.05
 43
0.5
 44
0.1
 45
0.0
 46
0.0
 47
0.1
 48
0.1
140
0.12
141
0.0
142
0.0
143
25.399999999999999
144
1.0
145
0.0
146
0.71
147
0.06
 71
     0
 72
     0
 73
     1
 74
     1
 75
     0
 76
     0
 77
     0
 78
     7
170
     0
171
     2
172
     0
173
     0
174
     0
175
     0
176
   256
177
   256
178
     2
  0
DIMSTYLE
  2
AM_ANSI$3
 70
     0
  3

  4
mm
  5

  6

  7

 40
1.0
 41
0.1
 42
0.05
 43
0.5
 44
0.1
 45
0.0
 46
0.0
 47
0.1
 48
0.1
140
0.12
141
0.0
142
0.0
143
25.399999999999999
144
1.0
145
0.0
146
0.71
147
0.06
 71
     0
 72
     0
 73
     1
 74
     1
 75
     0
 76
     0
 77
     0
 78
     7
170
     0
171
     2
172
     0
173
     0
174
     0
175
     0
176
   256
177
   256
178
     2
  0
DIMSTYLE
  2
AM_ANSI$4
 70
     0
  3

  4
mm
  5

  6

  7

 40
1.0
 41
0.1
 42
0.05
 43
0.5
 44
0.1
 45
0.0
 46
0.0
 47
0.1
 48
0.1
140
0.12
141
0.0
142
0.0
143
25.399999999999999
144
1.0
145
0.0
146
0.71
147
0.06
 71
     0
 72
     0
 73
     1
 74
     1
 75
     0
 76
     0
 77
     0
 78
     7
170
     0
171
     2
172
     0
173
     0
174
     0
175
     0
176
   256
177
   256
178
     2
  0
DIMSTYLE
  2
AM_ANSI$7
 70
     0
  3

  4
mm
  5

  6

  7

 40
1.0
 41
0.1
 42
0.05
 43
0.5
 44
0.1
 45
0.0
 46
0.0
 47
0.1
 48
0.1
140
0.24
141
0.0
142
0.0
143
25.399999999999999
144
1.0
145
0.0
146
0.71
147
0.06
 71
     0
 72
     0
 73
     1
 74
     1
 75
     0
 76
     0
 77
     0
 78
     7
170
     0
171
     2
172
     0
173
     0
174
     0
175
     0
176
   256
177
   256
178
     2
  0
DIMSTYLE
  2
AM_ANSI$SF
 70
     0
  3

  4
mm
  5

  6

  7

 40
1.0
 41
0.1
 42
0.05
 43
0.5
 44
0.1
 45
0.0
 46
0.0
 47
0.1
 48
0.1
140
0.12
141
0.0
142
0.0
143
25.399999999999999
144
1.0
145
0.0
146
0.71
147
0.06
 71
     0
 72
     0
 73
     1
 74
     1
 75
     1
 76
     1
 77
     0
 78
     7
170
     0
171
     2
172
     0
173
     0
174
     0
175
     0
176
   256
177
   256
178
     2
  0
DIMSTYLE
  2
AM_ANSI$SH
 70
     0
  3

  4
mm
  5

  6

  7

 40
1.0
 41
0.1
 42
0.05
 43
0.5
 44
0.1
 45
0.0
 46
0.0
 47
0.1
 48
0.1
140
0.12
141
0.0
142
0.0
143
25.399999999999999
144
1.0
145
0.0
146
0.71
147
0.06
 71
     0
 72
     0
 73
     1
 74
     1
 75
     1
 76
     1
 77
     0
 78
     7
170
     0
171
     2
172
     0
173
     1
174
     0
175
     0
176
   256
177
   256
178
     2
  0
ENDTAB
  0
ENDSEC
  0
SECTION
  2
BLOCKS
  0
BLOCK
  8
0
  2
$MODEL_SPACE
 70
     0
 10
0.0
 20
0.0
 30
0.0
  3
$MODEL_SPACE
  1

  0
ENDBLK
  5
1C
  8
0
  0
BLOCK
 67
     1
  8
0
  2
$PAPER_SPACE
 70
     0
 10
0.0
 20
0.0
 30
0.0
  3
$PAPER_SPACE
  1

  0
ENDBLK
  5
19
 67
     1
  8
0
  0
BLOCK
  8
0
  2
_OPEN
 70
     0
 10
0.0
 20
0.0
 30
0.0
  3
_OPEN
  1

  0
LINE
  5
12A1
  8
0
  6
BYBLOCK
 62
     0
 10
-1.0
 20
0.1666666666666666
 30
0.0
 11
0.0
 21
0.0
 31
0.0
  0
LINE
  5
12A2
  8
0
  6
BYBLOCK
 62
     0
 10
-1.0
 20
-0.1666666666666666
 30
0.0
 11
0.0
 21
0.0
 31
0.0
  0
LINE
  5
12A3
  8
0
  6
BYBLOCK
 62
     0
 10
0.0
 20
0.0
 30
0.0
 11
-1.0
 21
0.0
 31
0.0
  0
ENDBLK
  5
12A4
  8
0
  0
BLOCK
  8
0
  2
矢印なし
 70
     0
 10
0.0
 20
0.0
 30
0.0
  3
矢印なし
  1

  0
ENDBLK
  5
6E5
  8
0
  0
BLOCK
  8
0
  2
GENAXEH
 70
     0
 10
0.0
 20
0.0
 30
0.0
  3
GENAXEH
  1

  0
LINE
  5
12CC
  8
0
 10
-1.0
 20
0.0
 30
0.0
 11
1.0
 21
0.0
 31
0.0
  0
ENDBLK
  5
12CD
  8
0
  0
BLOCK
  8
0
  2
_OPEN30
 70
     0
 10
0.0
 20
0.0
 30
0.0
  3
_OPEN30
  1

  0
LINE
  5
12F1
  8
0
  6
BYBLOCK
 62
     0
 10
-1.0
 20
0.26794919
 30
0.0
 11
0.0
 21
0.0
 31
0.0
  0
LINE
  5
12F2
  8
0
  6
BYBLOCK
 62
     0
 10
0.0
 20
0.0
 30
0.0
 11
-1.0
 21
-0.26794919
 31
0.0
  0
LINE
  5
12F3
  8
0
  6
BYBLOCK
 62
     0
 10
0.0
 20
0.0
 30
0.0
 11
-1.0
 21
0.0
 31
0.0
  0
ENDBLK
  5
12F4
  8
0
  0
BLOCK
  8
0
  2
*U11
 70
     1
 10
0.0
 20
0.0
 30
0.0
  3
*U11
  1

  0
TEXT
  5
1591
  8
250
 62
    40
 10
55.799999999999997
 20
43.0
 30
0.0
 40
2.7999999999999989
  1
120
  0
ENDBLK
  5
1593
  8
0
  0
BLOCK
  8
0
  2
*U12
 70
     1
 10
0.0
 20
0.0
 30
0.0
  3
*U12
  1

  0
TEXT
  5
1595
  8
250
 62
    40
 10
114.6666666666666
 20
29.0
 30
0.0
 40
2.7999999999999989
  1
8
  0
ENDBLK
  5
1597
  8
0
  0
BLOCK
  8
0
  2
*U13
 70
     1
 10
0.0
 20
0.0
 30
0.0
  3
*U13
  1

  0
TEXT
  5
1599
  8
250
 62
    40
 10
102.3333333333333
 20
36.0
 30
0.0
 40
2.7999999999999989
  1
30
  0
ENDBLK
  5
159B
  8
0
  0
BLOCK
  8
0
  2
*U14
 70
     1
 10
0.0
 20
0.0
 30
0.0
  3
*U14
  1

  0
TEXT
  5
159D
  8
250
 62
    40
 10
132.0
 20
-3.7999999999999989
 30
0.0
 40
2.7999999999999989
  1
\U+2205
 50
90.0
  0
TEXT
  5
159E
  8
250
 62
    40
 10
132.0
 20
-1.2666666666666671
 30
0.0
 40
2.7999999999999989
  1
20
 50
90.0
  0
ENDBLK
  5
15A0
  8
0
  0
ENDSEC
  0
SECTION
  2
ENTITIES
  0
INSERT
  5
6E6
  8
245
  2
矢印なし
 10
175.62382697000001
 20
90.551235719999994
 30
0.0
  0
TEXT
  5
A61
  8
241
 10
-65.400000000000006
 20
56.0
 30
0.0
 40
5.0
  1
BBT40-FCR20083-120
  7
YOKO
 11
-65.400000000000006
 21
56.0
 31
0.0
 73
     1
  0
LINE
  5
102A
  8
250
 10
-32.458397099999999
 20
-28.409457620000001
 30
0.0
 11
-50.191730440000001
 21
-28.409457620000001
 31
0.0
1001
ITEMNAME
1000
LNSP2
  0
LINE
  5
1307
  8
240
  6
CONTINUOUS
 10
21.600000000000001
 20
31.5
 30
0.0
 11
26.0
 21
31.5
 31
0.0
  0
LINE
  5
1308
  8
240
  6
CONTINUOUS
 10
21.600000000000001
 20
-31.5
 30
0.0
 11
26.0
 21
-31.5
 31
0.0
  0
LINE
  5
1309
  8
245
 10
121.0
 20
0.0
 30
0.0
 11
-66.400000000000006
 21
0.0
 31
0.0
  0
LINE
  5
130A
  8
241
  6
HIDDEN2
 10
23.0
 20
22.5
 30
0.0
 11
23.0
 21
31.5
 31
0.0
  0
LINE
  5
130B
  8
240
  6
CONTINUOUS
 10
21.600000000000001
 20
31.5
 30
0.0
 11
18.713248650000001
 21
26.5
 31
0.0
  0
LINE
  5
130C
  8
240
  6
CONTINUOUS
 10
1.0
 20
22.225000000000001
 30
0.0
 11
1.0
 21
30.5
 31
0.0
  0
LINE
  5
130D
  8
240
  6
CONTINUOUS
 10
11.6
 20
31.5
 30
0.0
 11
14.48675135
 21
26.5
 31
0.0
  0
LINE
  5
130E
  8
241
  6
CONTINUOUS
 10
11.6
 20
31.5
 30
0.0
 11
11.6
 21
0.0
 31
0.0
  0
LINE
  5
130F
  8
241
  6
CONTINUOUS
 10
21.600000000000001
 20
0.0
 30
0.0
 11
21.600000000000001
 21
31.5
 31
0.0
  0
LINE
  5
1310
  8
245
  6
CENTER2
 10
16.600000000000001
 20
-31.5
 30
0.0
 11
16.600000000000001
 21
31.5
 31
0.0
  0
LINE
  5
1311
  8
240
  6
CONTINUOUS
 10
0.0
 20
-22.225000000000001
 30
0.0
 11
-64.030891030000006
 21
-12.887161730000001
 31
0.0
  0
LINE
  5
1312
  8
240
  6
CONTINUOUS
 10
0.0
 20
22.225000000000001
 30
0.0
 11
-64.030891030000006
 21
12.887161730000001
 31
0.0
  0
LINE
  5
1313
  8
240
  6
CONTINUOUS
 10
-65.400000000000006
 20
11.303908959999999
 30
0.0
 11
-65.400000000000006
 21
0.0
 31
0.0
  0
LINE
  5
1314
  8
240
  6
CONTINUOUS
 10
-65.400000000000006
 20
-11.303908959999999
 30
0.0
 11
-65.400000000000006
 21
0.0
 31
0.0
  0
ARC
  5
1315
  8
240
  6
CONTINUOUS
 10
-63.79999999999999
 20
-11.303908959999999
 30
0.0
 40
1.6000000000000001
 50
180.0
 51
261.70285503000002
  0
ARC
  5
1316
  8
240
  6
CONTINUOUS
 10
-63.79999999999999
 20
11.303908959999999
 30
0.0
 40
1.6000000000000001
 50
98.297144969999977
 51
180.0
  0
LINE
  5
1317
  8
241
  6
CONTINUOUS
 10
0.0
 20
-22.225000000000001
 30
0.0
 11
0.0
 21
0.0
 31
0.0
  0
LINE
  5
1318
  8
241
 10
1.0
 20
0.0
 30
0.0
 11
1.0
 21
-22.225000000000001
 31
0.0
  0
LINE
  5
1319
  8
241
  6
CONTINUOUS
 10
11.6
 20
-31.5
 30
0.0
 11
11.6
 21
0.0
 31
0.0
  0
LINE
  5
131A
  8
241
  6
CONTINUOUS
 10
21.600000000000001
 20
0.0
 30
0.0
 11
21.600000000000001
 21
-31.5
 31
0.0
  0
LINE
  5
131B
  8
241
  6
CONTINUOUS
 10
18.713248650000001
 20
-26.5
 30
0.0
 11
18.713248650000001
 21
0.0
 31
0.0
  0
LINE
  5
131C
  8
241
  6
CONTINUOUS
 10
14.48675135
 20
-26.5
 30
0.0
 11
14.48675135
 21
0.0
 31
0.0
  0
LINE
  5
131D
  8
241
  6
HIDDEN2
 10
23.0
 20
-22.5
 30
0.0
 11
1.0
 21
-22.5
 31
0.0
  0
LINE
  5
131E
  8
240
  6
CONTINUOUS
 10
2.0
 20
-31.5
 30
0.0
 11
11.6
 21
-31.5
 31
0.0
  0
LINE
  5
131F
  8
240
  6
CONTINUOUS
 10
1.0
 20
-22.225000000000001
 30
0.0
 11
1.0
 21
-30.5
 31
0.0
  0
ARC
  5
1320
  8
240
  6
CONTINUOUS
 10
2.0
 20
-30.5
 30
0.0
 40
1.0
 50
180.0
 51
270.0
  0
LINE
  5
1321
  8
240
 10
0.0
 20
-22.225000000000001
 30
0.0
 11
1.0
 21
-22.225000000000001
 31
0.0
  0
LINE
  5
1322
  8
240
  6
CONTINUOUS
 10
18.713248650000001
 20
-26.5
 30
0.0
 11
14.48675135
 21
-26.5
 31
0.0
  0
LINE
  5
1323
  8
240
  6
CONTINUOUS
 10
14.48675135
 20
-26.5
 30
0.0
 11
11.6
 21
-31.5
 31
0.0
  0
LINE
  5
1324
  8
240
  6
CONTINUOUS
 10
18.713248650000001
 20
-26.5
 30
0.0
 11
21.600000000000001
 21
-31.5
 31
0.0
  0
LINE
  5
1325
  8
241
  6
HIDDEN2
 10
23.0
 20
-22.5
 30
0.0
 11
23.0
 21
-31.5
 31
0.0
  0
LINE
  5
1326
  8
241
  6
CONTINUOUS
 10
14.48675135
 20
26.5
 30
0.0
 11
14.48675135
 21
0.0
 31
0.0
  0
LINE
  5
1327
  8
241
  6
CONTINUOUS
 10
18.713248650000001
 20
26.5
 30
0.0
 11
18.713248650000001
 21
0.0
 31
0.0
  0
LINE
  5
1328
  8
241
  6
CONTINUOUS
 10
0.0
 20
22.225000000000001
 30
0.0
 11
0.0
 21
0.0
 31
0.0
  0
LINE
  5
1329
  8
241
 10
1.0
 20
0.0
 30
0.0
 11
1.0
 21
22.225000000000001
 31
0.0
  0
LINE
  5
132A
  8
241
  6
HIDDEN2
 10
23.0
 20
22.5
 30
0.0
 11
1.0
 21
22.5
 31
0.0
  0
LINE
  5
132B
  8
240
 10
0.0
 20
22.225000000000001
 30
0.0
 11
1.0
 21
22.225000000000001
 31
0.0
  0
LINE
  5
132C
  8
240
  6
CONTINUOUS
 10
18.713248650000001
 20
26.5
 30
0.0
 11
14.48675135
 21
26.5
 31
0.0
  0
LINE
  5
132D
  8
240
  6
CONTINUOUS
 10
2.0
 20
31.5
 30
0.0
 11
11.6
 21
31.5
 31
0.0
  0
ARC
  5
132E
  8
240
  6
CONTINUOUS
 10
2.0
 20
30.5
 30
0.0
 40
1.0
 50
90.0
 51
180.0
  0
LINE
  5
132F
  8
241
  6
CONTINUOUS
 10
27.0
 20
0.0
 30
0.0
 11
27.0
 21
30.0
 31
0.0
  0
ARC
  5
1330
  8
240
 10
32.0
 20
30.0
 30
0.0
 40
5.0
 50
179.99998239999999
 51
254.97062661999999
  0
LINE
  5
1331
  8
240
 10
108.66748094716171
 20
9.25
 30
0.0
 11
93.957393719999985
 21
9.25
 31
0.0
  0
LINE
  5
1332
  8
240
 10
108.67867709958441
 20
-9.25
 30
0.0
 11
93.957393719999985
 21
-9.25
 31
0.0
  0
LINE
  5
1334
  8
241
  6
CONTINUOUS
 10
31.21307302
 20
-25.03419632
 30
0.0
 11
31.21307302
 21
0.0
 31
0.0
1001
GRPNAME
1000
PASTMD01
  0
LINE
  5
1335
  8
241
  6
CONTINUOUS
 10
32.37202473
 20
-24.72301963
 30
0.0
 11
32.37202473
 21
0.0
 31
0.0
1001
GRPNAME
1000
PASTMD01
  0
LINE
  5
1336
  8
241
  6
CONTINUOUS
 10
35.213073020000003
 20
-23.960202689999999
 30
0.0
 11
35.213073020000003
 21
0.0
 31
0.0
1001
GRPNAME
1000
PASTMD01
  0
LINE
  5
1337
  8
241
  6
CONTINUOUS
 10
36.37202473
 20
-23.649025999999999
 30
0.0
 11
36.37202473
 21
0.0
 31
0.0
1001
GRPNAME
1000
PASTMD01
  0
LINE
  5
1338
  8
240
 10
86.177976479999984
 20
-10.276207230000001
 30
0.0
 11
30.70343046
 21
-25.171034540000001
 31
0.0
  0
LINE
  5
1339
  8
241
  6
CONTINUOUS
 10
27.0
 20
0.0
 30
0.0
 11
27.0
 21
-30.0
 31
0.0
  0
ARC
  5
133A
  8
240
 10
32.0
 20
-30.0
 30
0.0
 40
5.0
 50
105.02937338
 51
180.00001760000001
  0
LINE
  5
133B
  8
240
  6
CONTINUOUS
 10
27.0
 20
-30.5
 30
0.0
 11
27.0
 21
-30.0
 31
0.0
  0
ARC
  5
133C
  8
240
  6
CONTINUOUS
 10
26.0
 20
-30.5
 30
0.0
 40
1.0
 50
270.0
 51
0.0
  0
LINE
  5
133D
  8
240
 10
86.177976479999984
 20
10.276207230000001
 30
0.0
 11
30.70343046
 21
25.171034540000001
 31
0.0
  0
LINE
  5
133E
  8
241
  6
CONTINUOUS
 10
36.37202473
 20
23.649025999999999
 30
0.0
 11
36.37202473
 21
0.0
 31
0.0
1001
GRPNAME
1000
PASTMD01
  0
LINE
  5
133F
  8
241
  6
CONTINUOUS
 10
35.213073020000003
 20
23.960202689999999
 30
0.0
 11
35.213073020000003
 21
0.0
 31
0.0
1001
GRPNAME
1000
PASTMD01
  0
LINE
  5
1340
  8
241
  6
CONTINUOUS
 10
32.37202473
 20
24.72301963
 30
0.0
 11
32.37202473
 21
0.0
 31
0.0
1001
GRPNAME
1000
PASTMD01
  0
LINE
  5
1341
  8
241
  6
CONTINUOUS
 10
31.21307302
 20
25.03419632
 30
0.0
 11
31.21307302
 21
0.0
 31
0.0
1001
GRPNAME
1000
PASTMD01
  0
LINE
  5
1342
  8
241
 10
90.0
 20
9.25
 30
0.0
 11
90.0
 21
0.0
 31
0.0
  0
LINE
  5
1343
  8
241
 10
90.0
 20
-9.25
 30
0.0
 11
90.0
 21
0.0
 31
0.0
  0
ARC
  5
1344
  8
240
 10
93.957393719999985
 20
-39.25
 30
0.0
 40
30.0
 50
90.0
 51
105.02935578
  0
ARC
  5
1345
  8
240
 10
93.957393719999985
 20
39.25
 30
0.0
 40
30.0
 50
254.97064422
 51
270.0
  0
LINE
  5
145D
  8
240
  6
CONTINUOUS
 10
27.0
 20
30.5
 30
0.0
 11
27.0
 21
30.0
 31
0.0
  0
ARC
  5
145E
  8
240
  6
CONTINUOUS
 10
26.0
 20
30.5
 30
0.0
 40
1.0
 50
0.0
 51
90.0
  0
LINE
  5
14BF
  8
241
 10
110.0670000000141
 20
-1.9644889261024601
 30
0.0
 11
119.25
 21
-3.583699589945387
 31
0.0
  0
LINE
  5
14C0
  8
240
 10
119.1907768805077
 20
-7.904520188577087
 30
0.0
 11
120.0
 21
-8.1990533169523072
 31
0.0
  0
LINE
  5
14C1
  8
241
 10
119.1841409760585
 20
-3.5720868671013521
 30
0.0
 11
119.25
 21
-3.9455919522391238
 31
0.0
  0
ARC
  5
14C2
  8
241
 10
104.37893003543169
 20
-6.703142320452689
 30
0.0
 40
3.1289300354316629
 50
79.999982399907566
 51
233.61238511531769
  0
LINE
  5
14C3
  8
241
 10
110.7193218708066
 20
-4.8211627241205743
 30
0.0
 11
108.63036000715719
 21
-4.4528223858879041
 31
0.0
  0
LINE
  5
14C4
  8
241
 10
104.9222630341317
 20
-3.6217477629268782
 30
0.0
 11
108.7232331691817
 21
-4.2919613506030929
 31
0.0
  0
LINE
  5
14C5
  8
241
 10
108.63036000715719
 20
-4.4528223858879041
 30
0.0
 11
110.0670000000141
 21
-1.9644889261024601
 31
0.0
  0
LINE
  5
14C6
  8
240
 10
119.25
 20
-3.9455919522391349
 30
0.0
 11
119.25
 21
-0.217832974319391
 31
0.0
  0
LINE
  5
14C7
  8
241
 10
117.8264077267043
 20
3.2179162020602838
 30
0.0
 11
102.3285341138358
 21
7.7552555426302696
 31
0.0
  0
ARC
  5
14C8
  8
240
 10
117.40494184053991
 20
1.7783445620229701
 30
0.0
 40
1.5
 50
2.999999999999952
 51
55.591872576244128
  0
ARC
  5
14C9
  8
241
 10
102.75
 20
9.1948271826675985
 30
0.0
 40
1.5
 50
180.0
 51
253.68146086302619
  0
LINE
  5
14CA
  8
240
 10
108.66748094716171
 20
9.25
 30
0.0
 11
109.7899100908338
 21
9.5507539826079597
 31
0.0
  0
LINE
  5
14CB
  8
240
 10
108.67867709958441
 20
-9.25
 30
0.0
 11
109.99390879783211
 21
-9.6024152714051212
 31
0.0
  0
ARC
  5
14CC
  8
240
 10
110.12331832038331
 20
-9.1194523582607072
 30
0.0
 40
0.5
 50
255.00000000000051
 51
272.21158143135841
  0
LINE
  5
14CD
  8
240
 10
118.67021782175669
 20
-9.2897561251665675
 30
0.0
 11
110.142613217094
 21
-9.6190799265162088
 31
0.0
  0
ARC
  5
14CE
  8
240
 10
118.650922925046
 20
-8.7901285569110321
 30
0.0
 40
0.5
 50
272.21158143135841
 51
357.45519562019069
  0
LINE
  5
14CF
  8
240
 10
119.1907768805077
 20
-7.904520188577087
 30
0.0
 11
119.1504298282791
 21
-8.8123288637213832
 31
0.0
  0
LINE
  5
14D0
  8
245
 10
111.63105437400201
 20
6.622999999999994
 30
0.0
 11
116.9145366415664
 21
6.622999999999994
 31
0.0
  0
LINE
  5
14D1
  8
245
 10
114.23400000000009
 20
4.4386324982679408
 30
0.0
 11
114.23399999999999
 21
8.8248088712009771
 31
0.0
  0
LINE
  5
14D2
  8
240
 10
109.9843162024351
 20
10.000000000000011
 30
0.0
 11
120.0
 21
10.0
 31
0.0
1001
GRPNAME
1000
PASTMD03
  0
LINE
  5
14D3
  8
241
 10
116.8629137667928
 20
3.5000000000000191
 30
0.0
 11
118.252567901052
 21
3.500000000000016
 31
0.0
1001
GRPNAME
1000
PASTMD03
  0
LINE
  5
14D4
  8
240
 10
120.0
 20
6.7500000000000071
 30
0.0
 11
120.0000000000001
 21
10.000000000000011
 31
0.0
1001
GRPNAME
1000
PASTMD03
  0
LINE
  5
14D5
  8
240
 10
120.0
 20
6.7500000000000071
 30
0.0
 11
118.59359941269589
 21
3.500000000000016
 31
0.0
  0
LINE
  5
14D6
  8
241
 10
108.4680000000001
 20
6.495999999999988
 30
0.0
 11
108.4680000000001
 21
5.9577934654940758
 31
0.0
1001
GRPNAME
1000
PASTMD03
  0
LINE
  5
14D7
  8
241
 10
108.4680000000001
 20
6.495999999999988
 30
0.0
 11
109.7899100908338
 21
9.5507539826079597
 31
0.0
  0
LINE
  5
14D8
  8
240
 10
118.252567901052
 20
3.500000000000016
 30
0.0
 11
118.252567901052
 21
3.0158945858769362
 31
0.0
  0
LINE
  5
14D9
  8
240
 10
119.25
 20
-0.217832974319391
 30
0.0
 11
118.9028861426719
 21
1.8568484963873599
 31
0.0
  0
LINE
  5
14DA
  8
242
 10
110.5032817536156
 20
9.9070737658590495
 30
0.0
 11
118.2655546817587
 21
8.5171572483835156
 31
0.0
  0
LINE
  5
14DB
  8
242
 10
119.08159479653411
 20
7.4089336604599492
 30
0.0
 11
118.65891108103639
 21
4.023158593814852
 31
0.0
  0
LINE
  5
14DC
  8
242
 10
118.0746338615153
 20
3.5929262341409718
 30
0.0
 11
114.1376116940568
 21
4.2978914152000067
 31
0.0
  0
LINE
  5
14DD
  8
242
 10
109.4440098022335
 20
5.6720453826875179
 30
0.0
 11
109.9190045340946
 21
9.476841406185164
 31
0.0
  0
LINE
  5
14DE
  8
241
 10
119.1907768805077
 20
-7.904520188577087
 30
0.0
 11
110.7193218708066
 21
-4.8211627241205743
 31
0.0
  0
LINE
  5
14DF
  8
240
 10
119.25
 20
-3.9455919522391349
 30
0.0
 11
120.0
 21
-8.1990533169523072
 31
0.0
  0
ARC
  5
14E0
  8
241
 10
117.40494184053991
 20
1.7783445620229701
 30
0.0
 40
1.5
 50
55.591872576244128
 51
73.681460863025364
  0
LINE
  5
14E1
  8
240
 10
118.252567901052
 20
3.500000000000016
 30
0.0
 11
118.59359941269589
 21
3.5000000000000151
 31
0.0
  0
LINE
  5
14E2
  8
240
 10
109.7899100908338
 20
9.5507539826079597
 30
0.0
 11
109.9843162024351
 21
10.000000000000011
 31
0.0
  0
CIRCLE
  5
14E3
  8
241
 10
114.23400000000009
 20
6.622999999999994
 30
0.0
 40
1.8999999999999999
  0
ARC
  5
14E4
  8
242
 10
118.0892975196254
 20
7.5328130947478531
 30
0.0
 40
1.0
 50
352.88395086182572
 51
79.848174525525863
1001
GENIUS_GENOBJ-N-FIL_13
1002
{
1000
OWNER
1000
GEN
1002
}
1001
GENIUS_GENODEF_13
1002
{
1000
HIER
1070
     0
1002
}
1002
{
1000
MANEDIT
1070
     0
1002
}
1002
{
1000
NOSEL
1070
     0
1002
}
1002
{
1000
BEHIND
1070
     0
1002
}
1002
{
1000
OTHER
1070
     0
1002
}
1002
{
1000
REACTOR
1002
}
  0
ARC
  5
14E5
  8
242
 10
110.415153172549
 20
9.4149016890412156
 30
0.0
 40
0.5
 50
79.848174525525863
 51
172.88395086182561
1001
GENIUS_GENOBJ-N-FIL_13
1002
{
1000
OWNER
1000
GEN
1002
}
1001
GENIUS_GENODEF_13
1002
{
1000
HIER
1070
     0
1002
}
1002
{
1000
MANEDIT
1070
     0
1002
}
1002
{
1000
NOSEL
1070
     0
1002
}
1002
{
1000
BEHIND
1070
     0
1002
}
1002
{
1000
OTHER
1070
     0
1002
}
1002
{
1000
REACTOR
1002
}
  0
ARC
  5
14E6
  8
242
 10
118.16276244258199
 20
4.0850983109588039
 30
0.0
 40
0.5
 50
259.84817452552579
 51
352.88395086182572
1001
GENIUS_GENOBJ-N-FIL_13
1002
{
1000
OWNER
1000
GEN
1002
}
1001
GENIUS_GENODEF_13
1002
{
1000
HIER
1070
     0
1002
}
1002
{
1000
MANEDIT
1070
     0
1002
}
1002
{
1000
NOSEL
1070
     0
1002
}
1002
{
1000
BEHIND
1070
     0
1002
}
1002
{
1000
OTHER
1070
     0
1002
}
1002
{
1000
REACTOR
1002
}
  0
TEXT
  5
14E9
  8
250
 10
-47.925063773333328
 20
-27.409457620000001
 30
0.0
 40
2.7999999999999989
  1
BBT40
  7
YOKO
1001
ITEMNAME
1000
LNSP3
1001
ACAD
1000
MTEXTBEGIN
1070
    73
1070
     1
1070
    44
1040
1.0
1070
    74
1070
     0
1000
MTEXTEND
1000
MTEXTBEGIN
1070
    73
1070
     1
1070
    44
1040
1.0
1070
    74
1070
     0
1000
MTEXTEND
  0
LINE
  5
14EC
  8
250
 10
0.0
 20
22.725000000000001
 30
0.0
 11
0.0
 21
43.0
 31
0.0
  0
LINE
  5
14ED
  8
250
 10
120.0
 20
10.5
 30
0.0
 11
120.0
 21
43.0
 31
0.0
  0
LINE
  5
14EE
  8
250
 10
2.2299999999999991
 20
42.0
 30
0.0
 11
117.77
 21
42.0
 31
0.0
  0
LINE
  5
14F2
  8
250
 10
90.0
 20
10.012161559999999
 30
0.0
 11
90.0
 21
36.0
 31
0.0
  0
LINE
  5
14F3
  8
250
 10
120.0
 20
10.5
 30
0.0
 11
120.0
 21
36.0
 31
0.0
  0
LINE
  5
14F4
  8
250
 10
92.230000000000004
 20
35.0
 30
0.0
 11
117.77
 21
35.0
 31
0.0
  0
LINE
  5
14F8
  8
250
 10
112.0
 20
10.5
 30
0.0
 11
112.0
 21
29.0
 31
0.0
  0
LINE
  5
14F9
  8
250
 10
120.0
 20
10.5
 30
0.0
 11
120.0
 21
29.0
 31
0.0
  0
LINE
  5
14FA
  8
250
 10
114.23
 20
28.0
 30
0.0
 11
117.77
 21
28.0
 31
0.0
  0
LINE
  5
14FF
  8
250
 10
120.5
 20
10.0
 30
0.0
 11
134.0
 21
10.0
 31
0.0
  0
LINE
  5
1500
  8
250
 10
133.0
 20
-7.7699999999999987
 30
0.0
 11
133.0
 21
7.7699999999999987
 31
0.0
  0
LINE
  5
1504
  8
250
 10
-27.759420810687661
 20
-20.270591950042281
 30
0.0
 11
-32.458397099999999
 21
-28.409457620000001
 31
0.0
1001
ACAD
1000
DSTYLE
1002
{
1070
     6
1000
OPEN
1070
   343
1005
594
1002
}
  0
LINE
  5
1505
  8
250
 10
-28.081293585694709
 20
-20.084758616594339
 30
0.0
 11
-26.64442081
 21
-18.339355300000001
 31
0.0
  0
LINE
  5
1506
  8
250
 10
-27.437548035680621
 20
-20.456425283490219
 30
0.0
 11
-26.64442081
 21
-18.339355300000001
 31
0.0
  0
LINE
  5
1507
  8
250
 10
-26.64442081
 20
-18.339355300000001
 30
0.0
 11
-27.759420810687661
 21
-20.270591950042281
 31
0.0
  0
TEXT
  5
1508
  8
250
 10
55.799999999999997
 20
43.0
 30
0.0
 40
2.7999999999999989
  1
120
1001
ACAD
1000
MTEXTBEGIN
1070
    73
1070
     1
1070
    44
1040
1.0
1070
    74
1070
     0
1000
MTEXTEND
1000
MTEXTBEGIN
1070
    73
1070
     1
1070
    44
1040
1.0
1070
    74
1070
     0
1000
MTEXTEND
  0
LINE
  5
1509
  8
250
 10
117.77
 20
42.371666666666663
 30
0.0
 11
120.0
 21
42.0
 31
0.0
  0
LINE
  5
150A
  8
250
 10
117.77
 20
41.62833333333333
 30
0.0
 11
120.0
 21
42.0
 31
0.0
  0
LINE
  5
150B
  8
250
 10
120.0
 20
42.0
 30
0.0
 11
117.77
 21
42.0
 31
0.0
  0
LINE
  5
150C
  8
250
 10
2.2299999999999991
 20
41.62833333333333
 30
0.0
 11
0.0
 21
42.0
 31
0.0
  0
LINE
  5
150D
  8
250
 10
2.2299999999999991
 20
42.371666666666663
 30
0.0
 11
0.0
 21
42.0
 31
0.0
  0
LINE
  5
150E
  8
250
 10
0.0
 20
42.0
 30
0.0
 11
2.2299999999999991
 21
42.0
 31
0.0
  0
TEXT
  5
150F
  8
250
 10
102.3333333333333
 20
36.0
 30
0.0
 40
2.7999999999999989
  1
30
1001
ACAD
1000
MTEXTBEGIN
1070
    73
1070
     1
1070
    44
1040
1.0
1070
    74
1070
     0
1000
MTEXTEND
1000
MTEXTBEGIN
1070
    73
1070
     1
1070
    44
1040
1.0
1070
    74
1070
     0
1000
MTEXTEND
  0
LINE
  5
1510
  8
250
 10
117.77
 20
35.37166666666667
 30
0.0
 11
120.0
 21
35.0
 31
0.0
  0
LINE
  5
1511
  8
250
 10
117.77
 20
34.62833333333333
 30
0.0
 11
120.0
 21
35.0
 31
0.0
  0
LINE
  5
1512
  8
250
 10
120.0
 20
35.0
 30
0.0
 11
117.77
 21
35.0
 31
0.0
  0
LINE
  5
1513
  8
250
 10
92.230000000000004
 20
34.62833333333333
 30
0.0
 11
90.0
 21
35.0
 31
0.0
  0
LINE
  5
1514
  8
250
 10
92.230000000000004
 20
35.37166666666667
 30
0.0
 11
90.0
 21
35.0
 31
0.0
  0
LINE
  5
1515
  8
250
 10
90.0
 20
35.0
 30
0.0
 11
92.230000000000004
 21
35.0
 31
0.0
  0
TEXT
  5
1516
  8
250
 10
114.6666666666666
 20
29.0
 30
0.0
 40
2.7999999999999989
  1
8
1001
ACAD
1000
MTEXTBEGIN
1070
    73
1070
     1
1070
    44
1040
1.0
1070
    74
1070
     0
1000
MTEXTEND
1000
MTEXTBEGIN
1070
    73
1070
     1
1070
    44
1040
1.0
1070
    74
1070
     0
1000
MTEXTEND
  0
LINE
  5
1517
  8
250
 10
117.77
 20
28.371666666666659
 30
0.0
 11
120.0
 21
28.0
 31
0.0
  0
LINE
  5
1518
  8
250
 10
117.77
 20
27.62833333333333
 30
0.0
 11
120.0
 21
28.0
 31
0.0
  0
LINE
  5
1519
  8
250
 10
120.0
 20
28.0
 30
0.0
 11
117.77
 21
28.0
 31
0.0
  0
LINE
  5
151A
  8
250
 10
114.23
 20
27.62833333333333
 30
0.0
 11
112.0
 21
28.0
 31
0.0
  0
LINE
  5
151B
  8
250
 10
114.23
 20
28.371666666666659
 30
0.0
 11
112.0
 21
28.0
 31
0.0
  0
LINE
  5
151C
  8
250
 10
112.0
 20
28.0
 30
0.0
 11
114.23
 21
28.0
 31
0.0
  0
TEXT
  5
151D
  8
250
 10
132.0
 20
-3.7999999999999989
 30
0.0
 40
2.7999999999999989
  1
\U+2205
 50
90.0
1001
ACAD
1000
MTEXTBEGIN
1070
    73
1070
     1
1070
    44
1040
1.0
1070
    74
1070
     0
1000
MTEXTEND
1000
MTEXTBEGIN
1070
    73
1070
     1
1070
    44
1040
1.0
1070
    74
1070
     0
1000
MTEXTEND
  0
TEXT
  5
151E
  8
250
 10
132.0
 20
-1.2666666666666671
 30
0.0
 40
2.7999999999999989
  1
20
 50
90.0
1001
ACAD
1000
MTEXTBEGIN
1070
    73
1070
     1
1070
    44
1040
1.0
1070
    74
1070
     0
1000
MTEXTEND
1000
MTEXTBEGIN
1070
    73
1070
     1
1070
    44
1040
1.0
1070
    74
1070
     0
1000
MTEXTEND
  0
LINE
  5
151F
  8
250
 10
132.6283333333333
 20
7.7699999999999987
 30
0.0
 11
133.0
 21
10.0
 31
0.0
  0
LINE
  5
1520
  8
250
 10
133.37166666666661
 20
7.7699999999999987
 30
0.0
 11
133.0
 21
10.0
 31
0.0
  0
LINE
  5
1521
  8
250
 10
133.0
 20
10.0
 30
0.0
 11
133.0
 21
7.7699999999999987
 31
0.0
  0
VIEWPORT
  5
22
 67
     1
  8
0
 10
261.51769911999997
 20
148.5
 30
0.0
 40
523.03539823000006
 41
297.0
 68
     1
 69
     1
1001
ACAD
1000
MVIEW
1002
{
1070
    16
1010
0.0
1020
0.0
1030
0.0
1010
0.0
1020
0.0
1030
1.0
1040
0.0
1040
297.0
1040
261.51769911999997
1040
148.5
1040
50.0
1040
0.0
1040
0.0
1070
     0
1070
   100
1070
     1
1070
     1
1070
     0
1070
     0
1070
     0
1070
     0
1040
0.0
1040
0.0
1040
0.0
1040
1.0
1040
1.0
1040
10.0
1040
10.0
1070
     0
1002
{
1002
}
1002
}
1001
GENIUS_GENODEF_13
1002
{
1000
HIER
1070
     0
1002
}
1002
{
1000
MANEDIT
1070
     0
1002
}
1002
{
1000
NOSEL
1070
     0
1002
}
1002
{
1000
BEHIND
1070
     0
1002
}
1002
{
1000
OTHER
1070
     0
1002
}
1002
{
1000
REACTOR
1002
}
1001
GENIUS_GENOBJ-N-SDF_13
1002
{
1000
OWNER
1000
GEN
1002
}
1001
GENIUS_GENSCREG_15
1000
PF
1040
1.0
1000
DF
1040
1.0
1000
MIN
1011
0.0000000049999471
1021
0.0
1031
0.0
1021
0.0
1031
0.0
1000
MAX
1011
523.035398235
1021
0.0
1031
0.0
1021
297.0
1031
0.0
1000
FLAGS
1070
     2
  0
ENDSEC
  0
EOF
