ISO-10303-21;
HEADER;
FILE_DESCRIPTION((''),'1');
FILE_NAME('//Big_tech03/bigt/Translate/21_\X2\8F2A90ED7DDA\X0\-DXF/71_\X2\5207524A5DE55177\X0\/01_\X2\30A830F330C930DF30EB52A05DE5\X0\/01_\X2\30D530EB30AB30C330C830DF30EB\X0\ FCM/BBT/BBT40/BBT40-FCM50115-70.stp','2012-05-30T03:54:48',(''),(''),'Spatial Interop R18','Kubotek KeyCreator V8.5.1 (14335)',' ');
FILE_SCHEMA(('CONFIG_CONTROL_DESIGN'));
ENDSEC;
DATA;
#1=DESIGN_CONTEXT('',#27,'design');
#2=APPLICATION_PROTOCOL_DEFINITION('INTERNATIONAL STANDARD','config_control_design',1994,#27);
#3=PRODUCT_CATEGORY_RELATIONSHIP('NONE','NONE',#28,#29);
#4=DATE_AND_TIME(#30,#31);
#5=DATE_TIME_ROLE('creation_date');
#6=DATE_TIME_ROLE('classification_date');
#7=PERSON_AND_ORGANIZATION_ROLE('creator');
#8=PERSON_AND_ORGANIZATION_ROLE('design_supplier');
#9=PERSON_AND_ORGANIZATION_ROLE('classification_officer');
#10=PERSON_AND_ORGANIZATION_ROLE('design_owner');
#11=APPROVAL_PERSON_ORGANIZATION(#32,#33,#34);
#12=APPROVAL_DATE_TIME(#4,#33);
#13=CC_DESIGN_APPROVAL(#33,(#35,#36,#37));
#14=CC_DESIGN_DATE_AND_TIME_ASSIGNMENT(#4,#5,(#37));
#15=CC_DESIGN_DATE_AND_TIME_ASSIGNMENT(#4,#6,(#35));
#16=CC_DESIGN_PERSON_AND_ORGANIZATION_ASSIGNMENT(#32,#10,(#38));
#17=CC_DESIGN_PERSON_AND_ORGANIZATION_ASSIGNMENT(#32,#7,(#37));
#18=CC_DESIGN_PERSON_AND_ORGANIZATION_ASSIGNMENT(#32,#7,(#36));
#19=CC_DESIGN_PERSON_AND_ORGANIZATION_ASSIGNMENT(#32,#8,(#36));
#20=CC_DESIGN_SECURITY_CLASSIFICATION(#35,(#36));
#21=CC_DESIGN_PERSON_AND_ORGANIZATION_ASSIGNMENT(#32,#9,(#35));
#22=SHAPE_DEFINITION_REPRESENTATION(#39,#40);
#23= (GEOMETRIC_REPRESENTATION_CONTEXT(3)GLOBAL_UNCERTAINTY_ASSIGNED_CONTEXT((#43))GLOBAL_UNIT_ASSIGNED_CONTEXT((#45,#46,#47))REPRESENTATION_CONTEXT('NONE','WORKSPACE'));
#27=APPLICATION_CONTEXT('CONFIGURATION CONTROLLED 3D DESIGNS OF MECHANICAL PARTS AND ASSEMBLIES');
#28=PRODUCT_CATEGORY('part','NONE');
#29=PRODUCT_RELATED_PRODUCT_CATEGORY('detail',' ',(#38));
#30=CALENDAR_DATE(2012,30,4);
#31=LOCAL_TIME(12,54,48.0,#49);
#32=PERSON_AND_ORGANIZATION(#50,#51);
#33=APPROVAL(#52,'SOLID MODEL');
#34=APPROVAL_ROLE('APPROVED');
#35=SECURITY_CLASSIFICATION('','',#53);
#36=PRODUCT_DEFINITION_FORMATION_WITH_SPECIFIED_SOURCE(' ','NONE',#38,.NOT_KNOWN.);
#37=PRODUCT_DEFINITION('NONE','NONE',#36,#1);
#38=PRODUCT('1','1','PART-1-DESC',(#54));
#39=PRODUCT_DEFINITION_SHAPE('NONE','NONE',#37);
#40=ADVANCED_BREP_SHAPE_REPRESENTATION('1',(#55,#56),#23);
#43=UNCERTAINTY_MEASURE_WITH_UNIT(LENGTH_MEASURE(1.0E-006),#45,'','');
#45= (CONVERSION_BASED_UNIT('MILLIMETRE',#59)LENGTH_UNIT()NAMED_UNIT(#62));
#46= (NAMED_UNIT(#64)PLANE_ANGLE_UNIT()SI_UNIT($,.RADIAN.));
#47= (NAMED_UNIT(#64)SOLID_ANGLE_UNIT()SI_UNIT($,.STERADIAN.));
#49=COORDINATED_UNIVERSAL_TIME_OFFSET(9,0,.AHEAD.);
#50=PERSON('','UNSPECIFIED',$,$,$,$);
#51=ORGANIZATION('UNSPECIFIED','UNSPECIFIED','UNSPECIFIED');
#52=APPROVAL_STATUS('approved');
#53=SECURITY_CLASSIFICATION_LEVEL('unclassified');
#54=MECHANICAL_CONTEXT('',#27,'mechanical');
#55=MANIFOLD_SOLID_BREP('1',#70);
#56=AXIS2_PLACEMENT_3D('',#71,#72,#73);
#59=LENGTH_MEASURE_WITH_UNIT(LENGTH_MEASURE(1.0),#74);
#62=DIMENSIONAL_EXPONENTS(1.0,0.0,0.0,0.0,0.0,0.0,0.0);
#64=DIMENSIONAL_EXPONENTS(0.0,0.0,0.0,0.0,0.0,0.0,0.0);
#70=CLOSED_SHELL('',(#75,#76,#77,#78,#79,#80,#81,#82,#83,#84,#85,#86,#87,#88,#89));
#71=CARTESIAN_POINT('',(0.0,0.0,0.0));
#72=DIRECTION('',(0.0,0.0,1.0));
#73=DIRECTION('',(1.0,0.0,0.0));
#74= (NAMED_UNIT(#62)LENGTH_UNIT()SI_UNIT(.MILLI.,.METRE.));
#75=ADVANCED_FACE('',(#91,#92),#93,.T.);
#76=ADVANCED_FACE('',(#94,#95),#96,.T.);
#77=ADVANCED_FACE('',(#97,#98),#99,.T.);
#78=ADVANCED_FACE('',(#100,#101),#102,.T.);
#79=ADVANCED_FACE('',(#103,#104),#105,.T.);
#80=ADVANCED_FACE('',(#106,#107),#108,.T.);
#81=ADVANCED_FACE('',(#109,#110),#111,.T.);
#82=ADVANCED_FACE('',(#112,#113),#114,.T.);
#83=ADVANCED_FACE('',(#115,#116),#117,.T.);
#84=ADVANCED_FACE('',(#118,#119),#120,.T.);
#85=ADVANCED_FACE('',(#121,#122),#123,.T.);
#86=ADVANCED_FACE('',(#124),#125,.T.);
#87=ADVANCED_FACE('',(#126,#127),#128,.T.);
#88=ADVANCED_FACE('',(#129),#130,.T.);
#89=ADVANCED_FACE('',(#131,#132),#133,.T.);
#91=FACE_OUTER_BOUND('',#134,.T.);
#92=FACE_BOUND('',#135,.T.);
#93=PLANE('',#136);
#94=FACE_BOUND('',#137,.T.);
#95=FACE_BOUND('',#138,.T.);
#96=CYLINDRICAL_SURFACE('',#139,31.5);
#97=FACE_BOUND('',#140,.T.);
#98=FACE_BOUND('',#141,.T.);
#99=CONICAL_SURFACE('',#142,29.0,1.04719755058882);
#100=FACE_BOUND('',#143,.T.);
#101=FACE_BOUND('',#144,.T.);
#102=CYLINDRICAL_SURFACE('',#145,26.5);
#103=FACE_BOUND('',#146,.T.);
#104=FACE_BOUND('',#147,.T.);
#105=CONICAL_SURFACE('',#148,29.0,1.04719755058882);
#106=FACE_BOUND('',#149,.T.);
#107=FACE_BOUND('',#150,.T.);
#108=CYLINDRICAL_SURFACE('',#151,31.5);
#109=FACE_BOUND('',#152,.T.);
#110=FACE_OUTER_BOUND('',#153,.T.);
#111=PLANE('',#154);
#112=FACE_BOUND('',#155,.T.);
#113=FACE_BOUND('',#156,.T.);
#114=CONICAL_SURFACE('',#157,25.9,0.785398163397448);
#115=FACE_BOUND('',#158,.T.);
#116=FACE_BOUND('',#159,.T.);
#117=CYLINDRICAL_SURFACE('',#160,24.4);
#118=FACE_BOUND('',#161,.T.);
#119=FACE_BOUND('',#162,.T.);
#120=CONICAL_SURFACE('',#163,24.7,0.349471099112727);
#121=FACE_BOUND('',#164,.T.);
#122=FACE_BOUND('',#165,.T.);
#123=CYLINDRICAL_SURFACE('',#166,25.0);
#124=FACE_OUTER_BOUND('',#167,.T.);
#125=PLANE('',#168);
#126=FACE_BOUND('',#169,.T.);
#127=FACE_BOUND('',#170,.T.);
#128=CYLINDRICAL_SURFACE('',#171,22.225);
#129=FACE_OUTER_BOUND('',#172,.T.);
#130=PLANE('',#173);
#131=FACE_BOUND('',#174,.T.);
#132=FACE_BOUND('',#175,.T.);
#133=CONICAL_SURFACE('',#176,17.4562500026599,0.144812498159292);
#134=EDGE_LOOP('',(#177));
#135=EDGE_LOOP('',(#178));
#136=AXIS2_PLACEMENT_3D('',#179,#180,#181);
#137=EDGE_LOOP('',(#182));
#138=EDGE_LOOP('',(#183));
#139=AXIS2_PLACEMENT_3D('',#184,#185,#186);
#140=EDGE_LOOP('',(#187));
#141=EDGE_LOOP('',(#188));
#142=AXIS2_PLACEMENT_3D('',#189,#190,#191);
#143=EDGE_LOOP('',(#192));
#144=EDGE_LOOP('',(#193));
#145=AXIS2_PLACEMENT_3D('',#194,#195,#196);
#146=EDGE_LOOP('',(#197));
#147=EDGE_LOOP('',(#198));
#148=AXIS2_PLACEMENT_3D('',#199,#200,#201);
#149=EDGE_LOOP('',(#202));
#150=EDGE_LOOP('',(#203));
#151=AXIS2_PLACEMENT_3D('',#204,#205,#206);
#152=EDGE_LOOP('',(#207));
#153=EDGE_LOOP('',(#208));
#154=AXIS2_PLACEMENT_3D('',#209,#210,#211);
#155=EDGE_LOOP('',(#212));
#156=EDGE_LOOP('',(#213));
#157=AXIS2_PLACEMENT_3D('',#214,#215,#216);
#158=EDGE_LOOP('',(#217));
#159=EDGE_LOOP('',(#218));
#160=AXIS2_PLACEMENT_3D('',#219,#220,#221);
#161=EDGE_LOOP('',(#222));
#162=EDGE_LOOP('',(#223));
#163=AXIS2_PLACEMENT_3D('',#224,#225,#226);
#164=EDGE_LOOP('',(#227));
#165=EDGE_LOOP('',(#228));
#166=AXIS2_PLACEMENT_3D('',#229,#230,#231);
#167=EDGE_LOOP('',(#232));
#168=AXIS2_PLACEMENT_3D('',#233,#234,#235);
#169=EDGE_LOOP('',(#236));
#170=EDGE_LOOP('',(#237));
#171=AXIS2_PLACEMENT_3D('',#238,#239,#240);
#172=EDGE_LOOP('',(#241));
#173=AXIS2_PLACEMENT_3D('',#242,#243,#244);
#174=EDGE_LOOP('',(#245));
#175=EDGE_LOOP('',(#246));
#176=AXIS2_PLACEMENT_3D('',#247,#248,#249);
#177=ORIENTED_EDGE('',*,*,#250,.F.);
#178=ORIENTED_EDGE('',*,*,#251,.T.);
#179=CARTESIAN_POINT('',(6.12323399573673E-017,26.8625,-0.999999999999997));
#180=DIRECTION('',(-6.12323399573677E-017,-1.22464679914735E-016,1.0));
#181=DIRECTION('',(1.23259516440783E-032,-1.0,-1.22464679914735E-016));
#182=ORIENTED_EDGE('',*,*,#252,.F.);
#183=ORIENTED_EDGE('',*,*,#250,.T.);
#184=CARTESIAN_POINT('',(3.85763741731416E-016,7.71527483462832E-016,-6.3));
#185=DIRECTION('',(-6.12323399573677E-017,-1.22464679914735E-016,1.0));
#186=DIRECTION('',(-1.23259516440783E-032,1.0,1.22464679914735E-016));
#187=ORIENTED_EDGE('',*,*,#253,.F.);
#188=ORIENTED_EDGE('',*,*,#252,.T.);
#189=CARTESIAN_POINT('',(7.9867641352326E-016,1.59735282704652E-015,-13.043375675));
#190=DIRECTION('',(-6.12323399573677E-017,-1.22464679914735E-016,1.0));
#191=DIRECTION('',(-1.23259516440783E-032,1.0,1.22464679914735E-016));
#192=ORIENTED_EDGE('',*,*,#254,.F.);
#193=ORIENTED_EDGE('',*,*,#253,.T.);
#194=CARTESIAN_POINT('',(1.0164568432923E-015,2.03291368658461E-015,-16.6));
#195=DIRECTION('',(-6.12323399573677E-017,-1.22464679914735E-016,1.0));
#196=DIRECTION('',(-1.23259516440783E-032,1.0,1.22464679914735E-016));
#197=ORIENTED_EDGE('',*,*,#255,.F.);
#198=ORIENTED_EDGE('',*,*,#254,.T.);
#199=CARTESIAN_POINT('',(1.23423727306135E-015,2.46847454612269E-015,-20.156624325));
#200=DIRECTION('',(6.12323399573677E-017,1.22464679914735E-016,-1.0));
#201=DIRECTION('',(-1.23259516440783E-032,1.0,1.22464679914735E-016));
#202=ORIENTED_EDGE('',*,*,#256,.F.);
#203=ORIENTED_EDGE('',*,*,#255,.T.);
#204=CARTESIAN_POINT('',(1.48794586096403E-015,2.97589172192807E-015,-24.3));
#205=DIRECTION('',(-6.12323399573677E-017,-1.22464679914735E-016,1.0));
#206=DIRECTION('',(-1.23259516440783E-032,1.0,1.22464679914735E-016));
#207=ORIENTED_EDGE('',*,*,#257,.F.);
#208=ORIENTED_EDGE('',*,*,#256,.T.);
#209=CARTESIAN_POINT('',(1.65327317884893E-015,29.45,-27.0));
#210=DIRECTION('',(6.12323399573677E-017,1.22464679914735E-016,-1.0));
#211=DIRECTION('',(-1.23259516440783E-032,1.0,1.22464679914735E-016));
#212=ORIENTED_EDGE('',*,*,#258,.F.);
#213=ORIENTED_EDGE('',*,*,#257,.T.);
#214=CARTESIAN_POINT('',(1.74512168878498E-015,3.49024337756996E-015,-28.5));
#215=DIRECTION('',(-6.12323399573676E-017,-1.22464679914735E-016,1.0));
#216=DIRECTION('',(-1.23259516440783E-032,1.0,1.22464679914735E-016));
#217=ORIENTED_EDGE('',*,*,#259,.F.);
#218=ORIENTED_EDGE('',*,*,#258,.T.);
#219=CARTESIAN_POINT('',(2.67443235448351E-015,5.34886470896701E-015,-43.676794915));
#220=DIRECTION('',(-6.12323399573677E-017,-1.22464679914735E-016,1.0));
#221=DIRECTION('',(-1.23259516440783E-032,1.0,1.22464679914735E-016));
#222=ORIENTED_EDGE('',*,*,#260,.F.);
#223=ORIENTED_EDGE('',*,*,#259,.T.);
#224=CARTESIAN_POINT('',(3.56230128386534E-015,7.12460256773067E-015,-58.176794915));
#225=DIRECTION('',(6.12323399573677E-017,1.22464679914735E-016,-1.0));
#226=DIRECTION('',(-1.23259516440783E-032,1.0,1.22464679914735E-016));
#227=ORIENTED_EDGE('',*,*,#261,.F.);
#228=ORIENTED_EDGE('',*,*,#260,.T.);
#229=CARTESIAN_POINT('',(3.94948592725021E-015,7.89897185450043E-015,-64.5));
#230=DIRECTION('',(-6.12323399573677E-017,-1.22464679914735E-016,1.0));
#231=DIRECTION('',(-1.23259516440783E-032,1.0,1.22464679914735E-016));
#232=ORIENTED_EDGE('',*,*,#261,.T.);
#233=CARTESIAN_POINT('',(4.28626379701574E-015,12.5,-70.0));
#234=DIRECTION('',(6.12323399573677E-017,1.22464679914735E-016,-1.0));
#235=DIRECTION('',(-1.23259516440783E-032,1.0,1.22464679914735E-016));
#236=ORIENTED_EDGE('',*,*,#251,.F.);
#237=ORIENTED_EDGE('',*,*,#262,.T.);
#238=CARTESIAN_POINT('',(3.06161699786837E-017,6.12323399573674E-017,-0.499999999999998));
#239=DIRECTION('',(-6.12323399573677E-017,-1.22464679914735E-016,1.0));
#240=DIRECTION('',(-1.23259516440783E-032,1.0,1.22464679914735E-016));
#241=ORIENTED_EDGE('',*,*,#263,.F.);
#242=CARTESIAN_POINT('',(-4.00459503321185E-015,6.34375000265984,65.4));
#243=DIRECTION('',(-6.12323399573677E-017,-1.22464679914735E-016,1.0));
#244=DIRECTION('',(1.23259516440783E-032,-1.0,-1.22464679914735E-016));
#245=ORIENTED_EDGE('',*,*,#262,.F.);
#246=ORIENTED_EDGE('',*,*,#263,.T.);
#247=CARTESIAN_POINT('',(-2.00229751660592E-015,-4.00459503321184E-015,32.7));
#248=DIRECTION('',(6.12323399573677E-017,1.22464679914735E-016,-1.0));
#249=DIRECTION('',(-1.23259516440783E-032,1.0,1.22464679914735E-016));
#250=EDGE_CURVE('',#264,#264,#265,.T.);
#251=EDGE_CURVE('',#266,#266,#267,.T.);
#252=EDGE_CURVE('',#268,#268,#269,.T.);
#253=EDGE_CURVE('',#270,#270,#271,.T.);
#254=EDGE_CURVE('',#272,#272,#273,.T.);
#255=EDGE_CURVE('',#274,#274,#275,.T.);
#256=EDGE_CURVE('',#276,#276,#277,.T.);
#257=EDGE_CURVE('',#278,#278,#279,.T.);
#258=EDGE_CURVE('',#280,#280,#281,.T.);
#259=EDGE_CURVE('',#282,#282,#283,.T.);
#260=EDGE_CURVE('',#284,#284,#285,.T.);
#261=EDGE_CURVE('',#286,#286,#287,.T.);
#262=EDGE_CURVE('',#288,#288,#289,.T.);
#263=EDGE_CURVE('',#290,#290,#291,.T.);
#264=VERTEX_POINT('',#292);
#265=CIRCLE('',#293,31.5);
#266=VERTEX_POINT('',#294);
#267=CIRCLE('',#295,22.225);
#268=VERTEX_POINT('',#296);
#269=CIRCLE('',#297,31.5);
#270=VERTEX_POINT('',#298);
#271=CIRCLE('',#299,26.5);
#272=VERTEX_POINT('',#300);
#273=CIRCLE('',#301,26.5);
#274=VERTEX_POINT('',#302);
#275=CIRCLE('',#303,31.5);
#276=VERTEX_POINT('',#304);
#277=CIRCLE('',#305,31.5);
#278=VERTEX_POINT('',#306);
#279=CIRCLE('',#307,27.4);
#280=VERTEX_POINT('',#308);
#281=CIRCLE('',#309,24.4);
#282=VERTEX_POINT('',#310);
#283=CIRCLE('',#311,24.4);
#284=VERTEX_POINT('',#312);
#285=CIRCLE('',#313,25.0);
#286=VERTEX_POINT('',#314);
#287=CIRCLE('',#315,25.0);
#288=VERTEX_POINT('',#316);
#289=CIRCLE('',#317,22.225);
#290=VERTEX_POINT('',#318);
#291=CIRCLE('',#319,12.6875000053197);
#292=CARTESIAN_POINT('',(6.12323399573673E-017,31.5,-0.999999999999996));
#293=AXIS2_PLACEMENT_3D('',#320,#321,#322);
#294=CARTESIAN_POINT('',(6.12323399573674E-017,22.225,-0.999999999999997));
#295=AXIS2_PLACEMENT_3D('',#323,#324,#325);
#296=CARTESIAN_POINT('',(7.10295143505464E-016,31.5,-11.6));
#297=AXIS2_PLACEMENT_3D('',#326,#327,#328);
#298=CARTESIAN_POINT('',(8.87057683541055E-016,26.5,-14.48675135));
#299=AXIS2_PLACEMENT_3D('',#329,#330,#331);
#300=CARTESIAN_POINT('',(1.14585600304355E-015,26.5,-18.71324865));
#301=AXIS2_PLACEMENT_3D('',#332,#333,#334);
#302=CARTESIAN_POINT('',(1.32261854307914E-015,31.5,-21.6));
#303=AXIS2_PLACEMENT_3D('',#335,#336,#337);
#304=CARTESIAN_POINT('',(1.65327317884893E-015,31.5,-27.0));
#305=AXIS2_PLACEMENT_3D('',#338,#339,#340);
#306=CARTESIAN_POINT('',(1.65327317884893E-015,27.4,-27.0));
#307=AXIS2_PLACEMENT_3D('',#341,#342,#343);
#308=CARTESIAN_POINT('',(1.83697019872103E-015,24.4,-30.0));
#309=AXIS2_PLACEMENT_3D('',#344,#345,#346);
#310=CARTESIAN_POINT('',(3.51189451024598E-015,24.4,-57.35358983));
#311=AXIS2_PLACEMENT_3D('',#347,#348,#349);
#312=CARTESIAN_POINT('',(3.61270805748469E-015,25.0,-59.0));
#313=AXIS2_PLACEMENT_3D('',#350,#351,#352);
#314=CARTESIAN_POINT('',(4.28626379701574E-015,25.0,-70.0));
#315=AXIS2_PLACEMENT_3D('',#353,#354,#355);
#316=CARTESIAN_POINT('',(-4.76010997148954E-031,22.225,6.02177751110499E-015));
#317=AXIS2_PLACEMENT_3D('',#356,#357,#358);
#318=CARTESIAN_POINT('',(-4.00459503321185E-015,12.6875000053197,65.4));
#319=AXIS2_PLACEMENT_3D('',#359,#360,#361);
#320=CARTESIAN_POINT('',(6.12323399573677E-017,1.22464679914735E-016,-1.0));
#321=DIRECTION('',(6.12323399573677E-017,1.22464679914735E-016,-1.0));
#322=DIRECTION('',(-1.23259516440783E-032,1.0,1.22464679914735E-016));
#323=CARTESIAN_POINT('',(6.12323399573677E-017,1.22464679914735E-016,-1.0));
#324=DIRECTION('',(6.12323399573677E-017,1.22464679914735E-016,-1.0));
#325=DIRECTION('',(-1.23259516440783E-032,1.0,1.22464679914735E-016));
#326=CARTESIAN_POINT('',(7.10295143505465E-016,1.42059028701093E-015,-11.6));
#327=DIRECTION('',(6.12323399573677E-017,1.22464679914735E-016,-1.0));
#328=DIRECTION('',(-1.23259516440783E-032,1.0,1.22464679914735E-016));
#329=CARTESIAN_POINT('',(8.87057683541055E-016,1.77411536708211E-015,-14.48675135));
#330=DIRECTION('',(6.12323399573677E-017,1.22464679914735E-016,-1.0));
#331=DIRECTION('',(-1.23259516440783E-032,1.0,1.22464679914735E-016));
#332=CARTESIAN_POINT('',(1.14585600304355E-015,2.2917120060871E-015,-18.71324865));
#333=DIRECTION('',(6.12323399573677E-017,1.22464679914735E-016,-1.0));
#334=DIRECTION('',(-1.23259516440783E-032,1.0,1.22464679914735E-016));
#335=CARTESIAN_POINT('',(1.32261854307914E-015,2.64523708615828E-015,-21.6));
#336=DIRECTION('',(6.12323399573677E-017,1.22464679914735E-016,-1.0));
#337=DIRECTION('',(-1.23259516440783E-032,1.0,1.22464679914735E-016));
#338=CARTESIAN_POINT('',(1.65327317884893E-015,3.30654635769785E-015,-27.0));
#339=DIRECTION('',(6.12323399573677E-017,1.22464679914735E-016,-1.0));
#340=DIRECTION('',(-1.23259516440783E-032,1.0,1.22464679914735E-016));
#341=CARTESIAN_POINT('',(1.65327317884893E-015,3.30654635769785E-015,-27.0));
#342=DIRECTION('',(6.12323399573677E-017,1.22464679914735E-016,-1.0));
#343=DIRECTION('',(-1.23259516440783E-032,1.0,1.22464679914735E-016));
#344=CARTESIAN_POINT('',(1.83697019872103E-015,3.67394039744206E-015,-30.0));
#345=DIRECTION('',(6.12323399573677E-017,1.22464679914735E-016,-1.0));
#346=DIRECTION('',(-1.23259516440783E-032,1.0,1.22464679914735E-016));
#347=CARTESIAN_POINT('',(3.51189451024598E-015,7.02378902049197E-015,-57.35358983));
#348=DIRECTION('',(6.12323399573677E-017,1.22464679914735E-016,-1.0));
#349=DIRECTION('',(-1.23259516440783E-032,1.0,1.22464679914735E-016));
#350=CARTESIAN_POINT('',(3.61270805748469E-015,7.22541611496938E-015,-59.0));
#351=DIRECTION('',(6.12323399573677E-017,1.22464679914735E-016,-1.0));
#352=DIRECTION('',(-1.23259516440783E-032,1.0,1.22464679914735E-016));
#353=CARTESIAN_POINT('',(4.28626379701574E-015,8.57252759403147E-015,-70.0));
#354=DIRECTION('',(6.12323399573677E-017,1.22464679914735E-016,-1.0));
#355=DIRECTION('',(-1.23259516440783E-032,1.0,1.22464679914735E-016));
#356=CARTESIAN_POINT('',(-2.02245122175225E-031,-4.0449024435045E-031,3.30291349825984E-015));
#357=DIRECTION('',(6.12323399573677E-017,1.22464679914735E-016,-1.0));
#358=DIRECTION('',(-1.23259516440783E-032,1.0,1.22464679914735E-016));
#359=CARTESIAN_POINT('',(-4.00459503321185E-015,-8.00919006642369E-015,65.4));
#360=DIRECTION('',(6.12323399573677E-017,1.22464679914735E-016,-1.0));
#361=DIRECTION('',(-1.23259516440783E-032,1.0,1.22464679914735E-016));
ENDSEC;
END-ISO-10303-21;
