  0
SECTION
  2
HEADER
  9
$ACADVER
  1
AC1009
  9
$INSBASE
 10
0.0
 20
0.0
 30
0.0
  9
$EXTMIN
 10
-66.422178820188037
 20
-31.72185850782785
 30
-0.000000039842541
  9
$EXTMAX
 10
148.01121365943689
 20
71.51282709168288
 30
0.0000000765687993
  9
$LIMMIN
 10
0.0
 20
0.0
  9
$LIMMAX
 10
297.0
 20
210.0
  9
$ORTHOMODE
 70
     0
  9
$REGENMODE
 70
     1
  9
$FILLMODE
 70
     1
  9
$QTEXTMODE
 70
     0
  9
$MIRRTEXT
 70
     1
  9
$DRAGMODE
 70
     2
  9
$LTSCALE
 40
10.0
  9
$OSMODE
 70
    39
  9
$ATTMODE
 70
     1
  9
$TEXTSIZE
 40
3.0
  9
$TRACEWID
 40
1.0
  9
$TEXTSTYLE
  7
YOKO
  9
$CLAYER
  8
240
  9
$CELTYPE
  6
BYLAYER
  9
$CECOLOR
 62
   256
  9
$DIMSCALE
 40
1.0
  9
$DIMASZ
 40
2.2299999999999991
  9
$DIMEXO
 40
0.5
  9
$DIMDLI
 40
2.5
  9
$DIMRND
 40
0.0
  9
$DIMDLE
 40
0.0
  9
$DIMEXE
 40
1.0
  9
$DIMTP
 40
0.0
  9
$DIMTM
 40
0.0
  9
$DIMTXT
 40
3.5
  9
$DIMCEN
 40
0.0
  9
$DIMTSZ
 40
0.0
  9
$DIMTOL
 70
     0
  9
$DIMLIM
 70
     0
  9
$DIMTIH
 70
     0
  9
$DIMTOH
 70
     0
  9
$DIMSE1
 70
     0
  9
$DIMSE2
 70
     0
  9
$DIMTAD
 70
     3
  9
$DIMZIN
 70
     9
  9
$DIMBLK
  1
OPEN
  9
$DIMASO
 70
     1
  9
$DIMSHO
 70
     1
  9
$DIMPOST
  1

  9
$DIMAPOST
  1

  9
$DIMALT
 70
     0
  9
$DIMALTD
 70
     2
  9
$DIMALTF
 40
25.399999999999999
  9
$DIMLFAC
 40
1.0
  9
$DIMTOFL
 70
     1
  9
$DIMTVP
 40
0.0
  9
$DIMTIX
 70
     0
  9
$DIMSOXD
 70
     0
  9
$DIMSAH
 70
     0
  9
$DIMBLK1
  1

  9
$DIMBLK2
  1

  9
$DIMSTYLE
  2
BIGT
  9
$DIMCLRD
 70
   256
  9
$DIMCLRE
 70
   256
  9
$DIMCLRT
 70
    40
  9
$DIMTFAC
 40
1.0
  9
$DIMGAP
 40
1.0
  9
$LUNITS
 70
     2
  9
$LUPREC
 70
     3
  9
$SKETCHINC
 40
1.0
  9
$FILLETRAD
 40
1.6000000000000001
  9
$AUNITS
 70
     0
  9
$AUPREC
 70
     3
  9
$MENU
  1
.
  9
$ELEVATION
 40
0.0
  9
$PELEVATION
 40
0.0
  9
$THICKNESS
 40
0.0
  9
$LIMCHECK
 70
     0
  9
$BLIPMODE
 70
     0
  9
$CHAMFERA
 40
10.0
  9
$CHAMFERB
 40
10.0
  9
$SKPOLY
 70
     0
  9
$TDCREATE
 40
2452356.706116898
  9
$TDUPDATE
 40
2456086.6915446059
  9
$TDINDWG
 40
0.1485544329
  9
$TDUSRTIMER
 40
0.1485544329
  9
$USRTIMER
 70
     1
  9
$ANGBASE
 50
0.0
  9
$ANGDIR
 70
     0
  9
$PDMODE
 70
     1
  9
$PDSIZE
 40
-5.0
  9
$PLINEWID
 40
0.0
  9
$COORDS
 70
     0
  9
$SPLFRAME
 70
     0
  9
$SPLINETYPE
 70
     6
  9
$SPLINESEGS
 70
     8
  9
$ATTDIA
 70
     1
  9
$ATTREQ
 70
     1
  9
$HANDLING
 70
     1
  9
$HANDSEED
  5
17DD
  9
$SURFTAB1
 70
     6
  9
$SURFTAB2
 70
     6
  9
$SURFTYPE
 70
     6
  9
$SURFU
 70
     6
  9
$SURFV
 70
     6
  9
$UCSNAME
  2

  9
$UCSORG
 10
0.0
 20
0.0
 30
0.0
  9
$UCSXDIR
 10
1.0
 20
0.0
 30
0.0
  9
$UCSYDIR
 10
0.0
 20
1.0
 30
0.0
  9
$PUCSNAME
  2

  9
$PUCSORG
 10
0.0
 20
0.0
 30
0.0
  9
$PUCSXDIR
 10
1.0
 20
0.0
 30
0.0
  9
$PUCSYDIR
 10
0.0
 20
1.0
 30
0.0
  9
$USERI1
 70
     1
  9
$USERI2
 70
     0
  9
$USERI3
 70
     0
  9
$USERI4
 70
     0
  9
$USERI5
 70
     0
  9
$USERR1
 40
0.0
  9
$USERR2
 40
0.0
  9
$USERR3
 40
0.0
  9
$USERR4
 40
0.0
  9
$USERR5
 40
0.0
  9
$WORLDVIEW
 70
     1
  9
$SHADEDGE
 70
     3
  9
$SHADEDIF
 70
    70
  9
$TILEMODE
 70
     1
  9
$MAXACTVP
 70
    16
  9
$PLIMCHECK
 70
     0
  9
$PEXTMIN
 10
1.0000000000000000E+020
 20
1.0000000000000000E+020
 30
1.0000000000000000E+020
  9
$PEXTMAX
 10
-1.0000000000000000E+020
 20
-1.0000000000000000E+020
 30
-1.0000000000000000E+020
  9
$PLIMMIN
 10
0.0
 20
0.0
  9
$PLIMMAX
 10
420.0
 20
297.0
  9
$UNITMODE
 70
     0
  9
$VISRETAIN
 70
     0
  9
$PLINEGEN
 70
     0
  9
$PSLTSCALE
 70
     1
  0
ENDSEC
  0
SECTION
  2
TABLES
  0
TABLE
  2
VPORT
 70
    37
  0
VPORT
  2
*ACTIVE
 70
     0
 10
0.0
 20
0.0
 11
1.0
 21
1.0
 12
40.794517419624462
 22
19.895484291927509
 13
0.0
 23
0.0
 14
7.0
 24
7.0
 15
7.0
 25
7.0
 16
0.0
 26
0.0
 36
1.0
 17
0.0
 27
0.0
 37
0.0
 40
139.179696706307
 41
1.5472527472527471
 42
50.0
 43
0.0
 44
0.0
 50
0.0
 51
0.0
 71
     0
 72
  2000
 73
     1
 74
     0
 75
     0
 76
     0
 77
     0
 78
     0
  0
ENDTAB
  0
TABLE
  2
LTYPE
 70
    16
  0
LTYPE
  2
CONTINUOUS
 70
     0
  3
Solid line
 72
    65
 73
     0
 40
0.0
  0
LTYPE
  2
CENTER2
 70
     0
  3
___ _ ___ _ ___ _ ___ _ ___ _ ___ _ ___ _ ___ _
 72
    65
 73
     4
 40
1.125
 49
0.75
 49
-0.125
 49
0.125
 49
-0.125
  0
LTYPE
  2
HIDDEN2
 70
     0
  3
_ _ _ _ _ _ _ _ _ _ _ _ _ _ _ _ _ _ _ _ _ _ _ _
 72
    65
 73
     2
 40
0.1875
 49
0.125
 49
-0.0625
  0
LTYPE
  2
PHANTOM2
 70
     0
  3
___ _ _ ___ _ _ ___ _ _ ___ _ _ ___ _ _ ___ _ _
 72
    65
 73
     6
 40
1.25
 49
0.625
 49
-0.125
 49
0.125
 49
-0.125
 49
0.125
 49
-0.125
  0
LTYPE
  2
AMCONSTR
 70
     0
  3
_______________________
 72
    65
 73
     2
 40
9999.0
 49
9999.0
 49
0.0
  0
LTYPE
  2
AM_ISO02W050
 70
     0
  3
__ __ __ __ __ __ __ __ __ __ __ __ __ __ __
 72
    65
 73
     2
 40
7.5
 49
6.0
 49
-1.5
  0
LTYPE
  2
HIDDEN
 70
     0
  3
Hidden __ __ __ __ __ __ __ __ __ __ __ __ __ _
 72
    65
 73
     2
 40
9.5249999999999986
 49
6.3499999999999988
 49
-3.1749999999999989
  0
LTYPE
  2
CENTER
 70
     0
  3
____ _ ____ _ ____ _ ____ _ ____ _ ____ _ ____ 
 72
    65
 73
     4
 40
2.0
 49
1.25
 49
-0.25
 49
0.25
 49
-0.25
  0
LTYPE
  2
ACJISTGB
 70
     0
  3
__ . . __ . .
 72
    65
 73
     6
 40
9.0
 49
4.0
 49
-1.0
 49
1.0
 49
-1.0
 49
1.0
 49
-1.0
  0
LTYPE
  2
ACJISTGL
 70
     0
  3
_ _ _ _ _
 72
    65
 73
     2
 40
3.0
 49
2.0
 49
-1.0
  0
LTYPE
  2
ACISOWELD
 70
     0
  3
_ _ _ _ _
 72
    65
 73
     2
 40
2.0
 49
2.0
 49
-1.0
  0
LTYPE
  2
ACISOTGB
 70
     0
  3
__ . . __ . .
 72
    65
 73
     6
 40
9.0
 49
4.0
 49
-1.0
 49
1.0
 49
-1.0
 49
1.0
 49
-1.0
  0
LTYPE
  2
ACISOTGL
 70
     0
  3
_ _ _ _ _
 72
    65
 73
     2
 40
3.0
 49
2.0
 49
-1.0
  0
LTYPE
  2
ACANSTGB
 70
     0
  3
__ . . __ . .
 72
    65
 73
     6
 40
0.35433070866
 49
0.15748031496
 49
-0.03937007874
 49
0.03937007874
 49
-0.03937007874
 49
0.03937007874
 49
-0.03937007874
  0
LTYPE
  2
ACANSTGL
 70
     0
  3
_ _ _ _ _
 72
    65
 73
     2
 40
0.11811023622
 49
0.07874015748
 49
-0.03937007874
  0
ENDTAB
  0
TABLE
  2
LAYER
 70
     9
  0
LAYER
  2
0
 70
     0
 62
     7
  6
CONTINUOUS
  0
LAYER
  2
240
 70
     0
 62
     4
  6
CONTINUOUS
  0
LAYER
  2
241
 70
     0
 62
   211
  6
CONTINUOUS
  0
LAYER
  2
245
 70
     0
 62
     2
  6
CENTER2
  0
LAYER
  2
250
 70
     0
 62
     3
  6
CONTINUOUS
  0
LAYER
  2
DEFPOINTS
 70
     0
 62
     7
  6
CONTINUOUS
  0
ENDTAB
  0
TABLE
  2
STYLE
 70
     8
  0
STYLE
  2
STANDARD
 70
     0
 40
0.0
 41
1.0
 50
0.0
 71
     0
 42
3.0
  3
romans.shx
  4
BIGFONT.SHX
  0
STYLE
  2
YOKO
 70
     0
 40
0.0
 41
1.0
 50
0.0
 71
     0
 42
3.0
  3
romans.shx
  4
extfont.shx
  0
STYLE
  2
ACJISGDT
 70
     0
 40
0.0
 41
1.0
 50
0.0
 71
     0
 42
3.0
  3
amgdt.shx
  4
extfont.shx
  0
STYLE
  2
ACJISTS
 70
     0
 40
1.0
 41
1.0
 50
0.0
 71
     0
 42
3.0
  3
amgdt.shx
  4
extfont.shx
  0
STYLE
  2
ACISOTS
 70
     0
 40
1.0
 41
1.0
 50
0.0
 71
     0
 42
3.0
  3
amgdt.shx
  4
extfont.shx
  0
STYLE
  2
ACISOGDT
 70
     0
 40
0.0
 41
1.0
 50
0.0
 71
     0
 42
3.0
  3
amgdt.shx
  4
extfont.shx
  0
STYLE
  2
ACANSTS
 70
     0
 40
1.0
 41
1.0
 50
0.0
 71
     0
 42
3.0
  3
romans.shx
  4
extfont.shx
  0
STYLE
  2
ACANSGDT
 70
     0
 40
0.0
 41
1.0
 50
0.0
 71
     0
 42
3.0
  3
amgdtans.shx
  4

  0
ENDTAB
  0
TABLE
  2
VIEW
 70
     1
  0
VIEW
  2
OLE1
 70
     0
 40
148.06053087999999
 10
40.80233535
 20
19.9012852
 41
215.56999574
 11
0.0
 21
0.0
 31
1.0
 12
0.0
 22
0.0
 32
0.0
 42
50.0
 43
0.0
 44
0.0
 50
0.0
 71
     0
  0
ENDTAB
  0
TABLE
  2
UCS
 70
     0
  0
ENDTAB
  0
TABLE
  2
APPID
 70
    33
  0
APPID
  2
ACAD
 70
     0
  0
APPID
  2
GLOBAL
 70
     0
  0
APPID
  2
DETAIL
 70
     0
  0
APPID
  2
GRPNAME
 70
     0
  0
APPID
  2
GPARA
 70
     0
  0
APPID
  2
ITEMNAME
 70
     0
  0
APPID
  2
HATCH_TYPE
 70
     0
  0
APPID
  2
HATCH_DISPLAY
 70
     0
  0
APPID
  2
HATCH_DISTANCE
 70
     0
  0
APPID
  2
CONTENTBLOCKICON
 70
     0
  0
APPID
  2
MCAD_NO_VIS
 70
     0
  0
APPID
  2
ACAD_TEMP_GRAPHIC
 70
     0
  0
APPID
  2
ACATTRIBSERVICES
 70
     0
  0
APPID
  2
GENIUS_GENSCREG_15
 70
     0
  0
APPID
  2
GENIUS_GENODEF_13
 70
     0
  0
APPID
  2
GENIUS_GENOBJ-N-SDF_13
 70
     0
  0
APPID
  2
GENIUS_GENREC_14
 70
     0
  0
APPID
  2
GENIUS_GENOBJ-N-REC_13
 70
     0
  0
APPID
  2
GENIUS_GENDIMSH_14
 70
     0
  0
APPID
  2
GENIUS_GENOBJ-N-DIM_13
 70
     0
  0
APPID
  2
GENIUS_GENDIM_13
 70
     0
  0
APPID
  2
GENIUS_GENDTOL_13
 70
     0
  0
APPID
  2
GENIUS_GENOLIS_13
 70
     0
  0
APPID
  2
GENIUS_GENOENT_13
 70
     0
  0
APPID
  2
GENIUS_GENOBJ-F-FEM_13
 70
     0
  0
APPID
  2
GENIUS_GENOREF_13
 70
     0
  0
APPID
  2
GENIUS_GEFFEM_13
 70
     0
  0
APPID
  2
GENIUS_GEFFEMP_13
 70
     0
  0
APPID
  2
AD_DRAW
 70
     0
  0
APPID
  2
DESIGNERASSEMBLIES
 70
     0
  0
APPID
  2
ACADM_DIM_EDIT
 70
     0
  0
APPID
  2
AMDT_DM_ADJ
 70
     0
  0
APPID
  2
GENIUS_GENOBJ-N-FIL_13
 70
     0
  0
ENDTAB
  0
TABLE
  2
DIMSTYLE
 70
    29
  0
DIMSTYLE
  2
BIGT
 70
     0
  3

  4

  5
OPEN
  6

  7

 40
1.0
 41
2.2299999999999991
 42
0.5
 43
7.0
 44
1.0
 45
0.0
 46
0.0
 47
0.0
 48
0.01
140
2.7999999999999989
141
0.0
142
0.0
143
25.399999999999999
144
1.0
145
0.0
146
1.0
147
1.0
 71
     0
 72
     0
 73
     0
 74
     0
 75
     0
 76
     0
 77
     3
 78
     9
170
     0
171
     2
172
     1
173
     0
174
     1
175
     0
176
   256
177
   256
178
    40
  0
DIMSTYLE
  2
BIGT$0
 70
     0
  3

  4

  5
OPEN
  6

  7

 40
1.0
 41
2.2299999999999991
 42
0.5
 43
7.0
 44
1.0
 45
0.0
 46
0.0
 47
0.0
 48
0.01
140
2.7999999999999989
141
0.0
142
0.0
143
25.399999999999999
144
1.0
145
0.0
146
1.0
147
1.0
 71
     0
 72
     0
 73
     0
 74
     0
 75
     0
 76
     0
 77
     3
 78
     9
170
     0
171
     2
172
     1
173
     0
174
     0
175
     0
176
   256
177
   256
178
    40
  0
DIMSTYLE
  2
BIGT$2
 70
     0
  3

  4

  5
OPEN
  6

  7

 40
1.0
 41
2.2299999999999991
 42
0.5
 43
7.0
 44
1.0
 45
0.0
 46
0.0
 47
0.0
 48
0.01
140
2.7999999999999989
141
0.0
142
0.0
143
25.399999999999999
144
1.0
145
0.0
146
1.0
147
1.0
 71
     0
 72
     0
 73
     0
 74
     0
 75
     0
 76
     0
 77
     3
 78
     9
170
     0
171
     2
172
     1
173
     0
174
     0
175
     0
176
   256
177
   256
178
    40
  0
DIMSTYLE
  2
BIGT$3
 70
     0
  3

  4

  5
OPEN
  6

  7

 40
1.0
 41
2.2299999999999991
 42
0.5
 43
2.5
 44
1.0
 45
0.0
 46
0.0
 47
0.0
 48
0.01
140
2.7999999999999989
141
0.0
142
0.0
143
25.399999999999999
144
1.0
145
0.0
146
1.0
147
1.0
 71
     0
 72
     0
 73
     0
 74
     0
 75
     0
 76
     0
 77
     3
 78
     9
170
     0
171
     2
172
     1
173
     0
174
     0
175
     0
176
   256
177
   256
178
    40
  0
DIMSTYLE
  2
BIGT$4
 70
     0
  3

  4

  5
OPEN
  6

  7

 40
1.0
 41
2.2299999999999991
 42
0.5
 43
2.5
 44
1.0
 45
0.0
 46
0.0
 47
0.0
 48
0.01
140
2.7999999999999989
141
0.0
142
0.0
143
25.399999999999999
144
1.0
145
0.0
146
1.0
147
1.0
 71
     0
 72
     0
 73
     0
 74
     0
 75
     0
 76
     0
 77
     3
 78
     9
170
     0
171
     2
172
     1
173
     0
174
     0
175
     0
176
   256
177
   256
178
    40
  0
DIMSTYLE
  2
BIGT$6
 70
     0
  3

  4

  5
OPEN
  6

  7

 40
1.0
 41
2.2299999999999991
 42
0.5
 43
2.5
 44
1.0
 45
0.0
 46
0.0
 47
0.0
 48
0.01
140
2.7999999999999989
141
0.0
142
0.0
143
25.399999999999999
144
1.0
145
0.0
146
1.0
147
1.0
 71
     0
 72
     0
 73
     0
 74
     0
 75
     0
 76
     0
 77
     3
 78
     9
170
     0
171
     2
172
     1
173
     0
174
     0
175
     0
176
   256
177
   256
178
    40
  0
DIMSTYLE
  2
BIGT$7
 70
     0
  3

  4

  5
OPEN
  6

  7

 40
0.0
 41
2.2299999999999991
 42
0.5
 43
7.0
 44
1.0
 45
0.0
 46
0.0
 47
0.0
 48
0.01
140
2.7999999999999989
141
0.0
142
0.0
143
25.399999999999999
144
1.0
145
0.0
146
1.0
147
1.0
 71
     0
 72
     0
 73
     0
 74
     0
 75
     0
 76
     0
 77
     3
 78
     9
170
     0
171
     2
172
     0
173
     0
174
     0
175
     0
176
   256
177
   256
178
    40
  0
DIMSTYLE
  2
BIGT$SF
 70
     0
  3

  4

  5
OPEN
  6

  7

 40
1.0
 41
2.2299999999999991
 42
0.5
 43
7.0
 44
1.0
 45
0.0
 46
0.0
 47
0.0
 48
0.0
140
2.7999999999999989
141
0.0
142
0.0
143
25.399999999999999
144
1.0
145
0.0
146
1.0
147
1.0
 71
     0
 72
     0
 73
     0
 74
     0
 75
     0
 76
     0
 77
     3
 78
     9
170
     0
171
     2
172
     1
173
     0
174
     0
175
     0
176
   256
177
   256
178
    40
  0
DIMSTYLE
  2
BIGT$SH
 70
     0
  3

  4

  5
OPEN
  6

  7

 40
1.0
 41
2.2299999999999991
 42
0.5
 43
7.0
 44
1.0
 45
0.0
 46
0.0
 47
0.0
 48
0.0
140
2.7999999999999989
141
0.0
142
0.0
143
25.399999999999999
144
1.0
145
0.0
146
1.0
147
1.0
 71
     0
 72
     0
 73
     0
 74
     0
 75
     0
 76
     0
 77
     3
 78
     9
170
     0
171
     2
172
     1
173
     0
174
     0
175
     0
176
   256
177
   256
178
    40
  0
DIMSTYLE
  2
AM_ISO
 70
     0
  3

  4
"
  5

  6

  7

 40
1.0
 41
2.5
 42
1.0
 43
10.0
 44
1.0
 45
0.0
 46
0.0
 47
0.1
 48
0.1
140
3.5
141
0.0
142
0.0
143
0.0393701
144
1.0
145
0.0
146
0.71
147
1.5
 71
     0
 72
     0
 73
     0
 74
     0
 75
     0
 76
     0
 77
     1
 78
     8
170
     0
171
     2
172
     1
173
     0
174
     0
175
     0
176
   256
177
   256
178
     2
  0
DIMSTYLE
  2
AM_ISO$3
 70
     0
  3

  4
"
  5

  6

  7

 40
1.0
 41
2.5
 42
1.0
 43
10.0
 44
1.0
 45
0.0
 46
0.0
 47
0.1
 48
0.1
140
3.5
141
0.0
142
0.0
143
0.0393701
144
1.0
145
0.0
146
0.71
147
1.5
 71
     0
 72
     0
 73
     0
 74
     1
 75
     0
 76
     0
 77
     1
 78
     8
170
     0
171
     2
172
     0
173
     0
174
     0
175
     0
176
   256
177
   256
178
     2
  0
DIMSTYLE
  2
AM_ISO$4
 70
     0
  3

  4
"
  5

  6

  7

 40
1.0
 41
2.5
 42
1.0
 43
10.0
 44
1.0
 45
0.0
 46
0.0
 47
0.1
 48
0.1
140
3.5
141
0.0
142
0.0
143
0.0393701
144
1.0
145
0.0
146
0.71
147
1.5
 71
     0
 72
     0
 73
     0
 74
     1
 75
     0
 76
     0
 77
     1
 78
     8
170
     0
171
     2
172
     0
173
     0
174
     0
175
     0
176
   256
177
   256
178
     2
  0
DIMSTYLE
  2
AM_ISO$6
 70
     0
  3

  4
"
  5

  6

  7

 40
1.0
 41
2.5
 42
1.0
 43
10.0
 44
1.0
 45
0.0
 46
0.0
 47
0.1
 48
0.1
140
3.5
141
0.0
142
0.0
143
0.0393701
144
1.0
145
0.0
146
0.71
147
1.5
 71
     0
 72
     0
 73
     0
 74
     0
 75
     0
 76
     0
 77
     0
 78
     8
170
     0
171
     2
172
     1
173
     0
174
     0
175
     0
176
   256
177
   256
178
     2
  0
DIMSTYLE
  2
AM_ISO$7
 70
     0
  3

  4
"
  5

  6

  7

 40
1.0
 41
2.5
 42
1.0
 43
10.0
 44
1.0
 45
0.0
 46
0.0
 47
0.1
 48
0.1
140
5.0
141
0.0
142
0.0
143
0.0393701
144
1.0
145
0.0
146
0.71
147
1.5
 71
     0
 72
     0
 73
     0
 74
     0
 75
     0
 76
     0
 77
     1
 78
     8
170
     0
171
     2
172
     1
173
     0
174
     0
175
     0
176
   256
177
   256
178
     2
  0
DIMSTYLE
  2
AM_ISO$SF
 70
     0
  3

  4
"
  5

  6

  7

 40
1.0
 41
2.5
 42
1.0
 43
10.0
 44
1.0
 45
0.0
 46
0.0
 47
0.1
 48
0.1
140
3.5
141
0.0
142
0.0
143
0.0393701
144
1.0
145
0.0
146
0.71
147
1.5
 71
     0
 72
     0
 73
     0
 74
     0
 75
     1
 76
     1
 77
     1
 78
     8
170
     0
171
     2
172
     1
173
     0
174
     0
175
     0
176
   256
177
   256
178
     2
  0
DIMSTYLE
  2
AM_ISO$SH
 70
     0
  3

  4
"
  5

  6
GENAXEH
  7

 40
1.0
 41
2.5
 42
1.0
 43
10.0
 44
1.0
 45
0.0
 46
0.0
 47
0.1
 48
0.1
140
3.5
141
0.0
142
0.0
143
0.0393701
144
2.0
145
0.0
146
0.71
147
1.5
 71
     0
 72
     0
 73
     0
 74
     0
 75
     1
 76
     1
 77
     1
 78
     8
170
     0
171
     2
172
     1
173
     1
174
     0
175
     0
176
   256
177
   256
178
     2
  0
DIMSTYLE
  2
TECHNICAL_OSAKA
 70
     0
  3

  4
"
  5
OPEN30
  6

  7

 40
1.0
 41
2.5
 42
1.0
 43
10.0
 44
1.0
 45
0.0
 46
0.0
 47
0.1
 48
0.1
140
2.7999999999999989
141
0.0
142
0.0
143
0.0393701
144
1.0
145
0.0
146
0.71
147
1.5
 71
     0
 72
     0
 73
     0
 74
     0
 75
     0
 76
     0
 77
     3
 78
     8
170
     0
171
     2
172
     1
173
     0
174
     0
175
     0
176
   256
177
   256
178
    40
  0
DIMSTYLE
  2
TECHNICAL_OSAKA$3
 70
     0
  3

  4
"
  5
OPEN30
  6

  7

 40
1.0
 41
2.5
 42
1.0
 43
10.0
 44
1.0
 45
0.0
 46
0.0
 47
0.1
 48
0.1
140
2.7999999999999989
141
0.0
142
0.0
143
0.0393701
144
1.0
145
0.0
146
0.71
147
1.5
 71
     0
 72
     0
 73
     0
 74
     1
 75
     0
 76
     0
 77
     3
 78
     8
170
     0
171
     2
172
     0
173
     0
174
     0
175
     0
176
   256
177
   256
178
    40
  0
DIMSTYLE
  2
TECHNICAL_OSAKA$4
 70
     0
  3

  4
"
  5
OPEN30
  6

  7

 40
1.0
 41
2.5
 42
1.0
 43
10.0
 44
1.0
 45
0.0
 46
0.0
 47
0.1
 48
0.1
140
2.7999999999999989
141
0.0
142
0.0
143
0.0393701
144
1.0
145
0.0
146
0.71
147
1.5
 71
     0
 72
     0
 73
     0
 74
     1
 75
     0
 76
     0
 77
     3
 78
     8
170
     0
171
     2
172
     0
173
     0
174
     0
175
     0
176
   256
177
   256
178
    40
  0
DIMSTYLE
  2
TECHNICAL_OSAKA$6
 70
     0
  3

  4
"
  5
OPEN30
  6

  7

 40
1.0
 41
2.5
 42
1.0
 43
10.0
 44
1.0
 45
0.0
 46
0.0
 47
0.1
 48
0.1
140
2.7999999999999989
141
0.0
142
0.0
143
0.0393701
144
1.0
145
0.0
146
0.71
147
1.5
 71
     0
 72
     0
 73
     0
 74
     0
 75
     0
 76
     0
 77
     0
 78
     8
170
     0
171
     2
172
     1
173
     0
174
     0
175
     0
176
   256
177
   256
178
    40
  0
DIMSTYLE
  2
TECHNICAL_OSAKA$7
 70
     0
  3

  4
"
  5
OPEN30
  6

  7

 40
1.0
 41
2.5
 42
1.0
 43
10.0
 44
1.0
 45
0.0
 46
0.0
 47
0.1
 48
0.1
140
2.7999999999999989
141
0.0
142
0.0
143
0.0393701
144
1.0
145
0.0
146
0.71
147
1.5
 71
     0
 72
     0
 73
     0
 74
     0
 75
     0
 76
     0
 77
     3
 78
     8
170
     0
171
     2
172
     1
173
     0
174
     0
175
     0
176
   256
177
   256
178
    40
  0
DIMSTYLE
  2
TECHNICAL_OSAKA$SF
 70
     0
  3

  4
"
  5
OPEN30
  6
OPEN30
  7
OPEN30
 40
1.0
 41
2.5
 42
1.0
 43
10.0
 44
1.0
 45
0.0
 46
0.0
 47
0.1
 48
0.1
140
3.5
141
0.0
142
0.0
143
0.0393701
144
1.0
145
0.0
146
0.71
147
1.5
 71
     0
 72
     0
 73
     0
 74
     0
 75
     1
 76
     1
 77
     3
 78
     8
170
     0
171
     2
172
     1
173
     0
174
     0
175
     0
176
   256
177
   256
178
    40
  0
DIMSTYLE
  2
TECHNICAL_OSAKA$SH
 70
     0
  3

  4
"
  5
OPEN30
  6
GENAXEH
  7
OPEN30
 40
1.0
 41
2.5
 42
1.0
 43
10.0
 44
1.0
 45
0.0
 46
0.0
 47
0.1
 48
0.1
140
3.5
141
0.0
142
0.0
143
0.0393701
144
2.0
145
0.0
146
0.71
147
1.5
 71
     0
 72
     0
 73
     0
 74
     0
 75
     1
 76
     1
 77
     3
 78
     8
170
     0
171
     2
172
     1
173
     1
174
     0
175
     0
176
   256
177
   256
178
    40
  0
DIMSTYLE
  2
AM_ANSI
 70
     0
  3

  4
mm
  5

  6

  7

 40
1.0
 41
0.1
 42
0.05
 43
0.5
 44
0.1
 45
0.0
 46
0.0
 47
0.1
 48
0.1
140
0.12
141
0.0
142
0.0
143
25.399999999999999
144
1.0
145
0.0
146
0.71
147
0.06
 71
     0
 72
     0
 73
     1
 74
     1
 75
     0
 76
     0
 77
     0
 78
     7
170
     0
171
     2
172
     0
173
     0
174
     0
175
     0
176
   256
177
   256
178
     2
  0
DIMSTYLE
  2
AM_ANSI$3
 70
     0
  3

  4
mm
  5

  6

  7

 40
1.0
 41
0.1
 42
0.05
 43
0.5
 44
0.1
 45
0.0
 46
0.0
 47
0.1
 48
0.1
140
0.12
141
0.0
142
0.0
143
25.399999999999999
144
1.0
145
0.0
146
0.71
147
0.06
 71
     0
 72
     0
 73
     1
 74
     1
 75
     0
 76
     0
 77
     0
 78
     7
170
     0
171
     2
172
     0
173
     0
174
     0
175
     0
176
   256
177
   256
178
     2
  0
DIMSTYLE
  2
AM_ANSI$4
 70
     0
  3

  4
mm
  5

  6

  7

 40
1.0
 41
0.1
 42
0.05
 43
0.5
 44
0.1
 45
0.0
 46
0.0
 47
0.1
 48
0.1
140
0.12
141
0.0
142
0.0
143
25.399999999999999
144
1.0
145
0.0
146
0.71
147
0.06
 71
     0
 72
     0
 73
     1
 74
     1
 75
     0
 76
     0
 77
     0
 78
     7
170
     0
171
     2
172
     0
173
     0
174
     0
175
     0
176
   256
177
   256
178
     2
  0
DIMSTYLE
  2
AM_ANSI$7
 70
     0
  3

  4
mm
  5

  6

  7

 40
1.0
 41
0.1
 42
0.05
 43
0.5
 44
0.1
 45
0.0
 46
0.0
 47
0.1
 48
0.1
140
0.24
141
0.0
142
0.0
143
25.399999999999999
144
1.0
145
0.0
146
0.71
147
0.06
 71
     0
 72
     0
 73
     1
 74
     1
 75
     0
 76
     0
 77
     0
 78
     7
170
     0
171
     2
172
     0
173
     0
174
     0
175
     0
176
   256
177
   256
178
     2
  0
DIMSTYLE
  2
AM_ANSI$SF
 70
     0
  3

  4
mm
  5

  6

  7

 40
1.0
 41
0.1
 42
0.05
 43
0.5
 44
0.1
 45
0.0
 46
0.0
 47
0.1
 48
0.1
140
0.12
141
0.0
142
0.0
143
25.399999999999999
144
1.0
145
0.0
146
0.71
147
0.06
 71
     0
 72
     0
 73
     1
 74
     1
 75
     1
 76
     1
 77
     0
 78
     7
170
     0
171
     2
172
     0
173
     0
174
     0
175
     0
176
   256
177
   256
178
     2
  0
DIMSTYLE
  2
AM_ANSI$SH
 70
     0
  3

  4
mm
  5

  6

  7

 40
1.0
 41
0.1
 42
0.05
 43
0.5
 44
0.1
 45
0.0
 46
0.0
 47
0.1
 48
0.1
140
0.12
141
0.0
142
0.0
143
25.399999999999999
144
1.0
145
0.0
146
0.71
147
0.06
 71
     0
 72
     0
 73
     1
 74
     1
 75
     1
 76
     1
 77
     0
 78
     7
170
     0
171
     2
172
     0
173
     1
174
     0
175
     0
176
   256
177
   256
178
     2
  0
ENDTAB
  0
ENDSEC
  0
SECTION
  2
BLOCKS
  0
BLOCK
  8
0
  2
$MODEL_SPACE
 70
     0
 10
0.0
 20
0.0
 30
0.0
  3
$MODEL_SPACE
  1

  0
ENDBLK
  5
1C
  8
0
  0
BLOCK
 67
     1
  8
0
  2
$PAPER_SPACE
 70
     0
 10
0.0
 20
0.0
 30
0.0
  3
$PAPER_SPACE
  1

  0
ENDBLK
  5
19
 67
     1
  8
0
  0
BLOCK
  8
0
  2
_OPEN
 70
     0
 10
0.0
 20
0.0
 30
0.0
  3
_OPEN
  1

  0
LINE
  5
1566
  8
0
  6
BYBLOCK
 62
     0
 10
-1.0
 20
0.1666666666666666
 30
0.0
 11
0.0
 21
0.0
 31
0.0
  0
LINE
  5
1567
  8
0
  6
BYBLOCK
 62
     0
 10
-1.0
 20
-0.1666666666666666
 30
0.0
 11
0.0
 21
0.0
 31
0.0
  0
LINE
  5
1568
  8
0
  6
BYBLOCK
 62
     0
 10
0.0
 20
0.0
 30
0.0
 11
-1.0
 21
0.0
 31
0.0
  0
ENDBLK
  5
1569
  8
0
  0
BLOCK
  8
0
  2
GENAXEH
 70
     0
 10
0.0
 20
0.0
 30
0.0
  3
GENAXEH
  1

  0
LINE
  5
1591
  8
0
 10
-1.0
 20
0.0
 30
0.0
 11
1.0
 21
0.0
 31
0.0
  0
ENDBLK
  5
1592
  8
0
  0
BLOCK
  8
0
  2
_OPEN30
 70
     0
 10
0.0
 20
0.0
 30
0.0
  3
_OPEN30
  1

  0
LINE
  5
15B6
  8
0
  6
BYBLOCK
 62
     0
 10
-1.0
 20
0.26794919
 30
0.0
 11
0.0
 21
0.0
 31
0.0
  0
LINE
  5
15B7
  8
0
  6
BYBLOCK
 62
     0
 10
0.0
 20
0.0
 30
0.0
 11
-1.0
 21
-0.26794919
 31
0.0
  0
LINE
  5
15B8
  8
0
  6
BYBLOCK
 62
     0
 10
0.0
 20
0.0
 30
0.0
 11
-1.0
 21
0.0
 31
0.0
  0
ENDBLK
  5
15B9
  8
0
  0
BLOCK
  8
0
  2
*U10
 70
     1
 10
0.0
 20
0.0
 30
0.0
  3
*U10
  1

  0
TEXT
  5
173B
  8
250
 62
    40
 10
102.0714285714285
 20
46.5
 30
0.0
 40
3.0
  1
60
  0
ENDBLK
  5
173D
  8
0
  0
BLOCK
  8
0
  2
*U11
 70
     1
 10
0.0
 20
0.0
 30
0.0
  3
*U11
  1

  0
TEXT
  5
173F
  8
250
 62
    40
 10
63.0
 20
53.5
 30
0.0
 40
3.0
  1
135
  0
ENDBLK
  5
1741
  8
0
  0
BLOCK
  8
0
  2
*U12
 70
     1
 10
0.0
 20
0.0
 30
0.0
  3
*U12
  1

  0
TEXT
  5
1743
  8
250
 62
    40
 10
126.4166666666666
 20
39.5
 30
0.0
 40
3.5
  1
11
  0
ENDBLK
  5
1745
  8
0
  0
BLOCK
  8
0
  2
*U13
 70
     1
 10
0.0
 20
0.0
 30
0.0
  3
*U13
  1

  0
TEXT
  5
1747
  8
250
 62
    40
 10
146.0
 20
-4.0714285714285712
 30
0.0
 40
3.0
  1
\U+2205
 50
90.0
  0
TEXT
  5
1748
  8
250
 62
    40
 10
146.0
 20
-1.357142857142857
 30
0.0
 40
3.0
  1
50
 50
90.0
  0
ENDBLK
  5
174A
  8
0
  0
ENDSEC
  0
SECTION
  2
ENTITIES
  0
TEXT
  5
FE1
  8
241
 10
-65.400000000000006
 20
66.5
 30
0.0
 40
5.0
  1
BBT40-FCM50115-135
  7
YOKO
 11
-65.400000000000006
 21
66.5
 31
0.0
 73
     1
  0
LINE
  5
1309
  8
250
 10
-32.458397099999999
 20
-28.409457620000001
 30
0.0
 11
-50.191730440000001
 21
-28.409457620000001
 31
0.0
1001
ITEMNAME
1000
LNSP2
  0
LINE
  5
15CC
  8
245
  6
CENTER2
 10
-66.400000000000006
 20
0.0
 30
0.0
 11
136.0
 21
0.0
 31
0.0
1001
GRPNAME
1000
PASTMD0F
  0
ARC
  5
15D1
  8
240
  6
CONTINUOUS
 10
2.0
 20
-30.5
 30
0.0
 40
1.0
 50
180.0
 51
270.0
  0
LINE
  5
15D2
  8
241
  6
HIDDEN2
 10
23.0
 20
-22.5
 30
0.0
 11
1.0
 21
-22.5
 31
0.0
  0
LINE
  5
15D3
  8
241
  6
HIDDEN2
 10
23.0
 20
22.5
 30
0.0
 11
1.0
 21
22.5
 31
0.0
  0
ARC
  5
15D4
  8
240
  6
CONTINUOUS
 10
2.0
 20
30.5
 30
0.0
 40
1.0
 50
90.0
 51
180.0
  0
LINE
  5
15D5
  8
240
  6
CONTINUOUS
 10
0.0
 20
22.225000000000001
 30
0.0
 11
-64.030891030000006
 21
12.887161730000001
 31
0.0
  0
LINE
  5
15D6
  8
241
 10
1.0
 20
0.0
 30
0.0
 11
1.0
 21
22.225000000000001
 31
0.0
  0
LINE
  5
15D7
  8
241
  6
CONTINUOUS
 10
0.0
 20
22.225000000000001
 30
0.0
 11
0.0
 21
0.0
 31
0.0
  0
LINE
  5
15D8
  8
240
  6
CONTINUOUS
 10
0.0
 20
-22.225000000000001
 30
0.0
 11
-64.030891030000006
 21
-12.887161730000001
 31
0.0
  0
LINE
  5
15D9
  8
240
  6
CONTINUOUS
 10
-65.400000000000006
 20
-11.303908959999999
 30
0.0
 11
-65.400000000000006
 21
0.0
 31
0.0
  0
ARC
  5
15DA
  8
240
  6
CONTINUOUS
 10
-63.79999999999999
 20
-11.303908959999999
 30
0.0
 40
1.6000000000000001
 50
180.0
 51
261.70285503000002
  0
LINE
  5
15DB
  8
240
  6
CONTINUOUS
 10
-65.400000000000006
 20
11.303908959999999
 30
0.0
 11
-65.400000000000006
 21
0.0
 31
0.0
  0
ARC
  5
15DC
  8
240
  6
CONTINUOUS
 10
-63.79999999999999
 20
11.303908959999999
 30
0.0
 40
1.6000000000000001
 50
98.297144969999977
 51
180.0
  0
LINE
  5
15DD
  8
240
  6
CONTINUOUS
 10
1.0
 20
-22.225000000000001
 30
0.0
 11
1.0
 21
-30.5
 31
0.0
  0
LINE
  5
15DE
  8
241
 10
1.0
 20
0.0
 30
0.0
 11
1.0
 21
-22.225000000000001
 31
0.0
  0
LINE
  5
15DF
  8
241
  6
CONTINUOUS
 10
0.0
 20
-22.225000000000001
 30
0.0
 11
0.0
 21
0.0
 31
0.0
  0
LINE
  5
15E0
  8
240
 10
0.0
 20
-22.225000000000001
 30
0.0
 11
1.0
 21
-22.225000000000001
 31
0.0
  0
LINE
  5
15E1
  8
240
  6
CONTINUOUS
 10
1.0
 20
22.225000000000001
 30
0.0
 11
1.0
 21
30.5
 31
0.0
  0
LINE
  5
15E2
  8
240
 10
0.0
 20
22.225000000000001
 30
0.0
 11
1.0
 21
22.225000000000001
 31
0.0
  0
LINE
  5
15E3
  8
241
  6
CONTINUOUS
 10
75.0
 20
0.0
 30
0.0
 11
75.0
 21
24.399999999999999
 31
0.0
1001
GRPNAME
1000
PASTMD0J
  0
LINE
  5
15E4
  8
241
  6
CONTINUOUS
 10
21.600000000000001
 20
0.0
 30
0.0
 11
21.600000000000001
 21
31.5
 31
0.0
  0
LINE
  5
15E5
  8
241
  6
CONTINUOUS
 10
18.713248650000001
 20
26.5
 30
0.0
 11
18.713248650000001
 21
0.0
 31
0.0
  0
LINE
  5
15E6
  8
241
  6
CONTINUOUS
 10
14.48675135
 20
26.5
 30
0.0
 11
14.48675135
 21
0.0
 31
0.0
  0
LINE
  5
15E7
  8
241
  6
CONTINUOUS
 10
11.6
 20
31.5
 30
0.0
 11
11.6
 21
0.0
 31
0.0
  0
LINE
  5
15E8
  8
241
  6
CONTINUOUS
 10
27.0
 20
0.0
 30
0.0
 11
27.0
 21
30.0
 31
0.0
  0
LINE
  5
15E9
  8
245
  6
CENTER2
 10
16.600000000000001
 20
-31.5
 30
0.0
 11
16.600000000000001
 21
31.5
 31
0.0
  0
ARC
  5
15EA
  8
240
  6
CONTINUOUS
 10
90.802634789999999
 20
-524.15021434000005
 30
0.0
 40
500.0
 50
91.909128640000006
 51
97.128880949999981
1001
GRPNAME
1000
PASTMD0J
  0
LINE
  5
15EB
  8
241
  6
CONTINUOUS
 10
14.48675135
 20
-26.5
 30
0.0
 11
14.48675135
 21
0.0
 31
0.0
  0
LINE
  5
15EC
  8
241
  6
CONTINUOUS
 10
18.713248650000001
 20
-26.5
 30
0.0
 11
18.713248650000001
 21
0.0
 31
0.0
  0
LINE
  5
15ED
  8
241
  6
CONTINUOUS
 10
21.600000000000001
 20
0.0
 30
0.0
 11
21.600000000000001
 21
-31.5
 31
0.0
  0
LINE
  5
15EE
  8
241
  6
CONTINUOUS
 10
11.6
 20
-31.5
 30
0.0
 11
11.6
 21
0.0
 31
0.0
  0
LINE
  5
15EF
  8
241
  6
HIDDEN2
 10
23.0
 20
-22.5
 30
0.0
 11
23.0
 21
-31.5
 31
0.0
  0
LINE
  5
15F0
  8
241
  6
CONTINUOUS
 10
27.0
 20
0.0
 30
0.0
 11
27.0
 21
-30.0
 31
0.0
  0
LINE
  5
15F1
  8
240
  6
CONTINUOUS
 10
18.713248650000001
 20
-26.5
 30
0.0
 11
14.48675135
 21
-26.5
 31
0.0
  0
LINE
  5
15F2
  8
240
  6
CONTINUOUS
 10
2.0
 20
-31.5
 30
0.0
 11
11.6
 21
-31.5
 31
0.0
  0
LINE
  5
15F3
  8
240
  6
CONTINUOUS
 10
14.48675135
 20
-26.5
 30
0.0
 11
11.6
 21
-31.5
 31
0.0
  0
LINE
  5
15F4
  8
240
  6
CONTINUOUS
 10
21.600000000000001
 20
-31.5
 30
0.0
 11
26.0
 21
-31.5
 31
0.0
  0
LINE
  5
15F5
  8
240
  6
CONTINUOUS
 10
18.713248650000001
 20
-26.5
 30
0.0
 11
21.600000000000001
 21
-31.5
 31
0.0
  0
ARC
  5
15F6
  8
240
  6
CONTINUOUS
 10
29.0
 20
-30.0
 30
0.0
 40
2.0000000000000031
 50
97.128760449999987
 51
179.99999998999999
1001
GRPNAME
1000
PASTMD0J
  0
ARC
  5
15F7
  8
240
  6
CONTINUOUS
 10
26.0
 20
-30.5
 30
0.0
 40
1.0
 50
270.0
 51
0.0
  0
LINE
  5
15F8
  8
240
  6
CONTINUOUS
 10
27.0
 20
-30.5
 30
0.0
 11
27.0
 21
-30.0
 31
0.0
  0
LINE
  5
15F9
  8
241
  6
CONTINUOUS
 10
75.0
 20
0.0
 30
0.0
 11
75.0
 21
-24.399999999999999
 31
0.0
1001
GRPNAME
1000
PASTMD0J
  0
ARC
  5
15FA
  8
240
  6
CONTINUOUS
 10
75.81114719
 20
-74.400000000000006
 30
0.0
 40
50.0
 50
90.0
 51
91.909128579999972
1001
GRPNAME
1000
PASTMD0J
  0
ARC
  5
15FC
  8
240
  6
CONTINUOUS
 10
90.802634789999999
 20
524.15021434000005
 30
0.0
 40
500.0
 50
262.87111878000002
 51
268.09087125000002
1001
GRPNAME
1000
PASTMD0J
  0
LINE
  5
15FD
  8
240
  6
CONTINUOUS
 10
18.713248650000001
 20
26.5
 30
0.0
 11
14.48675135
 21
26.5
 31
0.0
  0
LINE
  5
15FE
  8
240
  6
CONTINUOUS
 10
2.0
 20
31.5
 30
0.0
 11
11.6
 21
31.5
 31
0.0
  0
LINE
  5
15FF
  8
240
  6
CONTINUOUS
 10
11.6
 20
31.5
 30
0.0
 11
14.48675135
 21
26.5
 31
0.0
  0
LINE
  5
1600
  8
241
  6
HIDDEN2
 10
23.0
 20
22.5
 30
0.0
 11
23.0
 21
31.5
 31
0.0
  0
LINE
  5
1601
  8
240
  6
CONTINUOUS
 10
21.600000000000001
 20
31.5
 30
0.0
 11
26.0
 21
31.5
 31
0.0
  0
LINE
  5
1602
  8
240
  6
CONTINUOUS
 10
21.600000000000001
 20
31.5
 30
0.0
 11
18.713248650000001
 21
26.5
 31
0.0
  0
ARC
  5
1603
  8
240
  6
CONTINUOUS
 10
29.0
 20
30.0
 30
0.0
 40
2.0
 50
179.99999998999999
 51
262.87123953999998
1001
GRPNAME
1000
PASTMD0J
  0
ARC
  5
1604
  8
240
  6
CONTINUOUS
 10
26.0
 20
30.5
 30
0.0
 40
1.0
 50
0.0
 51
90.0
  0
LINE
  5
1605
  8
240
  6
CONTINUOUS
 10
27.0
 20
30.5
 30
0.0
 11
27.0
 21
30.0
 31
0.0
  0
ARC
  5
1606
  8
240
  6
CONTINUOUS
 10
75.81114719
 20
74.400000000000006
 30
0.0
 40
50.000000000000028
 50
268.09087125000002
 51
269.99999998999988
1001
GRPNAME
1000
PASTMD0J
  0
LINE
  5
1670
  8
241
 10
122.12716375778371
 20
-18.097492144362882
 30
0.0
 11
134.40000000000001
 21
-22.564439226553159
 31
0.0
  0
LINE
  5
1671
  8
240
 10
134.40000000000001
 20
-22.564439226553141
 30
0.0
 11
134.99999999999989
 21
-22.782821367112859
 31
0.0
  0
ARC
  5
1672
  8
241
 10
113.1896597845775
 20
-21.16387056514645
 30
0.0
 40
4.789659784577398
 50
79.999982399904255
 51
222.50457867000191
  0
LINE
  5
1673
  8
241
 10
114.021375477814
 20
-16.446976475003851
 30
0.0
 11
122.2265275559828
 21
-17.893766167201129
 31
0.0
  0
LINE
  5
1674
  8
241
  6
CONTINUOUS
 10
123.6235113852906
 20
-15.029524855343571
 30
0.0
 11
122.12716375778371
 21
-18.097492144362882
 31
0.0
  0
LINE
  5
1675
  8
241
  6
CONTINUOUS
 10
134.40000000000001
 20
-16.929710555414481
 30
0.0
 11
123.6235113852906
 21
-15.029524855343571
 31
0.0
  0
LINE
  5
1676
  8
241
 10
134.3845264982524
 20
-16.92698215957034
 30
0.0
 11
134.40000000000001
 21
-17.074202694579942
 31
0.0
  0
LINE
  5
1677
  8
240
 10
134.40000000000001
 20
-17.074202694579888
 30
0.0
 11
134.99999999999989
 21
-22.782821367112788
 31
0.0
  0
LINE
  5
1678
  8
240
 10
134.39999999995979
 20
-23.90875167618313
 30
0.0
 11
134.40000000000001
 21
-22.564439226553141
 31
0.0
  0
LINE
  5
1679
  8
240
 10
134.40000000000001
 20
-17.074202694580009
 30
0.0
 11
134.40000000000001
 21
2.925198208700396
 31
0.0
  0
LINE
  5
167A
  8
240
 10
134.40000000000001
 20
8.4154347406737902
 30
0.0
 11
134.40000000000001
 21
13.89504771674612
 31
0.0
  0
LINE
  5
167B
  8
240
 10
134.10000000000011
 20
15.5
 30
0.0
 11
134.10000000000011
 21
14.609190559600361
 31
0.0
  0
LINE
  5
167C
  8
241
 10
109.81503361711199
 20
22.154431315507541
 30
0.0
 11
133.6924831914441
 21
14.851318380691589
 31
0.0
  0
ARC
  5
167D
  8
240
 10
133.40000000000001
 20
13.89504771674612
 30
0.0
 40
1.0
 50
0.0
 51
45.572978399097167
  0
ARC
  5
167E
  8
241
 10
133.40000000000001
 20
13.89504771674612
 30
0.0
 40
1.0
 50
45.572978399097167
 51
72.993320296257721
  0
LINE
  5
167F
  8
245
 10
124.8674939904077
 20
20.109999999999989
 30
0.0
 11
132.2782809322822
 21
20.109999999999989
 31
0.0
  0
LINE
  5
1680
  8
245
 10
128.6070000000002
 20
16.584184363733069
 30
0.0
 11
128.6070000000002
 21
23.573165947193559
 31
0.0
  0
LINE
  5
1681
  8
241
 10
122.12716375778371
 20
7.3921452908906309
 30
0.0
 11
134.40000000000001
 21
2.9251982087003792
 31
0.0
  0
LINE
  5
1682
  8
240
 10
134.40000000000001
 20
2.9251982087003912
 30
0.0
 11
135.0
 21
2.7068160681406801
 31
0.0
  0
ARC
  5
1683
  8
241
 10
113.1896597845775
 20
4.3257668701070831
 30
0.0
 40
4.789659784577398
 50
79.999982399904255
 51
259.99999999999977
  0
LINE
  5
1684
  8
241
 10
114.021375477814
 20
9.0426609602496875
 30
0.0
 11
122.2265275559828
 21
7.5958712680524032
 31
0.0
  0
LINE
  5
1685
  8
241
  6
CONTINUOUS
 10
123.6235113852906
 20
10.460112579909961
 30
0.0
 11
122.12716375778371
 21
7.3921452908906309
 31
0.0
  0
LINE
  5
1686
  8
241
  6
CONTINUOUS
 10
134.40000000000001
 20
8.5599268798390522
 30
0.0
 11
123.6235113852906
 21
10.460112579909961
 31
0.0
  0
LINE
  5
1687
  8
241
 10
134.3845264982524
 20
8.5626552756831966
 30
0.0
 11
134.40000000000001
 21
8.4154347406736072
 31
0.0
  0
LINE
  5
1688
  8
240
 10
134.40000000000001
 20
8.4154347406736445
 30
0.0
 11
135.0
 21
2.7068160681407361
 31
0.0
  0
LINE
  5
1689
  8
241
 10
111.0624426132767
 20
0.0344048534367101
 30
0.0
 11
134.40000000000001
 21
-11.53396262905637
 31
0.0
  0
LINE
  5
168A
  8
241
 10
112.357944091341
 20
-0.3911272200355444
 30
0.0
 11
134.40000000000001
 21
-4.2777363870167964
 31
0.0
  0
LINE
  5
168B
  8
241
 10
131.5716255800285
 20
15.499999999999989
 30
0.0
 11
134.10000000000011
 21
15.5
 31
0.0
1001
GRPNAME
1000
PASTMD03
  0
LINE
  5
168C
  8
240
 10
134.10000000000011
 20
15.5
 30
0.0
 11
134.72170321072991
 21
15.5
 31
0.0
1001
GRPNAME
1000
PASTMD03
  0
LINE
  5
168D
  8
240
 10
134.72170321072991
 20
22.299999999999951
 30
0.0
 11
134.72170321072991
 21
15.5
 31
0.0
1001
GRPNAME
1000
PASTMD03
  0
LINE
  5
168E
  8
240
 10
135.0
 20
22.631661198420051
 30
0.0
 11
134.72170321072991
 21
22.299999999999951
 31
0.0
1001
GRPNAME
1000
PASTMD03
  0
LINE
  5
168F
  8
240
 10
135.0
 20
25.0
 30
0.0
 11
135.0
 21
22.631661198420051
 31
0.0
1001
GRPNAME
1000
PASTMD03
  0
LINE
  5
1690
  8
240
 10
122.4922967892706
 20
24.99999999999995
 30
0.0
 11
135.0
 21
25.0
 31
0.0
1001
GRPNAME
1000
PASTMD03
  0
LINE
  5
1691
  8
240
 10
122.4922967892706
 20
24.399999999999999
 30
0.0
 11
122.4922967892706
 21
24.99999999999995
 31
0.0
1001
GRPNAME
1000
PASTMD03
  0
CIRCLE
  5
1692
  8
241
 10
128.6070000000002
 20
20.109999999999989
 30
0.0
 40
2.8999999999999999
  0
LINE
  5
1693
  8
241
 10
122.4922967892706
 20
24.399999999999999
 30
0.0
 11
122.4922967892706
 21
18.276986852168239
 31
0.0
  0
LINE
  5
1694
  8
241
 10
122.4922967892706
 20
19.528902049727758
 30
0.0
 11
126.38500277415091
 21
18.246474221182311
 31
0.0
  0
LINE
  5
1695
  8
241
 10
129.28626040656451
 20
17.29067289941834
 30
0.0
 11
134.72170321072991
 21
15.5
 31
0.0
  0
LINE
  5
1696
  8
241
 10
122.4922967892706
 20
24.99999999999995
 30
0.0
 11
128.53545979482911
 21
23.009117451750459
 31
0.0
  0
LINE
  5
1697
  8
241
 10
130.38770282244269
 20
22.39890748134242
 30
0.0
 11
134.7217032107298
 21
20.971097950272181
 31
0.0
  0
LINE
  5
1698
  8
240
 10
122.35358983
 20
-24.399999999999999
 30
0.0
 11
75.81114719
 21
-24.400000000000009
 31
0.0
1001
GRPNAME
1000
PASTMD0W
  0
LINE
  5
1699
  8
240
  6
CONTINUOUS
 10
122.4922967892706
 20
24.399999999999999
 30
0.0
 11
75.81114719
 21
24.399999999999981
 31
0.0
1001
GRPNAME
1000
PASTMD0W
  0
ARC
  5
169A
  8
241
 10
111.1152588287308
 20
24.349845279359862
 30
0.0
 40
2.5515540506928152
 50
178.8736907610359
 51
239.36403001579649
  0
LINE
  5
169B
  8
240
 10
134.00884739250279
 20
-24.308653818757598
 30
0.0
 11
123.10000001
 21
-24.550000000000001
 31
0.0
1001
GRPNAME
1000
PASTMD0W
  0
LINE
  5
169C
  8
240
 10
123.10000001
 20
-24.550000000000001
 30
0.0
 11
122.35358983
 21
-24.399999999999999
 31
0.0
1001
GRPNAME
1000
PASTMD0W
  0
ARC
  5
169D
  8
240
 10
133.99999999995981
 20
-23.9087516761712
 30
0.0
 40
0.4
 50
271.26739898635492
 51
359.99999999829021
1001
GRPNAME
1000
PASTMD0W
1001
GENIUS_GENOBJ-N-FIL_13
1002
{
1000
OWNER
1000
GEN
1002
}
1001
GENIUS_GENODEF_13
1002
{
1000
HIER
1070
     0
1002
}
1002
{
1000
MANEDIT
1070
     0
1002
}
1002
{
1000
NOSEL
1070
     0
1002
}
1002
{
1000
BEHIND
1070
     0
1002
}
1002
{
1000
OTHER
1070
     0
1002
}
1002
{
1000
REACTOR
1002
}
  0
LINE
  5
16A4
  8
250
 10
124.0
 20
25.5
 30
0.0
 11
124.0
 21
39.5
 31
0.0
  0
LINE
  5
16A5
  8
250
 10
135.0
 20
25.5
 30
0.0
 11
135.0
 21
39.5
 31
0.0
  0
LINE
  5
16A6
  8
250
 10
126.23
 20
38.5
 30
0.0
 11
132.77000000000001
 21
38.5
 31
0.0
  0
LINE
  5
16AA
  8
250
 10
0.0
 20
22.725000000000001
 30
0.0
 11
0.0
 21
53.5
 31
0.0
  0
LINE
  5
16AB
  8
250
 10
135.0
 20
25.5
 30
0.0
 11
135.0
 21
53.5
 31
0.0
  0
LINE
  5
16AC
  8
250
 10
2.2299999999999991
 20
52.5
 30
0.0
 11
132.77000000000001
 21
52.5
 31
0.0
  0
LINE
  5
16B0
  8
250
 10
75.0
 20
24.906580030000001
 30
0.0
 11
75.0
 21
46.5
 31
0.0
  0
LINE
  5
16B1
  8
250
 10
135.0
 20
25.5
 30
0.0
 11
135.0
 21
46.5
 31
0.0
  0
LINE
  5
16B2
  8
250
 10
77.230000000000004
 20
45.499999999999993
 30
0.0
 11
132.77000000000001
 21
45.499999999999993
 31
0.0
  0
LINE
  5
16B7
  8
250
 10
135.5
 20
25.0
 30
0.0
 11
148.0
 21
25.0
 31
0.0
  0
LINE
  5
16B8
  8
250
 10
147.0
 20
-22.77
 30
0.0
 11
147.0
 21
22.77
 31
0.0
  0
TEXT
  5
16BC
  8
250
 10
-47.925063773333328
 20
-27.409457620000001
 30
0.0
 40
2.7999999999999989
  1
BBT40
  7
YOKO
1001
ITEMNAME
1000
LNSP3
1001
ACAD
1000
MTEXTBEGIN
1070
    73
1070
     1
1070
    44
1040
1.0
1070
    74
1070
     0
1000
MTEXTEND
1000
MTEXTBEGIN
1070
    73
1070
     1
1070
    44
1040
1.0
1070
    74
1070
     0
1000
MTEXTEND
1000
MTEXTBEGIN
1070
    73
1070
     1
1070
    44
1040
1.0
1070
    74
1070
     0
1000
MTEXTEND
  0
LINE
  5
16BF
  8
250
 10
-27.759420810687661
 20
-20.270591950042281
 30
0.0
 11
-32.458397099999999
 21
-28.409457620000001
 31
0.0
1001
ACAD
1000
DSTYLE
1002
{
1070
     5
1000
OPEN
1070
   342
1005
594
1070
   343
1005
594
1002
}
  0
LINE
  5
16C0
  8
250
 10
-28.081293585694709
 20
-20.084758616594339
 30
0.0
 11
-26.64442081
 21
-18.339355300000001
 31
0.0
  0
LINE
  5
16C1
  8
250
 10
-27.437548035680621
 20
-20.456425283490219
 30
0.0
 11
-26.64442081
 21
-18.339355300000001
 31
0.0
  0
LINE
  5
16C2
  8
250
 10
-26.64442081
 20
-18.339355300000001
 30
0.0
 11
-27.759420810687661
 21
-20.270591950042281
 31
0.0
  0
TEXT
  5
16C3
  8
250
 10
146.0
 20
-4.0714285714285712
 30
0.0
 40
3.0
  1
\U+2205
 50
90.0
1001
ACAD
1000
MTEXTBEGIN
1070
    73
1070
     1
1070
    44
1040
1.0
1070
    74
1070
     0
1000
MTEXTEND
1000
MTEXTBEGIN
1070
    73
1070
     1
1070
    44
1040
1.0
1070
    74
1070
     0
1000
MTEXTEND
  0
TEXT
  5
16C4
  8
250
 10
146.0
 20
-1.357142857142857
 30
0.0
 40
3.0
  1
50
 50
90.0
1001
ACAD
1000
MTEXTBEGIN
1070
    73
1070
     1
1070
    44
1040
1.0
1070
    74
1070
     0
1000
MTEXTEND
1000
MTEXTBEGIN
1070
    73
1070
     1
1070
    44
1040
1.0
1070
    74
1070
     0
1000
MTEXTEND
  0
LINE
  5
16C5
  8
250
 10
146.6283333333333
 20
22.77
 30
0.0
 11
147.0
 21
25.0
 31
0.0
  0
LINE
  5
16C6
  8
250
 10
147.3716666666667
 20
22.77
 30
0.0
 11
147.0
 21
25.0
 31
0.0
  0
LINE
  5
16C7
  8
250
 10
147.0
 20
25.0
 30
0.0
 11
147.0
 21
22.77
 31
0.0
  0
TEXT
  5
16CB
  8
250
 10
126.4166666666666
 20
39.5
 30
0.0
 40
3.5
  1
11
1001
ACAD
1000
MTEXTBEGIN
1070
    73
1070
     1
1070
    44
1040
1.0
1070
    74
1070
     0
1000
MTEXTEND
1000
MTEXTBEGIN
1070
    73
1070
     1
1070
    44
1040
1.0
1070
    74
1070
     0
1000
MTEXTEND
1000
MTEXTBEGIN
1070
    73
1070
     1
1070
    44
1040
1.0
1070
    74
1070
     0
1000
MTEXTEND
  0
LINE
  5
16CC
  8
250
 10
132.77000000000001
 20
38.87166666666667
 30
0.0
 11
135.0
 21
38.5
 31
0.0
  0
LINE
  5
16CD
  8
250
 10
132.77000000000001
 20
38.12833333333333
 30
0.0
 11
135.0
 21
38.5
 31
0.0
  0
LINE
  5
16CE
  8
250
 10
135.0
 20
38.5
 30
0.0
 11
132.77000000000001
 21
38.5
 31
0.0
  0
LINE
  5
16CF
  8
250
 10
126.23
 20
38.12833333333333
 30
0.0
 11
124.0
 21
38.5
 31
0.0
  0
LINE
  5
16D0
  8
250
 10
126.23
 20
38.87166666666667
 30
0.0
 11
124.0
 21
38.5
 31
0.0
  0
LINE
  5
16D1
  8
250
 10
124.0
 20
38.5
 30
0.0
 11
126.23
 21
38.5
 31
0.0
  0
TEXT
  5
16D2
  8
250
 10
63.0
 20
53.5
 30
0.0
 40
3.0
  1
135
1001
ACAD
1000
MTEXTBEGIN
1070
    73
1070
     1
1070
    44
1040
1.0
1070
    74
1070
     0
1000
MTEXTEND
1000
MTEXTBEGIN
1070
    73
1070
     1
1070
    44
1040
1.0
1070
    74
1070
     0
1000
MTEXTEND
1000
MTEXTBEGIN
1070
    73
1070
     1
1070
    44
1040
1.0
1070
    74
1070
     0
1000
MTEXTEND
  0
LINE
  5
16D3
  8
250
 10
132.77000000000001
 20
52.87166666666667
 30
0.0
 11
135.0
 21
52.5
 31
0.0
  0
LINE
  5
16D4
  8
250
 10
132.77000000000001
 20
52.12833333333333
 30
0.0
 11
135.0
 21
52.5
 31
0.0
  0
LINE
  5
16D5
  8
250
 10
135.0
 20
52.5
 30
0.0
 11
132.77000000000001
 21
52.5
 31
0.0
  0
LINE
  5
16D6
  8
250
 10
2.2299999999999991
 20
52.12833333333333
 30
0.0
 11
0.0
 21
52.5
 31
0.0
  0
LINE
  5
16D7
  8
250
 10
2.2299999999999991
 20
52.87166666666667
 30
0.0
 11
0.0
 21
52.5
 31
0.0
  0
LINE
  5
16D8
  8
250
 10
0.0
 20
52.5
 30
0.0
 11
2.2299999999999991
 21
52.5
 31
0.0
  0
TEXT
  5
16D9
  8
250
 10
102.0714285714285
 20
46.5
 30
0.0
 40
3.0
  1
60
1001
ACAD
1000
MTEXTBEGIN
1070
    73
1070
     1
1070
    44
1040
1.0
1070
    74
1070
     0
1000
MTEXTEND
1000
MTEXTBEGIN
1070
    73
1070
     1
1070
    44
1040
1.0
1070
    74
1070
     0
1000
MTEXTEND
1000
MTEXTBEGIN
1070
    73
1070
     1
1070
    44
1040
1.0
1070
    74
1070
     0
1000
MTEXTEND
  0
LINE
  5
16DA
  8
250
 10
132.77000000000001
 20
45.87166666666667
 30
0.0
 11
135.0
 21
45.499999999999993
 31
0.0
  0
LINE
  5
16DB
  8
250
 10
132.77000000000001
 20
45.12833333333333
 30
0.0
 11
135.0
 21
45.499999999999993
 31
0.0
  0
LINE
  5
16DC
  8
250
 10
135.0
 20
45.499999999999993
 30
0.0
 11
132.77000000000001
 21
45.499999999999993
 31
0.0
  0
LINE
  5
16DD
  8
250
 10
77.230000000000004
 20
45.12833333333333
 30
0.0
 11
75.0
 21
45.499999999999993
 31
0.0
  0
LINE
  5
16DE
  8
250
 10
77.230000000000004
 20
45.87166666666667
 30
0.0
 11
75.0
 21
45.499999999999993
 31
0.0
  0
LINE
  5
16DF
  8
250
 10
75.0
 20
45.499999999999993
 30
0.0
 11
77.230000000000004
 21
45.499999999999993
 31
0.0
  0
VIEWPORT
  5
22
 67
     1
  8
0
 10
261.51769911999997
 20
148.5
 30
0.0
 40
523.03539823000006
 41
297.0
 68
     1
 69
     1
1001
ACAD
1000
MVIEW
1002
{
1070
    16
1010
0.0
1020
0.0
1030
0.0
1010
0.0
1020
0.0
1030
1.0
1040
0.0
1040
297.0
1040
261.51769911999997
1040
148.5
1040
50.0
1040
0.0
1040
0.0
1070
     0
1070
   100
1070
     1
1070
     1
1070
     0
1070
     0
1070
     0
1070
     0
1040
0.0
1040
0.0
1040
0.0
1040
1.0
1040
1.0
1040
10.0
1040
10.0
1070
     0
1002
{
1002
}
1002
}
1001
GENIUS_GENOBJ-N-SDF_13
1002
{
1000
OWNER
1000
GEN
1002
}
1001
GENIUS_GENODEF_13
1002
{
1000
HIER
1070
     0
1002
}
1002
{
1000
MANEDIT
1070
     0
1002
}
1002
{
1000
NOSEL
1070
     0
1002
}
1002
{
1000
BEHIND
1070
     0
1002
}
1002
{
1000
OTHER
1070
     0
1002
}
1002
{
1000
REACTOR
1002
}
1001
GENIUS_GENSCREG_15
1000
PF
1040
1.0
1000
DF
1040
1.0
1000
MIN
1011
0.0000000049999471
1021
0.0
1031
3.5611038993976536E+236
1021
0.0
1031
0.0
1000
MAX
1011
523.035398235
1021
0.0
1031
3.5611038993976536E+236
1021
297.0
1031
0.0
1000
FLAGS
1070
     2
  0
ENDSEC
  0
EOF
