  0
SECTION
  2
HEADER
  9
$ACADVER
  1
AC1009
  9
$INSBASE
 10
0.0
 20
0.0
 30
0.0
  9
$EXTMIN
 10
-66.422178820188037
 20
-31.72185850782785
 30
-0.000000039842541
  9
$EXTMAX
 10
99.019255389582455
 20
68.008970300440964
 30
0.0000000765687993
  9
$LIMMIN
 10
0.0
 20
0.0
  9
$LIMMAX
 10
297.0
 20
210.0
  9
$ORTHOMODE
 70
     0
  9
$REGENMODE
 70
     1
  9
$FILLMODE
 70
     1
  9
$QTEXTMODE
 70
     0
  9
$MIRRTEXT
 70
     1
  9
$DRAGMODE
 70
     2
  9
$LTSCALE
 40
10.0
  9
$OSMODE
 70
    39
  9
$ATTMODE
 70
     1
  9
$TEXTSIZE
 40
3.0
  9
$TRACEWID
 40
1.0
  9
$TEXTSTYLE
  7
YOKO
  9
$CLAYER
  8
241
  9
$CELTYPE
  6
BYLAYER
  9
$CECOLOR
 62
   256
  9
$DIMSCALE
 40
1.0
  9
$DIMASZ
 40
2.2299999999999991
  9
$DIMEXO
 40
0.5
  9
$DIMDLI
 40
2.5
  9
$DIMRND
 40
0.0
  9
$DIMDLE
 40
0.0
  9
$DIMEXE
 40
1.0
  9
$DIMTP
 40
0.0
  9
$DIMTM
 40
0.0
  9
$DIMTXT
 40
3.5
  9
$DIMCEN
 40
0.0
  9
$DIMTSZ
 40
0.0
  9
$DIMTOL
 70
     0
  9
$DIMLIM
 70
     0
  9
$DIMTIH
 70
     0
  9
$DIMTOH
 70
     0
  9
$DIMSE1
 70
     0
  9
$DIMSE2
 70
     0
  9
$DIMTAD
 70
     3
  9
$DIMZIN
 70
     9
  9
$DIMBLK
  1
OPEN
  9
$DIMASO
 70
     1
  9
$DIMSHO
 70
     1
  9
$DIMPOST
  1

  9
$DIMAPOST
  1

  9
$DIMALT
 70
     0
  9
$DIMALTD
 70
     2
  9
$DIMALTF
 40
25.399999999999999
  9
$DIMLFAC
 40
1.0
  9
$DIMTOFL
 70
     1
  9
$DIMTVP
 40
0.0
  9
$DIMTIX
 70
     0
  9
$DIMSOXD
 70
     0
  9
$DIMSAH
 70
     0
  9
$DIMBLK1
  1

  9
$DIMBLK2
  1

  9
$DIMSTYLE
  2
BIGT
  9
$DIMCLRD
 70
   256
  9
$DIMCLRE
 70
   256
  9
$DIMCLRT
 70
    40
  9
$DIMTFAC
 40
1.0
  9
$DIMGAP
 40
1.0
  9
$LUNITS
 70
     2
  9
$LUPREC
 70
     3
  9
$SKETCHINC
 40
1.0
  9
$FILLETRAD
 40
1.6000000000000001
  9
$AUNITS
 70
     0
  9
$AUPREC
 70
     3
  9
$MENU
  1
.
  9
$ELEVATION
 40
0.0
  9
$PELEVATION
 40
0.0
  9
$THICKNESS
 40
0.0
  9
$LIMCHECK
 70
     0
  9
$BLIPMODE
 70
     0
  9
$CHAMFERA
 40
10.0
  9
$CHAMFERB
 40
10.0
  9
$SKPOLY
 70
     0
  9
$TDCREATE
 40
2452356.6921308911
  9
$TDUPDATE
 40
2456086.6872787732
  9
$TDINDWG
 40
0.13549375
  9
$TDUSRTIMER
 40
0.13549375
  9
$USRTIMER
 70
     1
  9
$ANGBASE
 50
0.0
  9
$ANGDIR
 70
     0
  9
$PDMODE
 70
     1
  9
$PDSIZE
 40
-5.0
  9
$PLINEWID
 40
0.0
  9
$COORDS
 70
     0
  9
$SPLFRAME
 70
     0
  9
$SPLINETYPE
 70
     6
  9
$SPLINESEGS
 70
     8
  9
$ATTDIA
 70
     1
  9
$ATTREQ
 70
     1
  9
$HANDLING
 70
     1
  9
$HANDSEED
  5
1476
  9
$SURFTAB1
 70
     6
  9
$SURFTAB2
 70
     6
  9
$SURFTYPE
 70
     6
  9
$SURFU
 70
     6
  9
$SURFV
 70
     6
  9
$UCSNAME
  2

  9
$UCSORG
 10
0.0
 20
0.0
 30
0.0
  9
$UCSXDIR
 10
1.0
 20
0.0
 30
0.0
  9
$UCSYDIR
 10
0.0
 20
1.0
 30
0.0
  9
$PUCSNAME
  2

  9
$PUCSORG
 10
0.0
 20
0.0
 30
0.0
  9
$PUCSXDIR
 10
1.0
 20
0.0
 30
0.0
  9
$PUCSYDIR
 10
0.0
 20
1.0
 30
0.0
  9
$USERI1
 70
     1
  9
$USERI2
 70
     0
  9
$USERI3
 70
     0
  9
$USERI4
 70
     0
  9
$USERI5
 70
     0
  9
$USERR1
 40
0.0
  9
$USERR2
 40
0.0
  9
$USERR3
 40
0.0
  9
$USERR4
 40
0.0
  9
$USERR5
 40
0.0
  9
$WORLDVIEW
 70
     1
  9
$SHADEDGE
 70
     3
  9
$SHADEDIF
 70
    70
  9
$TILEMODE
 70
     1
  9
$MAXACTVP
 70
    16
  9
$PLIMCHECK
 70
     0
  9
$PEXTMIN
 10
1.0000000000000000E+020
 20
1.0000000000000000E+020
 30
1.0000000000000000E+020
  9
$PEXTMAX
 10
-1.0000000000000000E+020
 20
-1.0000000000000000E+020
 30
-1.0000000000000000E+020
  9
$PLIMMIN
 10
0.0
 20
0.0
  9
$PLIMMAX
 10
420.0
 20
297.0
  9
$UNITMODE
 70
     0
  9
$VISRETAIN
 70
     0
  9
$PLINEGEN
 70
     0
  9
$PSLTSCALE
 70
     1
  0
ENDSEC
  0
SECTION
  2
TABLES
  0
TABLE
  2
VPORT
 70
    31
  0
VPORT
  2
*ACTIVE
 70
     0
 10
0.0
 20
0.0
 11
1.0
 21
1.0
 12
16.298538284697202
 22
18.143555896306559
 13
0.0
 23
0.0
 14
7.0
 24
7.0
 15
7.0
 25
7.0
 16
0.0
 26
0.0
 36
1.0
 17
0.0
 27
0.0
 37
0.0
 40
107.3810770314619
 41
1.5472527472527471
 42
50.0
 43
0.0
 44
0.0
 50
0.0
 51
0.0
 71
     0
 72
  2000
 73
     1
 74
     0
 75
     0
 76
     0
 77
     0
 78
     0
  0
ENDTAB
  0
TABLE
  2
LTYPE
 70
    16
  0
LTYPE
  2
CONTINUOUS
 70
     0
  3
Solid line
 72
    65
 73
     0
 40
0.0
  0
LTYPE
  2
CENTER2
 70
     0
  3
___ _ ___ _ ___ _ ___ _ ___ _ ___ _ ___ _ ___ _
 72
    65
 73
     4
 40
1.125
 49
0.75
 49
-0.125
 49
0.125
 49
-0.125
  0
LTYPE
  2
HIDDEN2
 70
     0
  3
_ _ _ _ _ _ _ _ _ _ _ _ _ _ _ _ _ _ _ _ _ _ _ _
 72
    65
 73
     2
 40
0.1875
 49
0.125
 49
-0.0625
  0
LTYPE
  2
PHANTOM2
 70
     0
  3
___ _ _ ___ _ _ ___ _ _ ___ _ _ ___ _ _ ___ _ _
 72
    65
 73
     6
 40
1.25
 49
0.625
 49
-0.125
 49
0.125
 49
-0.125
 49
0.125
 49
-0.125
  0
LTYPE
  2
AMCONSTR
 70
     0
  3
_______________________
 72
    65
 73
     2
 40
9999.0
 49
9999.0
 49
0.0
  0
LTYPE
  2
AM_ISO02W050
 70
     0
  3
__ __ __ __ __ __ __ __ __ __ __ __ __ __ __
 72
    65
 73
     2
 40
7.5
 49
6.0
 49
-1.5
  0
LTYPE
  2
HIDDEN
 70
     0
  3
Hidden __ __ __ __ __ __ __ __ __ __ __ __ __ _
 72
    65
 73
     2
 40
9.5249999999999986
 49
6.3499999999999988
 49
-3.1749999999999989
  0
LTYPE
  2
CENTER
 70
     0
  3
____ _ ____ _ ____ _ ____ _ ____ _ ____ _ ____ 
 72
    65
 73
     4
 40
2.0
 49
1.25
 49
-0.25
 49
0.25
 49
-0.25
  0
LTYPE
  2
ACJISTGB
 70
     0
  3
__ . . __ . .
 72
    65
 73
     6
 40
9.0
 49
4.0
 49
-1.0
 49
1.0
 49
-1.0
 49
1.0
 49
-1.0
  0
LTYPE
  2
ACJISTGL
 70
     0
  3
_ _ _ _ _
 72
    65
 73
     2
 40
3.0
 49
2.0
 49
-1.0
  0
LTYPE
  2
ACISOWELD
 70
     0
  3
_ _ _ _ _
 72
    65
 73
     2
 40
2.0
 49
2.0
 49
-1.0
  0
LTYPE
  2
ACISOTGB
 70
     0
  3
__ . . __ . .
 72
    65
 73
     6
 40
9.0
 49
4.0
 49
-1.0
 49
1.0
 49
-1.0
 49
1.0
 49
-1.0
  0
LTYPE
  2
ACISOTGL
 70
     0
  3
_ _ _ _ _
 72
    65
 73
     2
 40
3.0
 49
2.0
 49
-1.0
  0
LTYPE
  2
ACANSTGB
 70
     0
  3
__ . . __ . .
 72
    65
 73
     6
 40
0.35433070866
 49
0.15748031496
 49
-0.03937007874
 49
0.03937007874
 49
-0.03937007874
 49
0.03937007874
 49
-0.03937007874
  0
LTYPE
  2
ACANSTGL
 70
     0
  3
_ _ _ _ _
 72
    65
 73
     2
 40
0.11811023622
 49
0.07874015748
 49
-0.03937007874
  0
ENDTAB
  0
TABLE
  2
LAYER
 70
     9
  0
LAYER
  2
0
 70
     0
 62
     7
  6
CONTINUOUS
  0
LAYER
  2
240
 70
     0
 62
     4
  6
CONTINUOUS
  0
LAYER
  2
241
 70
     0
 62
   211
  6
CONTINUOUS
  0
LAYER
  2
245
 70
     0
 62
     2
  6
CENTER2
  0
LAYER
  2
250
 70
     0
 62
     3
  6
CONTINUOUS
  0
LAYER
  2
DEFPOINTS
 70
     0
 62
     7
  6
CONTINUOUS
  0
ENDTAB
  0
TABLE
  2
STYLE
 70
     8
  0
STYLE
  2
STANDARD
 70
     0
 40
0.0
 41
1.0
 50
0.0
 71
     0
 42
3.0
  3
romans.shx
  4
BIGFONT.SHX
  0
STYLE
  2
YOKO
 70
     0
 40
0.0
 41
1.0
 50
0.0
 71
     0
 42
3.0
  3
romans.shx
  4
extfont.shx
  0
STYLE
  2
ACJISGDT
 70
     0
 40
0.0
 41
1.0
 50
0.0
 71
     0
 42
3.0
  3
amgdt.shx
  4
extfont.shx
  0
STYLE
  2
ACJISTS
 70
     0
 40
1.0
 41
1.0
 50
0.0
 71
     0
 42
3.0
  3
amgdt.shx
  4
extfont.shx
  0
STYLE
  2
ACISOTS
 70
     0
 40
1.0
 41
1.0
 50
0.0
 71
     0
 42
3.0
  3
amgdt.shx
  4
extfont.shx
  0
STYLE
  2
ACISOGDT
 70
     0
 40
0.0
 41
1.0
 50
0.0
 71
     0
 42
3.0
  3
amgdt.shx
  4
extfont.shx
  0
STYLE
  2
ACANSTS
 70
     0
 40
1.0
 41
1.0
 50
0.0
 71
     0
 42
3.0
  3
romans.shx
  4
extfont.shx
  0
STYLE
  2
ACANSGDT
 70
     0
 40
0.0
 41
1.0
 50
0.0
 71
     0
 42
3.0
  3
amgdtans.shx
  4

  0
ENDTAB
  0
TABLE
  2
VIEW
 70
     1
  0
VIEW
  2
OLE1
 70
     0
 40
114.23289207000001
 10
16.307103699999999
 20
18.14941026
 41
166.31835581000001
 11
0.0
 21
0.0
 31
1.0
 12
0.0
 22
0.0
 32
0.0
 42
50.0
 43
0.0
 44
0.0
 50
0.0
 71
     0
  0
ENDTAB
  0
TABLE
  2
UCS
 70
     0
  0
ENDTAB
  0
TABLE
  2
APPID
 70
    33
  0
APPID
  2
ACAD
 70
     0
  0
APPID
  2
GLOBAL
 70
     0
  0
APPID
  2
DETAIL
 70
     0
  0
APPID
  2
GRPNAME
 70
     0
  0
APPID
  2
GPARA
 70
     0
  0
APPID
  2
ITEMNAME
 70
     0
  0
APPID
  2
HATCH_TYPE
 70
     0
  0
APPID
  2
HATCH_DISPLAY
 70
     0
  0
APPID
  2
HATCH_DISTANCE
 70
     0
  0
APPID
  2
CONTENTBLOCKICON
 70
     0
  0
APPID
  2
MCAD_NO_VIS
 70
     0
  0
APPID
  2
ACAD_TEMP_GRAPHIC
 70
     0
  0
APPID
  2
ACATTRIBSERVICES
 70
     0
  0
APPID
  2
GENIUS_GENSCREG_15
 70
     0
  0
APPID
  2
GENIUS_GENODEF_13
 70
     0
  0
APPID
  2
GENIUS_GENOBJ-N-SDF_13
 70
     0
  0
APPID
  2
GENIUS_GENREC_14
 70
     0
  0
APPID
  2
GENIUS_GENOBJ-N-REC_13
 70
     0
  0
APPID
  2
GENIUS_GENDIMSH_14
 70
     0
  0
APPID
  2
GENIUS_GENOBJ-N-DIM_13
 70
     0
  0
APPID
  2
GENIUS_GENDIM_13
 70
     0
  0
APPID
  2
GENIUS_GENDTOL_13
 70
     0
  0
APPID
  2
GENIUS_GENOLIS_13
 70
     0
  0
APPID
  2
GENIUS_GENOENT_13
 70
     0
  0
APPID
  2
GENIUS_GENOBJ-F-FEM_13
 70
     0
  0
APPID
  2
GENIUS_GENOREF_13
 70
     0
  0
APPID
  2
GENIUS_GEFFEM_13
 70
     0
  0
APPID
  2
GENIUS_GEFFEMP_13
 70
     0
  0
APPID
  2
AD_DRAW
 70
     0
  0
APPID
  2
DESIGNERASSEMBLIES
 70
     0
  0
APPID
  2
ACADM_DIM_EDIT
 70
     0
  0
APPID
  2
AMDT_DM_ADJ
 70
     0
  0
APPID
  2
GENIUS_GENOBJ-N-FIL_13
 70
     0
  0
ENDTAB
  0
TABLE
  2
DIMSTYLE
 70
    29
  0
DIMSTYLE
  2
BIGT
 70
     0
  3

  4

  5
OPEN
  6

  7

 40
1.0
 41
2.2299999999999991
 42
0.5
 43
7.0
 44
1.0
 45
0.0
 46
0.0
 47
0.0
 48
0.01
140
2.7999999999999989
141
0.0
142
0.0
143
25.399999999999999
144
1.0
145
0.0
146
1.0
147
1.0
 71
     0
 72
     0
 73
     0
 74
     0
 75
     0
 76
     0
 77
     3
 78
     9
170
     0
171
     2
172
     1
173
     0
174
     1
175
     0
176
   256
177
   256
178
    40
  0
DIMSTYLE
  2
BIGT$0
 70
     0
  3

  4

  5
OPEN
  6

  7

 40
1.0
 41
2.2299999999999991
 42
0.5
 43
7.0
 44
1.0
 45
0.0
 46
0.0
 47
0.0
 48
0.01
140
2.7999999999999989
141
0.0
142
0.0
143
25.399999999999999
144
1.0
145
0.0
146
1.0
147
1.0
 71
     0
 72
     0
 73
     0
 74
     0
 75
     0
 76
     0
 77
     3
 78
     9
170
     0
171
     2
172
     1
173
     0
174
     0
175
     0
176
   256
177
   256
178
    40
  0
DIMSTYLE
  2
BIGT$2
 70
     0
  3

  4

  5
OPEN
  6

  7

 40
1.0
 41
2.2299999999999991
 42
0.5
 43
7.0
 44
1.0
 45
0.0
 46
0.0
 47
0.0
 48
0.01
140
2.7999999999999989
141
0.0
142
0.0
143
25.399999999999999
144
1.0
145
0.0
146
1.0
147
1.0
 71
     0
 72
     0
 73
     0
 74
     0
 75
     0
 76
     0
 77
     3
 78
     9
170
     0
171
     2
172
     1
173
     0
174
     0
175
     0
176
   256
177
   256
178
    40
  0
DIMSTYLE
  2
BIGT$3
 70
     0
  3

  4

  5
OPEN
  6

  7

 40
1.0
 41
2.2299999999999991
 42
0.5
 43
2.5
 44
1.0
 45
0.0
 46
0.0
 47
0.0
 48
0.01
140
2.7999999999999989
141
0.0
142
0.0
143
25.399999999999999
144
1.0
145
0.0
146
1.0
147
1.0
 71
     0
 72
     0
 73
     0
 74
     0
 75
     0
 76
     0
 77
     3
 78
     9
170
     0
171
     2
172
     1
173
     0
174
     0
175
     0
176
   256
177
   256
178
    40
  0
DIMSTYLE
  2
BIGT$4
 70
     0
  3

  4

  5
OPEN
  6

  7

 40
1.0
 41
2.2299999999999991
 42
0.5
 43
2.5
 44
1.0
 45
0.0
 46
0.0
 47
0.0
 48
0.01
140
2.7999999999999989
141
0.0
142
0.0
143
25.399999999999999
144
1.0
145
0.0
146
1.0
147
1.0
 71
     0
 72
     0
 73
     0
 74
     0
 75
     0
 76
     0
 77
     3
 78
     9
170
     0
171
     2
172
     1
173
     0
174
     0
175
     0
176
   256
177
   256
178
    40
  0
DIMSTYLE
  2
BIGT$6
 70
     0
  3

  4

  5
OPEN
  6

  7

 40
1.0
 41
2.2299999999999991
 42
0.5
 43
2.5
 44
1.0
 45
0.0
 46
0.0
 47
0.0
 48
0.01
140
2.7999999999999989
141
0.0
142
0.0
143
25.399999999999999
144
1.0
145
0.0
146
1.0
147
1.0
 71
     0
 72
     0
 73
     0
 74
     0
 75
     0
 76
     0
 77
     3
 78
     9
170
     0
171
     2
172
     1
173
     0
174
     0
175
     0
176
   256
177
   256
178
    40
  0
DIMSTYLE
  2
BIGT$7
 70
     0
  3

  4

  5
OPEN
  6

  7

 40
0.0
 41
2.2299999999999991
 42
0.5
 43
7.0
 44
1.0
 45
0.0
 46
0.0
 47
0.0
 48
0.01
140
2.7999999999999989
141
0.0
142
0.0
143
25.399999999999999
144
1.0
145
0.0
146
1.0
147
1.0
 71
     0
 72
     0
 73
     0
 74
     0
 75
     0
 76
     0
 77
     3
 78
     9
170
     0
171
     2
172
     0
173
     0
174
     0
175
     0
176
   256
177
   256
178
    40
  0
DIMSTYLE
  2
BIGT$SF
 70
     0
  3

  4

  5
OPEN
  6

  7

 40
1.0
 41
2.2299999999999991
 42
0.5
 43
7.0
 44
1.0
 45
0.0
 46
0.0
 47
0.0
 48
0.0
140
2.7999999999999989
141
0.0
142
0.0
143
25.399999999999999
144
1.0
145
0.0
146
1.0
147
1.0
 71
     0
 72
     0
 73
     0
 74
     0
 75
     0
 76
     0
 77
     3
 78
     9
170
     0
171
     2
172
     1
173
     0
174
     0
175
     0
176
   256
177
   256
178
    40
  0
DIMSTYLE
  2
BIGT$SH
 70
     0
  3

  4

  5
OPEN
  6

  7

 40
1.0
 41
2.2299999999999991
 42
0.5
 43
7.0
 44
1.0
 45
0.0
 46
0.0
 47
0.0
 48
0.0
140
2.7999999999999989
141
0.0
142
0.0
143
25.399999999999999
144
1.0
145
0.0
146
1.0
147
1.0
 71
     0
 72
     0
 73
     0
 74
     0
 75
     0
 76
     0
 77
     3
 78
     9
170
     0
171
     2
172
     1
173
     0
174
     0
175
     0
176
   256
177
   256
178
    40
  0
DIMSTYLE
  2
AM_ISO
 70
     0
  3

  4
"
  5

  6

  7

 40
1.0
 41
2.5
 42
1.0
 43
10.0
 44
1.0
 45
0.0
 46
0.0
 47
0.1
 48
0.1
140
3.5
141
0.0
142
0.0
143
0.0393701
144
1.0
145
0.0
146
0.71
147
1.5
 71
     0
 72
     0
 73
     0
 74
     0
 75
     0
 76
     0
 77
     1
 78
     8
170
     0
171
     2
172
     1
173
     0
174
     0
175
     0
176
   256
177
   256
178
     2
  0
DIMSTYLE
  2
AM_ISO$3
 70
     0
  3

  4
"
  5

  6

  7

 40
1.0
 41
2.5
 42
1.0
 43
10.0
 44
1.0
 45
0.0
 46
0.0
 47
0.1
 48
0.1
140
3.5
141
0.0
142
0.0
143
0.0393701
144
1.0
145
0.0
146
0.71
147
1.5
 71
     0
 72
     0
 73
     0
 74
     1
 75
     0
 76
     0
 77
     1
 78
     8
170
     0
171
     2
172
     0
173
     0
174
     0
175
     0
176
   256
177
   256
178
     2
  0
DIMSTYLE
  2
AM_ISO$4
 70
     0
  3

  4
"
  5

  6

  7

 40
1.0
 41
2.5
 42
1.0
 43
10.0
 44
1.0
 45
0.0
 46
0.0
 47
0.1
 48
0.1
140
3.5
141
0.0
142
0.0
143
0.0393701
144
1.0
145
0.0
146
0.71
147
1.5
 71
     0
 72
     0
 73
     0
 74
     1
 75
     0
 76
     0
 77
     1
 78
     8
170
     0
171
     2
172
     0
173
     0
174
     0
175
     0
176
   256
177
   256
178
     2
  0
DIMSTYLE
  2
AM_ISO$6
 70
     0
  3

  4
"
  5

  6

  7

 40
1.0
 41
2.5
 42
1.0
 43
10.0
 44
1.0
 45
0.0
 46
0.0
 47
0.1
 48
0.1
140
3.5
141
0.0
142
0.0
143
0.0393701
144
1.0
145
0.0
146
0.71
147
1.5
 71
     0
 72
     0
 73
     0
 74
     0
 75
     0
 76
     0
 77
     0
 78
     8
170
     0
171
     2
172
     1
173
     0
174
     0
175
     0
176
   256
177
   256
178
     2
  0
DIMSTYLE
  2
AM_ISO$7
 70
     0
  3

  4
"
  5

  6

  7

 40
1.0
 41
2.5
 42
1.0
 43
10.0
 44
1.0
 45
0.0
 46
0.0
 47
0.1
 48
0.1
140
5.0
141
0.0
142
0.0
143
0.0393701
144
1.0
145
0.0
146
0.71
147
1.5
 71
     0
 72
     0
 73
     0
 74
     0
 75
     0
 76
     0
 77
     1
 78
     8
170
     0
171
     2
172
     1
173
     0
174
     0
175
     0
176
   256
177
   256
178
     2
  0
DIMSTYLE
  2
AM_ISO$SF
 70
     0
  3

  4
"
  5

  6

  7

 40
1.0
 41
2.5
 42
1.0
 43
10.0
 44
1.0
 45
0.0
 46
0.0
 47
0.1
 48
0.1
140
3.5
141
0.0
142
0.0
143
0.0393701
144
1.0
145
0.0
146
0.71
147
1.5
 71
     0
 72
     0
 73
     0
 74
     0
 75
     1
 76
     1
 77
     1
 78
     8
170
     0
171
     2
172
     1
173
     0
174
     0
175
     0
176
   256
177
   256
178
     2
  0
DIMSTYLE
  2
AM_ISO$SH
 70
     0
  3

  4
"
  5

  6
GENAXEH
  7

 40
1.0
 41
2.5
 42
1.0
 43
10.0
 44
1.0
 45
0.0
 46
0.0
 47
0.1
 48
0.1
140
3.5
141
0.0
142
0.0
143
0.0393701
144
2.0
145
0.0
146
0.71
147
1.5
 71
     0
 72
     0
 73
     0
 74
     0
 75
     1
 76
     1
 77
     1
 78
     8
170
     0
171
     2
172
     1
173
     1
174
     0
175
     0
176
   256
177
   256
178
     2
  0
DIMSTYLE
  2
TECHNICAL_OSAKA
 70
     0
  3

  4
"
  5
OPEN30
  6

  7

 40
1.0
 41
2.5
 42
1.0
 43
10.0
 44
1.0
 45
0.0
 46
0.0
 47
0.1
 48
0.1
140
2.7999999999999989
141
0.0
142
0.0
143
0.0393701
144
1.0
145
0.0
146
0.71
147
1.5
 71
     0
 72
     0
 73
     0
 74
     0
 75
     0
 76
     0
 77
     3
 78
     8
170
     0
171
     2
172
     1
173
     0
174
     0
175
     0
176
   256
177
   256
178
    40
  0
DIMSTYLE
  2
TECHNICAL_OSAKA$3
 70
     0
  3

  4
"
  5
OPEN30
  6

  7

 40
1.0
 41
2.5
 42
1.0
 43
10.0
 44
1.0
 45
0.0
 46
0.0
 47
0.1
 48
0.1
140
2.7999999999999989
141
0.0
142
0.0
143
0.0393701
144
1.0
145
0.0
146
0.71
147
1.5
 71
     0
 72
     0
 73
     0
 74
     1
 75
     0
 76
     0
 77
     3
 78
     8
170
     0
171
     2
172
     0
173
     0
174
     0
175
     0
176
   256
177
   256
178
    40
  0
DIMSTYLE
  2
TECHNICAL_OSAKA$4
 70
     0
  3

  4
"
  5
OPEN30
  6

  7

 40
1.0
 41
2.5
 42
1.0
 43
10.0
 44
1.0
 45
0.0
 46
0.0
 47
0.1
 48
0.1
140
2.7999999999999989
141
0.0
142
0.0
143
0.0393701
144
1.0
145
0.0
146
0.71
147
1.5
 71
     0
 72
     0
 73
     0
 74
     1
 75
     0
 76
     0
 77
     3
 78
     8
170
     0
171
     2
172
     0
173
     0
174
     0
175
     0
176
   256
177
   256
178
    40
  0
DIMSTYLE
  2
TECHNICAL_OSAKA$6
 70
     0
  3

  4
"
  5
OPEN30
  6

  7

 40
1.0
 41
2.5
 42
1.0
 43
10.0
 44
1.0
 45
0.0
 46
0.0
 47
0.1
 48
0.1
140
2.7999999999999989
141
0.0
142
0.0
143
0.0393701
144
1.0
145
0.0
146
0.71
147
1.5
 71
     0
 72
     0
 73
     0
 74
     0
 75
     0
 76
     0
 77
     0
 78
     8
170
     0
171
     2
172
     1
173
     0
174
     0
175
     0
176
   256
177
   256
178
    40
  0
DIMSTYLE
  2
TECHNICAL_OSAKA$7
 70
     0
  3

  4
"
  5
OPEN30
  6

  7

 40
1.0
 41
2.5
 42
1.0
 43
10.0
 44
1.0
 45
0.0
 46
0.0
 47
0.1
 48
0.1
140
2.7999999999999989
141
0.0
142
0.0
143
0.0393701
144
1.0
145
0.0
146
0.71
147
1.5
 71
     0
 72
     0
 73
     0
 74
     0
 75
     0
 76
     0
 77
     3
 78
     8
170
     0
171
     2
172
     1
173
     0
174
     0
175
     0
176
   256
177
   256
178
    40
  0
DIMSTYLE
  2
TECHNICAL_OSAKA$SF
 70
     0
  3

  4
"
  5
OPEN30
  6
OPEN30
  7
OPEN30
 40
1.0
 41
2.5
 42
1.0
 43
10.0
 44
1.0
 45
0.0
 46
0.0
 47
0.1
 48
0.1
140
3.5
141
0.0
142
0.0
143
0.0393701
144
1.0
145
0.0
146
0.71
147
1.5
 71
     0
 72
     0
 73
     0
 74
     0
 75
     1
 76
     1
 77
     3
 78
     8
170
     0
171
     2
172
     1
173
     0
174
     0
175
     0
176
   256
177
   256
178
    40
  0
DIMSTYLE
  2
TECHNICAL_OSAKA$SH
 70
     0
  3

  4
"
  5
OPEN30
  6
GENAXEH
  7
OPEN30
 40
1.0
 41
2.5
 42
1.0
 43
10.0
 44
1.0
 45
0.0
 46
0.0
 47
0.1
 48
0.1
140
3.5
141
0.0
142
0.0
143
0.0393701
144
2.0
145
0.0
146
0.71
147
1.5
 71
     0
 72
     0
 73
     0
 74
     0
 75
     1
 76
     1
 77
     3
 78
     8
170
     0
171
     2
172
     1
173
     1
174
     0
175
     0
176
   256
177
   256
178
    40
  0
DIMSTYLE
  2
AM_ANSI
 70
     0
  3

  4
mm
  5

  6

  7

 40
1.0
 41
0.1
 42
0.05
 43
0.5
 44
0.1
 45
0.0
 46
0.0
 47
0.1
 48
0.1
140
0.12
141
0.0
142
0.0
143
25.399999999999999
144
1.0
145
0.0
146
0.71
147
0.06
 71
     0
 72
     0
 73
     1
 74
     1
 75
     0
 76
     0
 77
     0
 78
     7
170
     0
171
     2
172
     0
173
     0
174
     0
175
     0
176
   256
177
   256
178
     2
  0
DIMSTYLE
  2
AM_ANSI$3
 70
     0
  3

  4
mm
  5

  6

  7

 40
1.0
 41
0.1
 42
0.05
 43
0.5
 44
0.1
 45
0.0
 46
0.0
 47
0.1
 48
0.1
140
0.12
141
0.0
142
0.0
143
25.399999999999999
144
1.0
145
0.0
146
0.71
147
0.06
 71
     0
 72
     0
 73
     1
 74
     1
 75
     0
 76
     0
 77
     0
 78
     7
170
     0
171
     2
172
     0
173
     0
174
     0
175
     0
176
   256
177
   256
178
     2
  0
DIMSTYLE
  2
AM_ANSI$4
 70
     0
  3

  4
mm
  5

  6

  7

 40
1.0
 41
0.1
 42
0.05
 43
0.5
 44
0.1
 45
0.0
 46
0.0
 47
0.1
 48
0.1
140
0.12
141
0.0
142
0.0
143
25.399999999999999
144
1.0
145
0.0
146
0.71
147
0.06
 71
     0
 72
     0
 73
     1
 74
     1
 75
     0
 76
     0
 77
     0
 78
     7
170
     0
171
     2
172
     0
173
     0
174
     0
175
     0
176
   256
177
   256
178
     2
  0
DIMSTYLE
  2
AM_ANSI$7
 70
     0
  3

  4
mm
  5

  6

  7

 40
1.0
 41
0.1
 42
0.05
 43
0.5
 44
0.1
 45
0.0
 46
0.0
 47
0.1
 48
0.1
140
0.24
141
0.0
142
0.0
143
25.399999999999999
144
1.0
145
0.0
146
0.71
147
0.06
 71
     0
 72
     0
 73
     1
 74
     1
 75
     0
 76
     0
 77
     0
 78
     7
170
     0
171
     2
172
     0
173
     0
174
     0
175
     0
176
   256
177
   256
178
     2
  0
DIMSTYLE
  2
AM_ANSI$SF
 70
     0
  3

  4
mm
  5

  6

  7

 40
1.0
 41
0.1
 42
0.05
 43
0.5
 44
0.1
 45
0.0
 46
0.0
 47
0.1
 48
0.1
140
0.12
141
0.0
142
0.0
143
25.399999999999999
144
1.0
145
0.0
146
0.71
147
0.06
 71
     0
 72
     0
 73
     1
 74
     1
 75
     1
 76
     1
 77
     0
 78
     7
170
     0
171
     2
172
     0
173
     0
174
     0
175
     0
176
   256
177
   256
178
     2
  0
DIMSTYLE
  2
AM_ANSI$SH
 70
     0
  3

  4
mm
  5

  6

  7

 40
1.0
 41
0.1
 42
0.05
 43
0.5
 44
0.1
 45
0.0
 46
0.0
 47
0.1
 48
0.1
140
0.12
141
0.0
142
0.0
143
25.399999999999999
144
1.0
145
0.0
146
0.71
147
0.06
 71
     0
 72
     0
 73
     1
 74
     1
 75
     1
 76
     1
 77
     0
 78
     7
170
     0
171
     2
172
     0
173
     1
174
     0
175
     0
176
   256
177
   256
178
     2
  0
ENDTAB
  0
ENDSEC
  0
SECTION
  2
BLOCKS
  0
BLOCK
  8
0
  2
$MODEL_SPACE
 70
     0
 10
0.0
 20
0.0
 30
0.0
  3
$MODEL_SPACE
  1

  0
ENDBLK
  5
1C
  8
0
  0
BLOCK
 67
     1
  8
0
  2
$PAPER_SPACE
 70
     0
 10
0.0
 20
0.0
 30
0.0
  3
$PAPER_SPACE
  1

  0
ENDBLK
  5
19
 67
     1
  8
0
  0
BLOCK
  8
0
  2
_OPEN
 70
     0
 10
0.0
 20
0.0
 30
0.0
  3
_OPEN
  1

  0
LINE
  5
1205
  8
0
  6
BYBLOCK
 62
     0
 10
-1.0
 20
0.1666666666666666
 30
0.0
 11
0.0
 21
0.0
 31
0.0
  0
LINE
  5
1206
  8
0
  6
BYBLOCK
 62
     0
 10
-1.0
 20
-0.1666666666666666
 30
0.0
 11
0.0
 21
0.0
 31
0.0
  0
LINE
  5
1207
  8
0
  6
BYBLOCK
 62
     0
 10
0.0
 20
0.0
 30
0.0
 11
-1.0
 21
0.0
 31
0.0
  0
ENDBLK
  5
1208
  8
0
  0
BLOCK
  8
0
  2
GENAXEH
 70
     0
 10
0.0
 20
0.0
 30
0.0
  3
GENAXEH
  1

  0
LINE
  5
1230
  8
0
 10
-1.0
 20
0.0
 30
0.0
 11
1.0
 21
0.0
 31
0.0
  0
ENDBLK
  5
1231
  8
0
  0
BLOCK
  8
0
  2
_OPEN30
 70
     0
 10
0.0
 20
0.0
 30
0.0
  3
_OPEN30
  1

  0
LINE
  5
1255
  8
0
  6
BYBLOCK
 62
     0
 10
-1.0
 20
0.26794919
 30
0.0
 11
0.0
 21
0.0
 31
0.0
  0
LINE
  5
1256
  8
0
  6
BYBLOCK
 62
     0
 10
0.0
 20
0.0
 30
0.0
 11
-1.0
 21
-0.26794919
 31
0.0
  0
LINE
  5
1257
  8
0
  6
BYBLOCK
 62
     0
 10
0.0
 20
0.0
 30
0.0
 11
-1.0
 21
0.0
 31
0.0
  0
ENDBLK
  5
1258
  8
0
  0
BLOCK
  8
0
  2
*U10
 70
     1
 10
0.0
 20
0.0
 30
0.0
  3
*U10
  1

  0
TEXT
  5
13D4
  8
250
 62
    40
 10
97.0
 20
-4.0714285714285712
 30
0.0
 40
3.0
  1
\U+2205
 50
90.0
  0
TEXT
  5
13D5
  8
250
 62
    40
 10
97.0
 20
-1.357142857142857
 30
0.0
 40
3.0
  1
40
 50
90.0
  0
ENDBLK
  5
13D7
  8
0
  0
BLOCK
  8
0
  2
*U11
 70
     1
 10
0.0
 20
0.0
 30
0.0
  3
*U11
  1

  0
TEXT
  5
13D9
  8
250
 62
    40
 10
39.642857142857139
 20
50.0
 30
0.0
 40
3.0
  1
85
  0
ENDBLK
  5
13DB
  8
0
  0
BLOCK
  8
0
  2
*U12
 70
     1
 10
0.0
 20
0.0
 30
0.0
  3
*U12
  1

  0
TEXT
  5
13DD
  8
250
 62
    40
 10
76.416666666666671
 20
36.0
 30
0.0
 40
3.5
  1
11
  0
ENDBLK
  5
13DF
  8
0
  0
BLOCK
  8
0
  2
*U13
 70
     1
 10
0.0
 20
0.0
 30
0.0
  3
*U13
  1

  0
TEXT
  5
13E1
  8
250
 62
    40
 10
60.642857142857139
 20
43.0
 30
0.0
 40
3.0
  1
43
  0
ENDBLK
  5
13E3
  8
0
  0
ENDSEC
  0
SECTION
  2
ENTITIES
  0
TEXT
  5
C9B
  8
241
 10
-65.400000000000006
 20
63.0
 30
0.0
 40
5.0
  1
BBT40-FCM40114-85
  7
YOKO
 11
-65.400000000000006
 21
63.0
 31
0.0
 73
     1
  0
LINE
  5
FBA
  8
250
 10
-32.458397099999999
 20
-28.409457620000001
 30
0.0
 11
-50.191730440000001
 21
-28.409457620000001
 31
0.0
1001
ITEMNAME
1000
LNSP2
  0
LINE
  5
126B
  8
245
  6
CENTER2
 10
-66.400000000000006
 20
0.0
 30
0.0
 11
86.0
 21
0.0
 31
0.0
1001
GRPNAME
1000
PASTMD06
  0
ARC
  5
126C
  8
240
  6
CONTINUOUS
 10
2.0
 20
-30.5
 30
0.0
 40
1.0
 50
180.0
 51
270.0
  0
LINE
  5
126D
  8
241
  6
HIDDEN2
 10
23.0
 20
-22.5
 30
0.0
 11
1.0
 21
-22.5
 31
0.0
  0
LINE
  5
126E
  8
241
  6
HIDDEN2
 10
23.0
 20
22.5
 30
0.0
 11
1.0
 21
22.5
 31
0.0
  0
ARC
  5
126F
  8
240
  6
CONTINUOUS
 10
2.0
 20
30.5
 30
0.0
 40
1.0
 50
90.0
 51
180.0
  0
LINE
  5
1270
  8
240
  6
CONTINUOUS
 10
0.0
 20
22.225000000000001
 30
0.0
 11
-64.030891030000006
 21
12.887161730000001
 31
0.0
  0
LINE
  5
1271
  8
241
 10
1.0
 20
0.0
 30
0.0
 11
1.0
 21
22.225000000000001
 31
0.0
  0
LINE
  5
1272
  8
241
  6
CONTINUOUS
 10
0.0
 20
22.225000000000001
 30
0.0
 11
0.0
 21
0.0
 31
0.0
  0
LINE
  5
1273
  8
240
  6
CONTINUOUS
 10
0.0
 20
-22.225000000000001
 30
0.0
 11
-64.030891030000006
 21
-12.887161730000001
 31
0.0
  0
LINE
  5
1274
  8
240
  6
CONTINUOUS
 10
-65.400000000000006
 20
-11.303908959999999
 30
0.0
 11
-65.400000000000006
 21
0.0
 31
0.0
  0
ARC
  5
1275
  8
240
  6
CONTINUOUS
 10
-63.79999999999999
 20
-11.303908959999999
 30
0.0
 40
1.6000000000000001
 50
180.0
 51
261.70285503000002
  0
LINE
  5
1276
  8
240
  6
CONTINUOUS
 10
-65.400000000000006
 20
11.303908959999999
 30
0.0
 11
-65.400000000000006
 21
0.0
 31
0.0
  0
ARC
  5
1277
  8
240
  6
CONTINUOUS
 10
-63.79999999999999
 20
11.303908959999999
 30
0.0
 40
1.6000000000000001
 50
98.297144969999977
 51
180.0
  0
LINE
  5
1278
  8
240
  6
CONTINUOUS
 10
1.0
 20
-22.225000000000001
 30
0.0
 11
1.0
 21
-30.5
 31
0.0
  0
LINE
  5
1279
  8
241
 10
1.0
 20
0.0
 30
0.0
 11
1.0
 21
-22.225000000000001
 31
0.0
  0
LINE
  5
127A
  8
241
  6
CONTINUOUS
 10
0.0
 20
-22.225000000000001
 30
0.0
 11
0.0
 21
0.0
 31
0.0
  0
LINE
  5
127B
  8
240
 10
0.0
 20
-22.225000000000001
 30
0.0
 11
1.0
 21
-22.225000000000001
 31
0.0
  0
LINE
  5
127C
  8
240
  6
CONTINUOUS
 10
1.0
 20
22.225000000000001
 30
0.0
 11
1.0
 21
30.5
 31
0.0
  0
LINE
  5
127D
  8
240
 10
0.0
 20
22.225000000000001
 30
0.0
 11
1.0
 21
22.225000000000001
 31
0.0
  0
LINE
  5
127E
  8
241
  6
CONTINUOUS
 10
40.0
 20
0.0
 30
0.0
 11
40.0
 21
19.399999999999999
 31
0.0
1001
GRPNAME
1000
PASTMD01
  0
LINE
  5
1281
  8
245
  6
CENTER2
 10
16.600000000000001
 20
-31.5
 30
0.0
 11
16.600000000000001
 21
31.5
 31
0.0
  0
LINE
  5
1282
  8
241
  6
CONTINUOUS
 10
21.600000000000001
 20
0.0
 30
0.0
 11
21.600000000000001
 21
31.5
 31
0.0
  0
LINE
  5
1283
  8
241
  6
CONTINUOUS
 10
18.713248650000001
 20
26.5
 30
0.0
 11
18.713248650000001
 21
0.0
 31
0.0
  0
LINE
  5
1284
  8
241
  6
CONTINUOUS
 10
14.48675135
 20
26.5
 30
0.0
 11
14.48675135
 21
0.0
 31
0.0
  0
LINE
  5
1285
  8
241
  6
CONTINUOUS
 10
11.6
 20
31.5
 30
0.0
 11
11.6
 21
0.0
 31
0.0
  0
LINE
  5
1286
  8
241
  6
CONTINUOUS
 10
27.0
 20
27.5
 30
0.0
 11
27.0
 21
0.0
 31
0.0
  0
ARC
  5
128A
  8
240
  6
CONTINUOUS
 10
32.0
 20
-27.5
 30
0.0
 40
5.0000000000000284
 50
112.34988283
 51
179.99999998999999
1001
GRPNAME
1000
PASTMD01
  0
LINE
  5
128B
  8
241
  6
CONTINUOUS
 10
14.48675135
 20
-26.5
 30
0.0
 11
14.48675135
 21
0.0
 31
0.0
  0
LINE
  5
128C
  8
241
  6
CONTINUOUS
 10
18.713248650000001
 20
-26.5
 30
0.0
 11
18.713248650000001
 21
0.0
 31
0.0
  0
LINE
  5
128D
  8
241
  6
CONTINUOUS
 10
21.600000000000001
 20
0.0
 30
0.0
 11
21.600000000000001
 21
-31.5
 31
0.0
  0
LINE
  5
128E
  8
241
  6
CONTINUOUS
 10
11.6
 20
-31.5
 30
0.0
 11
11.6
 21
0.0
 31
0.0
  0
LINE
  5
128F
  8
241
  6
HIDDEN2
 10
23.0
 20
-22.5
 30
0.0
 11
23.0
 21
-31.5
 31
0.0
  0
LINE
  5
1290
  8
241
  6
CONTINUOUS
 10
27.0
 20
-27.5
 30
0.0
 11
27.0
 21
0.0
 31
0.0
  0
LINE
  5
1291
  8
240
  6
CONTINUOUS
 10
18.713248650000001
 20
-26.5
 30
0.0
 11
14.48675135
 21
-26.5
 31
0.0
  0
LINE
  5
1292
  8
240
  6
CONTINUOUS
 10
2.0
 20
-31.5
 30
0.0
 11
11.6
 21
-31.5
 31
0.0
  0
LINE
  5
1293
  8
240
  6
CONTINUOUS
 10
14.48675135
 20
-26.5
 30
0.0
 11
11.6
 21
-31.5
 31
0.0
  0
LINE
  5
1294
  8
240
  6
CONTINUOUS
 10
21.600000000000001
 20
-31.5
 30
0.0
 11
26.0
 21
-31.5
 31
0.0
  0
LINE
  5
1295
  8
240
  6
CONTINUOUS
 10
18.713248650000001
 20
-26.5
 30
0.0
 11
21.600000000000001
 21
-31.5
 31
0.0
  0
LINE
  5
1296
  8
240
  6
CONTINUOUS
 10
27.0
 20
-30.5
 30
0.0
 11
27.0
 21
-27.5
 31
0.0
  0
ARC
  5
1297
  8
240
  6
CONTINUOUS
 10
26.0
 20
-30.5
 30
0.0
 40
1.0
 50
270.0
 51
0.0
  0
ARC
  5
1298
  8
240
  6
CONTINUOUS
 10
68.124900900000014
 20
-115.36348237
 30
0.0
 40
100.0
 50
108.27844609
 51
112.34991754000001
1001
GRPNAME
1000
PASTMD01
  0
LINE
  5
1299
  8
241
  6
CONTINUOUS
 10
40.0
 20
0.0
 30
0.0
 11
40.0
 21
-19.399999999999999
 31
0.0
1001
GRPNAME
1000
PASTMD01
  0
ARC
  5
129A
  8
240
  6
CONTINUOUS
 10
43.034078960000002
 20
-39.399999999999999
 30
0.0
 40
20.000000000000028
 50
90.0
 51
108.27844557
1001
GRPNAME
1000
PASTMD01
  0
ARC
  5
12A9
  8
240
  6
CONTINUOUS
 10
68.124900900000014
 20
115.36348237
 30
0.0
 40
100.0
 50
247.65008220999999
 51
251.72155377000001
1001
GRPNAME
1000
PASTMD01
  0
LINE
  5
12AA
  8
240
  6
CONTINUOUS
 10
18.713248650000001
 20
26.5
 30
0.0
 11
14.48675135
 21
26.5
 31
0.0
  0
LINE
  5
12AB
  8
240
  6
CONTINUOUS
 10
2.0
 20
31.5
 30
0.0
 11
11.6
 21
31.5
 31
0.0
  0
LINE
  5
12AC
  8
240
  6
CONTINUOUS
 10
11.6
 20
31.5
 30
0.0
 11
14.48675135
 21
26.5
 31
0.0
  0
ARC
  5
12AD
  8
240
  6
CONTINUOUS
 10
32.0
 20
27.5
 30
0.0
 40
5.0000000000000284
 50
180.00000001000001
 51
247.65011716999999
1001
GRPNAME
1000
PASTMD01
  0
LINE
  5
12AE
  8
241
  6
HIDDEN2
 10
23.0
 20
22.5
 30
0.0
 11
23.0
 21
31.5
 31
0.0
  0
LINE
  5
12AF
  8
240
  6
CONTINUOUS
 10
21.600000000000001
 20
31.5
 30
0.0
 11
26.0
 21
31.5
 31
0.0
  0
LINE
  5
12B0
  8
240
  6
CONTINUOUS
 10
21.600000000000001
 20
31.5
 30
0.0
 11
18.713248650000001
 21
26.5
 31
0.0
  0
LINE
  5
12B1
  8
240
  6
CONTINUOUS
 10
27.0
 20
30.5
 30
0.0
 11
27.0
 21
27.5
 31
0.0
  0
ARC
  5
12B2
  8
240
  6
CONTINUOUS
 10
26.0
 20
30.5
 30
0.0
 40
1.0
 50
0.0
 51
90.0
  0
ARC
  5
12B3
  8
240
  6
CONTINUOUS
 10
43.034078960000002
 20
39.399999999999999
 30
0.0
 40
20.000000000000028
 50
251.72155377999999
 51
269.99999996999998
1001
GRPNAME
1000
PASTMD01
  0
TEXT
  5
12B8
  8
250
 10
-47.925063773333328
 20
-27.409457620000001
 30
0.0
 40
2.7999999999999989
  1
BBT40
  7
YOKO
1001
ITEMNAME
1000
LNSP3
1001
ACAD
1000
MTEXTBEGIN
1070
    73
1070
     1
1070
    44
1040
1.0
1070
    74
1070
     0
1000
MTEXTEND
1000
MTEXTBEGIN
1070
    73
1070
     1
1070
    44
1040
1.0
1070
    74
1070
     0
1000
MTEXTEND
1000
MTEXTBEGIN
1070
    73
1070
     1
1070
    44
1040
1.0
1070
    74
1070
     0
1000
MTEXTEND
  0
LINE
  5
12BB
  8
250
 10
74.0
 20
20.5
 30
0.0
 11
74.0
 21
36.0
 31
0.0
  0
LINE
  5
12BC
  8
250
 10
85.0
 20
20.5
 30
0.0
 11
85.0
 21
36.0
 31
0.0
  0
LINE
  5
12BD
  8
250
 10
76.230000000000004
 20
35.0
 30
0.0
 11
82.769999999999996
 21
35.0
 31
0.0
  0
LINE
  5
12C1
  8
250
 10
42.0
 20
19.926750869999999
 30
0.0
 11
42.0
 21
43.0
 31
0.0
  0
LINE
  5
12C2
  8
250
 10
85.0
 20
20.5
 30
0.0
 11
85.0
 21
43.0
 31
0.0
  0
LINE
  5
12C3
  8
250
 10
44.229999999999997
 20
42.0
 30
0.0
 11
82.769999999999996
 21
42.0
 31
0.0
  0
LINE
  5
12C7
  8
250
 10
85.5
 20
-20.0
 30
0.0
 11
99.0
 21
-20.0
 31
0.0
  0
LINE
  5
12C8
  8
250
 10
85.5
 20
20.0
 30
0.0
 11
99.0
 21
20.0
 31
0.0
  0
LINE
  5
12C9
  8
250
 10
98.0
 20
-17.77
 30
0.0
 11
98.0
 21
17.77
 31
0.0
  0
LINE
  5
12CD
  8
250
 10
0.0
 20
22.725000000000001
 30
0.0
 11
0.0
 21
50.0
 31
0.0
  0
LINE
  5
12CE
  8
250
 10
85.0
 20
20.5
 30
0.0
 11
85.0
 21
50.0
 31
0.0
  0
LINE
  5
12CF
  8
250
 10
2.2299999999999991
 20
49.0
 30
0.0
 11
82.769999999999996
 21
49.0
 31
0.0
  0
LINE
  5
12D3
  8
250
 10
-27.759420810687661
 20
-20.270591950042281
 30
0.0
 11
-32.458397099999999
 21
-28.409457620000001
 31
0.0
1001
ACAD
1000
DSTYLE
1002
{
1070
     5
1000
OPEN
1070
   342
1005
594
1070
   343
1005
594
1002
}
  0
LINE
  5
12D4
  8
250
 10
-28.081293585694709
 20
-20.084758616594339
 30
0.0
 11
-26.64442081
 21
-18.339355300000001
 31
0.0
  0
LINE
  5
12D5
  8
250
 10
-27.437548035680621
 20
-20.456425283490219
 30
0.0
 11
-26.64442081
 21
-18.339355300000001
 31
0.0
  0
LINE
  5
12D6
  8
250
 10
-26.64442081
 20
-18.339355300000001
 30
0.0
 11
-27.759420810687661
 21
-20.270591950042281
 31
0.0
  0
TEXT
  5
12D7
  8
250
 10
76.416666666666671
 20
36.0
 30
0.0
 40
3.5
  1
11
1001
ACAD
1000
MTEXTBEGIN
1070
    73
1070
     1
1070
    44
1040
1.0
1070
    74
1070
     0
1000
MTEXTEND
1000
MTEXTBEGIN
1070
    73
1070
     1
1070
    44
1040
1.0
1070
    74
1070
     0
1000
MTEXTEND
1000
MTEXTBEGIN
1070
    73
1070
     1
1070
    44
1040
1.0
1070
    74
1070
     0
1000
MTEXTEND
  0
LINE
  5
12D8
  8
250
 10
82.769999999999996
 20
35.37166666666667
 30
0.0
 11
85.0
 21
35.0
 31
0.0
  0
LINE
  5
12D9
  8
250
 10
82.769999999999996
 20
34.62833333333333
 30
0.0
 11
85.0
 21
35.0
 31
0.0
  0
LINE
  5
12DA
  8
250
 10
85.0
 20
35.0
 30
0.0
 11
82.769999999999996
 21
35.0
 31
0.0
  0
LINE
  5
12DB
  8
250
 10
76.230000000000004
 20
34.62833333333333
 30
0.0
 11
74.0
 21
35.0
 31
0.0
  0
LINE
  5
12DC
  8
250
 10
76.230000000000004
 20
35.37166666666667
 30
0.0
 11
74.0
 21
35.0
 31
0.0
  0
LINE
  5
12DD
  8
250
 10
74.0
 20
35.0
 30
0.0
 11
76.230000000000004
 21
35.0
 31
0.0
  0
TEXT
  5
12DE
  8
250
 10
60.642857142857139
 20
43.0
 30
0.0
 40
3.0
  1
43
1001
ACAD
1000
MTEXTBEGIN
1070
    73
1070
     1
1070
    44
1040
1.0
1070
    74
1070
     0
1000
MTEXTEND
1000
MTEXTBEGIN
1070
    73
1070
     1
1070
    44
1040
1.0
1070
    74
1070
     0
1000
MTEXTEND
1000
MTEXTBEGIN
1070
    73
1070
     1
1070
    44
1040
1.0
1070
    74
1070
     0
1000
MTEXTEND
  0
LINE
  5
12DF
  8
250
 10
82.769999999999996
 20
42.371666666666663
 30
0.0
 11
85.0
 21
42.0
 31
0.0
  0
LINE
  5
12E0
  8
250
 10
82.769999999999996
 20
41.62833333333333
 30
0.0
 11
85.0
 21
42.0
 31
0.0
  0
LINE
  5
12E1
  8
250
 10
85.0
 20
42.0
 30
0.0
 11
82.769999999999996
 21
42.0
 31
0.0
  0
LINE
  5
12E2
  8
250
 10
44.229999999999997
 20
41.62833333333333
 30
0.0
 11
42.0
 21
42.0
 31
0.0
  0
LINE
  5
12E3
  8
250
 10
44.229999999999997
 20
42.371666666666663
 30
0.0
 11
42.0
 21
42.0
 31
0.0
  0
LINE
  5
12E4
  8
250
 10
42.0
 20
42.0
 30
0.0
 11
44.229999999999997
 21
42.0
 31
0.0
  0
TEXT
  5
12E5
  8
250
 10
97.0
 20
-4.0714285714285712
 30
0.0
 40
3.0
  1
\U+2205
 50
90.0
1001
ACAD
1000
MTEXTBEGIN
1070
    73
1070
     1
1070
    44
1040
1.0
1070
    74
1070
     0
1000
MTEXTEND
1000
MTEXTBEGIN
1070
    73
1070
     1
1070
    44
1040
1.0
1070
    74
1070
     0
1000
MTEXTEND
1000
MTEXTBEGIN
1070
    73
1070
     1
1070
    44
1040
1.0
1070
    74
1070
     0
1000
MTEXTEND
  0
TEXT
  5
12E6
  8
250
 10
97.0
 20
-1.357142857142857
 30
0.0
 40
3.0
  1
40
 50
90.0
1001
ACAD
1000
MTEXTBEGIN
1070
    73
1070
     1
1070
    44
1040
1.0
1070
    74
1070
     0
1000
MTEXTEND
1000
MTEXTBEGIN
1070
    73
1070
     1
1070
    44
1040
1.0
1070
    74
1070
     0
1000
MTEXTEND
1000
MTEXTBEGIN
1070
    73
1070
     1
1070
    44
1040
1.0
1070
    74
1070
     0
1000
MTEXTEND
  0
LINE
  5
12E7
  8
250
 10
97.62833333333333
 20
17.77
 30
0.0
 11
98.0
 21
20.0
 31
0.0
  0
LINE
  5
12E8
  8
250
 10
98.371666666666684
 20
17.77
 30
0.0
 11
98.0
 21
20.0
 31
0.0
  0
LINE
  5
12E9
  8
250
 10
98.0
 20
20.0
 30
0.0
 11
98.0
 21
17.77
 31
0.0
  0
LINE
  5
12EA
  8
250
 10
98.371666666666684
 20
-17.77
 30
0.0
 11
98.0
 21
-20.0
 31
0.0
  0
LINE
  5
12EB
  8
250
 10
97.62833333333333
 20
-17.77
 30
0.0
 11
98.0
 21
-20.0
 31
0.0
  0
LINE
  5
12EC
  8
250
 10
98.0
 20
-20.0
 30
0.0
 11
98.0
 21
-17.77
 31
0.0
  0
TEXT
  5
12ED
  8
250
 10
39.642857142857139
 20
50.0
 30
0.0
 40
3.0
  1
85
1001
ACAD
1000
MTEXTBEGIN
1070
    73
1070
     1
1070
    44
1040
1.0
1070
    74
1070
     0
1000
MTEXTEND
1000
MTEXTBEGIN
1070
    73
1070
     1
1070
    44
1040
1.0
1070
    74
1070
     0
1000
MTEXTEND
1000
MTEXTBEGIN
1070
    73
1070
     1
1070
    44
1040
1.0
1070
    74
1070
     0
1000
MTEXTEND
  0
LINE
  5
12EE
  8
250
 10
82.769999999999996
 20
49.37166666666667
 30
0.0
 11
85.0
 21
49.0
 31
0.0
  0
LINE
  5
12EF
  8
250
 10
82.769999999999996
 20
48.62833333333333
 30
0.0
 11
85.0
 21
49.0
 31
0.0
  0
LINE
  5
12F0
  8
250
 10
85.0
 20
49.0
 30
0.0
 11
82.769999999999996
 21
49.0
 31
0.0
  0
LINE
  5
12F1
  8
250
 10
2.2299999999999991
 20
48.62833333333333
 30
0.0
 11
0.0
 21
49.0
 31
0.0
  0
LINE
  5
12F2
  8
250
 10
2.2299999999999991
 20
49.37166666666667
 30
0.0
 11
0.0
 21
49.0
 31
0.0
  0
LINE
  5
12F3
  8
250
 10
0.0
 20
49.0
 30
0.0
 11
2.2299999999999991
 21
49.0
 31
0.0
  0
LINE
  5
1352
  8
240
  6
CONTINUOUS
 10
72.353589839999998
 20
-19.399999999999999
 30
0.0
 11
43.034078960000002
 21
-19.399999999999999
 31
0.0
1001
GRPNAME
1000
PASTMD0O
  0
LINE
  5
1353
  8
240
  6
CONTINUOUS
 10
72.484296789270047
 20
19.399999999999999
 30
0.0
 11
43.034078960000002
 21
19.399999999999999
 31
0.0
1001
GRPNAME
1000
PASTMD0O
  0
LINE
  5
1355
  8
240
 10
84.39999999999992
 20
-10.500000000000041
 30
0.0
 11
84.399999999999935
 21
-4.021617859440286
 31
0.0
  0
LINE
  5
1356
  8
240
 10
84.39999999999992
 20
1.46861867253381
 30
0.0
 11
84.39999999999992
 21
9.0180641695105663
 31
0.0
  0
LINE
  5
1357
  8
240
 10
84.099999999999937
 20
10.50000000000003
 30
0.0
 11
84.099999999999937
 21
9.7322070123648103
 31
0.0
  0
LINE
  5
1358
  8
241
 10
83.688533690841211
 20
9.9755339127659237
 30
0.0
 11
59.822932618317338
 21
17.167437375102921
 31
0.0
  0
ARC
  5
1359
  8
240
 10
83.39999999999992
 20
9.0180641695105663
 30
0.0
 40
1.0
 50
0.0
 51
45.572978399097167
  0
ARC
  5
135A
  8
241
 10
83.39999999999992
 20
9.0180641695105663
 30
0.0
 40
1.0
 50
45.572978399097167
 51
73.229809418405196
  0
ARC
  5
135B
  8
241
 10
60.39999999999992
 20
19.08237686161366
 30
0.0
 40
2.0
 50
180.0
 51
253.22980941840521
  0
LINE
  5
135C
  8
245
 10
74.880809970896735
 20
15.159999999999989
 30
0.0
 11
82.378118664001732
 21
15.159999999999989
 31
0.0
  0
LINE
  5
135D
  8
245
 10
78.602999999999952
 20
11.76570507707204
 30
0.0
 11
78.602999999999952
 21
18.9468543854892
 31
0.0
  0
LINE
  5
135E
  8
240
 10
84.721703210729885
 20
17.299999999999962
 30
0.0
 11
84.721703210729856
 21
10.50000000000003
 31
0.0
1001
GRPNAME
1000
PASTMD03
  0
LINE
  5
135F
  8
240
 10
85.0
 20
17.631661198420058
 30
0.0
 11
84.721703210729885
 21
17.299999999999962
 31
0.0
1001
GRPNAME
1000
PASTMD03
  0
LINE
  5
1360
  8
240
 10
85.0
 20
20.0
 30
0.0
 11
85.0
 21
17.631661198420058
 31
0.0
1001
GRPNAME
1000
PASTMD03
  0
LINE
  5
1361
  8
240
 10
72.484296789270047
 20
19.999999999999989
 30
0.0
 11
85.0
 21
20.0
 31
0.0
1001
GRPNAME
1000
PASTMD03
  0
LINE
  5
1362
  8
240
 10
72.484296789270047
 20
19.399999999999999
 30
0.0
 11
72.484296789270047
 21
19.999999999999989
 31
0.0
1001
GRPNAME
1000
PASTMD03
  0
LINE
  5
1363
  8
241
 10
84.099999999999937
 20
10.50000000000003
 30
0.0
 11
81.948146256618145
 21
10.50000000000003
 31
0.0
  0
CIRCLE
  5
1364
  8
241
 10
78.602999999999952
 20
15.159999999999989
 30
0.0
 40
2.8999999999999999
  0
LINE
  5
1365
  8
241
 10
72.484296789270047
 20
19.385022821907729
 30
0.0
 11
72.484296789270047
 21
13.35193285282965
 31
0.0
  0
LINE
  5
1366
  8
240
 10
84.099999999999937
 20
10.50000000000003
 30
0.0
 11
84.721703210729856
 21
10.50000000000003
 31
0.0
  0
LINE
  5
1367
  8
241
 10
72.484296789270047
 20
19.999999999999989
 30
0.0
 11
78.003221757405186
 21
17.99729907829785
 31
0.0
  0
LINE
  5
1368
  8
241
 10
80.882785716557606
 20
16.952366337158711
 30
0.0
 11
84.721703210729885
 21
15.55930452742095
 31
0.0
  0
LINE
  5
1369
  8
241
 10
72.484296789270047
 20
14.94069547257906
 30
0.0
 11
76.152167762623208
 21
13.60970282067116
 31
0.0
  0
LINE
  5
136A
  8
241
 10
79.489260445279854
 20
12.398742601072421
 30
0.0
 11
84.721703210729856
 21
10.50000000000003
 31
0.0
  0
LINE
  5
136B
  8
240
 10
84.721703210729885
 20
-17.299999999999979
 30
0.0
 11
84.721703210729856
 21
-10.500000000000041
 31
0.0
1001
GRPNAME
1000
PASTMD03
  0
LINE
  5
136C
  8
240
 10
85.0
 20
-17.63166119842009
 30
0.0
 11
84.721703210729885
 21
-17.299999999999979
 31
0.0
1001
GRPNAME
1000
PASTMD03
  0
LINE
  5
136D
  8
240
 10
85.0
 20
-20.0
 30
0.0
 11
85.0
 21
-17.63166119842009
 31
0.0
1001
GRPNAME
1000
PASTMD03
  0
LINE
  5
136E
  8
240
 10
72.484296789270047
 20
-19.999999999999989
 30
0.0
 11
85.0
 21
-20.0
 31
0.0
1001
GRPNAME
1000
PASTMD03
  0
LINE
  5
136F
  8
240
 10
84.39999999999992
 20
-10.500000000000041
 30
0.0
 11
84.721703210729856
 21
-10.500000000000041
 31
0.0
  0
LINE
  5
1370
  8
240
 10
72.484296789270047
 20
-19.435022821573071
 30
0.0
 11
72.484296789270047
 21
-19.999999999999989
 31
0.0
1001
GRPNAME
1000
PASTMD03
  0
LINE
  5
1371
  8
241
 10
84.39999999999992
 20
-10.500000000000041
 30
0.0
 11
84.399999999999906
 21
-18.910478527454188
 31
0.0
  0
LINE
  5
1372
  8
241
  6
CONTINUOUS
 10
84.399999999999963
 20
1.59280227946064
 30
0.0
 11
73.590494189148728
 21
3.4988098020386431
 31
0.0
  0
LINE
  5
1373
  8
241
 10
72.105124597070017
 20
0.4533508212379047
 30
0.0
 11
84.399999999999935
 21
-4.0216178594402789
 31
0.0
  0
LINE
  5
1374
  8
240
 10
84.399999999999935
 20
-4.021617859440286
 30
0.0
 11
84.999999999999943
 21
-4.2400000000000073
 31
0.0
  0
LINE
  5
1375
  8
241
 10
62.273191915955117
 20
-7.1002953737933563
 30
0.0
 11
84.39999999999992
 21
-11.001848635968649
 31
0.0
  0
ARC
  5
1376
  8
241
 10
63.087097930055677
 20
-2.4844049931469629
 30
0.0
 40
4.687097930055768
 50
79.999982399904255
 51
259.99999999999818
  0
LINE
  5
1377
  8
241
 10
72.209105346751471
 20
0.6665429517598512
 30
0.0
 11
63.901003944156457
 21
2.1314853874994202
 31
0.0
  0
LINE
  5
1378
  8
241
  6
CONTINUOUS
 10
73.590494189148728
 20
3.4988098020386431
 30
0.0
 11
72.105124597070017
 21
0.4533508212379047
 31
0.0
  0
LINE
  5
1379
  8
241
 10
84.386701316279812
 20
1.5951471962084141
 30
0.0
 11
84.39999999999992
 21
1.468618672533833
 31
0.0
  0
LINE
  5
137A
  8
240
 10
84.39999999999992
 20
1.46861867253381
 30
0.0
 11
84.999999999999943
 21
-4.2400000000000331
 31
0.0
  0
LINE
  5
137C
  8
241
 10
84.010615728532784
 20
-19.31033763552567
 30
0.0
 11
73.099999999999994
 21
-19.600000000000001
 31
0.0
1001
GRPNAME
1000
PASTMD0O
  0
LINE
  5
137D
  8
240
  6
CONTINUOUS
 10
72.353589839999998
 20
-19.399999999999999
 30
0.0
 11
72.484296789270047
 21
-19.435022821573071
 31
0.0
1001
GRPNAME
1000
PASTMD0O
  0
ARC
  5
137E
  8
241
 10
83.999999999999915
 20
-18.910478527454188
 30
0.0
 40
0.4
 50
271.52076966114311
 51
0.0
1001
GENIUS_GENOBJ-N-FIL_13
1002
{
1000
OWNER
1000
GEN
1002
}
1001
GENIUS_GENODEF_13
1002
{
1000
HIER
1070
     0
1002
}
1002
{
1000
MANEDIT
1070
     0
1002
}
1002
{
1000
NOSEL
1070
     0
1002
}
1002
{
1000
BEHIND
1070
     0
1002
}
1002
{
1000
OTHER
1070
     0
1002
}
1002
{
1000
REACTOR
1002
}
  0
LINE
  5
137F
  8
241
 10
72.484296789270047
 20
-19.435022821573071
 30
0.0
 11
73.099999999999994
 21
-19.600000000000001
 31
0.0
1001
GRPNAME
1000
PASTMD0O
  0
VIEWPORT
  5
22
 67
     1
  8
0
 10
261.51769911999997
 20
148.5
 30
0.0
 40
523.03539823000006
 41
297.0
 68
     1
 69
     1
1001
ACAD
1000
MVIEW
1002
{
1070
    16
1010
0.0
1020
0.0
1030
0.0
1010
0.0
1020
0.0
1030
1.0
1040
0.0
1040
297.0
1040
261.51769911999997
1040
148.5
1040
50.0
1040
0.0
1040
0.0
1070
     0
1070
   100
1070
     1
1070
     1
1070
     0
1070
     0
1070
     0
1070
     0
1040
0.0
1040
0.0
1040
0.0
1040
1.0
1040
1.0
1040
10.0
1040
10.0
1070
     0
1002
{
1002
}
1002
}
1001
GENIUS_GENOBJ-N-SDF_13
1002
{
1000
OWNER
1000
GEN
1002
}
1001
GENIUS_GENODEF_13
1002
{
1000
HIER
1070
     0
1002
}
1002
{
1000
MANEDIT
1070
     0
1002
}
1002
{
1000
NOSEL
1070
     0
1002
}
1002
{
1000
BEHIND
1070
     0
1002
}
1002
{
1000
OTHER
1070
     0
1002
}
1002
{
1000
REACTOR
1002
}
1001
GENIUS_GENSCREG_15
1000
PF
1040
1.0
1000
DF
1040
1.0
1000
MIN
1011
0.0000000049999471
1021
9.5701492081623040E+015
1031
1.7901155362339674E+159
1021
0.0
1031
0.0
1000
MAX
1011
523.035398235
1021
9.5701492081623040E+015
1031
1.7901155362339674E+159
1021
297.0
1031
0.0
1000
FLAGS
1070
     2
  0
ENDSEC
  0
EOF
