  0
SECTION
  2
HEADER
  9
$ACADVER
  1
AC1009
  9
$INSBASE
 10
0.0
 20
0.0
 30
0.0
  9
$EXTMIN
 10
-66.422178820188037
 20
-31.72185850782785
 30
-0.000000039842541
  9
$EXTMAX
 10
148.01121365943689
 20
68.008970300440964
 30
0.0000000765687993
  9
$LIMMIN
 10
0.0
 20
0.0
  9
$LIMMAX
 10
297.0
 20
210.0
  9
$ORTHOMODE
 70
     0
  9
$REGENMODE
 70
     1
  9
$FILLMODE
 70
     1
  9
$QTEXTMODE
 70
     0
  9
$MIRRTEXT
 70
     1
  9
$DRAGMODE
 70
     2
  9
$LTSCALE
 40
10.0
  9
$OSMODE
 70
    39
  9
$ATTMODE
 70
     1
  9
$TEXTSIZE
 40
3.0
  9
$TRACEWID
 40
1.0
  9
$TEXTSTYLE
  7
YOKO
  9
$CLAYER
  8
240
  9
$CELTYPE
  6
BYLAYER
  9
$CECOLOR
 62
   256
  9
$DIMSCALE
 40
1.0
  9
$DIMASZ
 40
2.2299999999999991
  9
$DIMEXO
 40
0.5
  9
$DIMDLI
 40
2.5
  9
$DIMRND
 40
0.0
  9
$DIMDLE
 40
0.0
  9
$DIMEXE
 40
1.0
  9
$DIMTP
 40
0.0
  9
$DIMTM
 40
0.0
  9
$DIMTXT
 40
3.5
  9
$DIMCEN
 40
0.0
  9
$DIMTSZ
 40
0.0
  9
$DIMTOL
 70
     0
  9
$DIMLIM
 70
     0
  9
$DIMTIH
 70
     0
  9
$DIMTOH
 70
     0
  9
$DIMSE1
 70
     0
  9
$DIMSE2
 70
     0
  9
$DIMTAD
 70
     3
  9
$DIMZIN
 70
     9
  9
$DIMBLK
  1
OPEN
  9
$DIMASO
 70
     1
  9
$DIMSHO
 70
     1
  9
$DIMPOST
  1

  9
$DIMAPOST
  1

  9
$DIMALT
 70
     0
  9
$DIMALTD
 70
     2
  9
$DIMALTF
 40
25.399999999999999
  9
$DIMLFAC
 40
1.0
  9
$DIMTOFL
 70
     1
  9
$DIMTVP
 40
0.0
  9
$DIMTIX
 70
     0
  9
$DIMSOXD
 70
     0
  9
$DIMSAH
 70
     0
  9
$DIMBLK1
  1

  9
$DIMBLK2
  1

  9
$DIMSTYLE
  2
BIGT
  9
$DIMCLRD
 70
   256
  9
$DIMCLRE
 70
   256
  9
$DIMCLRT
 70
    40
  9
$DIMTFAC
 40
1.0
  9
$DIMGAP
 40
1.0
  9
$LUNITS
 70
     2
  9
$LUPREC
 70
     3
  9
$SKETCHINC
 40
1.0
  9
$FILLETRAD
 40
1.6000000000000001
  9
$AUNITS
 70
     0
  9
$AUPREC
 70
     3
  9
$MENU
  1
.
  9
$ELEVATION
 40
0.0
  9
$PELEVATION
 40
0.0
  9
$THICKNESS
 40
0.0
  9
$LIMCHECK
 70
     0
  9
$BLIPMODE
 70
     0
  9
$CHAMFERA
 40
10.0
  9
$CHAMFERB
 40
10.0
  9
$SKPOLY
 70
     0
  9
$TDCREATE
 40
2452356.6921308911
  9
$TDUPDATE
 40
2456086.685252639
  9
$TDINDWG
 40
0.1415645949
  9
$TDUSRTIMER
 40
0.1415645949
  9
$USRTIMER
 70
     1
  9
$ANGBASE
 50
0.0
  9
$ANGDIR
 70
     0
  9
$PDMODE
 70
     1
  9
$PDSIZE
 40
-5.0
  9
$PLINEWID
 40
0.0
  9
$COORDS
 70
     0
  9
$SPLFRAME
 70
     0
  9
$SPLINETYPE
 70
     6
  9
$SPLINESEGS
 70
     8
  9
$ATTDIA
 70
     1
  9
$ATTREQ
 70
     1
  9
$HANDLING
 70
     1
  9
$HANDSEED
  5
1A9A
  9
$SURFTAB1
 70
     6
  9
$SURFTAB2
 70
     6
  9
$SURFTYPE
 70
     6
  9
$SURFU
 70
     6
  9
$SURFV
 70
     6
  9
$UCSNAME
  2

  9
$UCSORG
 10
0.0
 20
0.0
 30
0.0
  9
$UCSXDIR
 10
1.0
 20
0.0
 30
0.0
  9
$UCSYDIR
 10
0.0
 20
1.0
 30
0.0
  9
$PUCSNAME
  2

  9
$PUCSORG
 10
0.0
 20
0.0
 30
0.0
  9
$PUCSXDIR
 10
1.0
 20
0.0
 30
0.0
  9
$PUCSYDIR
 10
0.0
 20
1.0
 30
0.0
  9
$USERI1
 70
     1
  9
$USERI2
 70
     0
  9
$USERI3
 70
     0
  9
$USERI4
 70
     0
  9
$USERI5
 70
     0
  9
$USERR1
 40
0.0
  9
$USERR2
 40
0.0
  9
$USERR3
 40
0.0
  9
$USERR4
 40
0.0
  9
$USERR5
 40
0.0
  9
$WORLDVIEW
 70
     1
  9
$SHADEDGE
 70
     3
  9
$SHADEDIF
 70
    70
  9
$TILEMODE
 70
     1
  9
$MAXACTVP
 70
    16
  9
$PLIMCHECK
 70
     0
  9
$PEXTMIN
 10
1.0000000000000000E+020
 20
1.0000000000000000E+020
 30
1.0000000000000000E+020
  9
$PEXTMAX
 10
-1.0000000000000000E+020
 20
-1.0000000000000000E+020
 30
-1.0000000000000000E+020
  9
$PLIMMIN
 10
0.0
 20
0.0
  9
$PLIMMAX
 10
420.0
 20
297.0
  9
$UNITMODE
 70
     0
  9
$VISRETAIN
 70
     0
  9
$PLINEGEN
 70
     0
  9
$PSLTSCALE
 70
     1
  0
ENDSEC
  0
SECTION
  2
TABLES
  0
TABLE
  2
VPORT
 70
    31
  0
VPORT
  2
*ACTIVE
 70
     0
 10
0.0
 20
0.0
 11
1.0
 21
1.0
 12
40.794517419624462
 22
18.143555896306559
 13
0.0
 23
0.0
 14
7.0
 24
7.0
 15
7.0
 25
7.0
 16
0.0
 26
0.0
 36
1.0
 17
0.0
 27
0.0
 37
0.0
 40
139.179696706307
 41
1.5472527472527471
 42
50.0
 43
0.0
 44
0.0
 50
0.0
 51
0.0
 71
     0
 72
  2000
 73
     1
 74
     0
 75
     0
 76
     0
 77
     0
 78
     0
  0
ENDTAB
  0
TABLE
  2
LTYPE
 70
    16
  0
LTYPE
  2
CONTINUOUS
 70
     0
  3
Solid line
 72
    65
 73
     0
 40
0.0
  0
LTYPE
  2
CENTER2
 70
     0
  3
___ _ ___ _ ___ _ ___ _ ___ _ ___ _ ___ _ ___ _
 72
    65
 73
     4
 40
1.125
 49
0.75
 49
-0.125
 49
0.125
 49
-0.125
  0
LTYPE
  2
HIDDEN2
 70
     0
  3
_ _ _ _ _ _ _ _ _ _ _ _ _ _ _ _ _ _ _ _ _ _ _ _
 72
    65
 73
     2
 40
0.1875
 49
0.125
 49
-0.0625
  0
LTYPE
  2
PHANTOM2
 70
     0
  3
___ _ _ ___ _ _ ___ _ _ ___ _ _ ___ _ _ ___ _ _
 72
    65
 73
     6
 40
1.25
 49
0.625
 49
-0.125
 49
0.125
 49
-0.125
 49
0.125
 49
-0.125
  0
LTYPE
  2
AMCONSTR
 70
     0
  3
_______________________
 72
    65
 73
     2
 40
9999.0
 49
9999.0
 49
0.0
  0
LTYPE
  2
AM_ISO02W050
 70
     0
  3
__ __ __ __ __ __ __ __ __ __ __ __ __ __ __
 72
    65
 73
     2
 40
7.5
 49
6.0
 49
-1.5
  0
LTYPE
  2
HIDDEN
 70
     0
  3
Hidden __ __ __ __ __ __ __ __ __ __ __ __ __ _
 72
    65
 73
     2
 40
9.5249999999999986
 49
6.3499999999999988
 49
-3.1749999999999989
  0
LTYPE
  2
CENTER
 70
     0
  3
____ _ ____ _ ____ _ ____ _ ____ _ ____ _ ____ 
 72
    65
 73
     4
 40
2.0
 49
1.25
 49
-0.25
 49
0.25
 49
-0.25
  0
LTYPE
  2
ACJISTGB
 70
     0
  3
__ . . __ . .
 72
    65
 73
     6
 40
9.0
 49
4.0
 49
-1.0
 49
1.0
 49
-1.0
 49
1.0
 49
-1.0
  0
LTYPE
  2
ACJISTGL
 70
     0
  3
_ _ _ _ _
 72
    65
 73
     2
 40
3.0
 49
2.0
 49
-1.0
  0
LTYPE
  2
ACISOWELD
 70
     0
  3
_ _ _ _ _
 72
    65
 73
     2
 40
2.0
 49
2.0
 49
-1.0
  0
LTYPE
  2
ACISOTGB
 70
     0
  3
__ . . __ . .
 72
    65
 73
     6
 40
9.0
 49
4.0
 49
-1.0
 49
1.0
 49
-1.0
 49
1.0
 49
-1.0
  0
LTYPE
  2
ACISOTGL
 70
     0
  3
_ _ _ _ _
 72
    65
 73
     2
 40
3.0
 49
2.0
 49
-1.0
  0
LTYPE
  2
ACANSTGB
 70
     0
  3
__ . . __ . .
 72
    65
 73
     6
 40
0.35433070866
 49
0.15748031496
 49
-0.03937007874
 49
0.03937007874
 49
-0.03937007874
 49
0.03937007874
 49
-0.03937007874
  0
LTYPE
  2
ACANSTGL
 70
     0
  3
_ _ _ _ _
 72
    65
 73
     2
 40
0.11811023622
 49
0.07874015748
 49
-0.03937007874
  0
ENDTAB
  0
TABLE
  2
LAYER
 70
     9
  0
LAYER
  2
0
 70
     0
 62
     7
  6
CONTINUOUS
  0
LAYER
  2
240
 70
     0
 62
     4
  6
CONTINUOUS
  0
LAYER
  2
241
 70
     0
 62
   211
  6
CONTINUOUS
  0
LAYER
  2
245
 70
     0
 62
     2
  6
CENTER2
  0
LAYER
  2
250
 70
     0
 62
     3
  6
CONTINUOUS
  0
LAYER
  2
DEFPOINTS
 70
     0
 62
     7
  6
CONTINUOUS
  0
ENDTAB
  0
TABLE
  2
STYLE
 70
     8
  0
STYLE
  2
STANDARD
 70
     0
 40
0.0
 41
1.0
 50
0.0
 71
     0
 42
3.0
  3
romans.shx
  4
BIGFONT.SHX
  0
STYLE
  2
YOKO
 70
     0
 40
0.0
 41
1.0
 50
0.0
 71
     0
 42
3.0
  3
romans.shx
  4
extfont.shx
  0
STYLE
  2
ACJISGDT
 70
     0
 40
0.0
 41
1.0
 50
0.0
 71
     0
 42
3.0
  3
amgdt.shx
  4
extfont.shx
  0
STYLE
  2
ACJISTS
 70
     0
 40
1.0
 41
1.0
 50
0.0
 71
     0
 42
3.0
  3
amgdt.shx
  4
extfont.shx
  0
STYLE
  2
ACISOTS
 70
     0
 40
1.0
 41
1.0
 50
0.0
 71
     0
 42
3.0
  3
amgdt.shx
  4
extfont.shx
  0
STYLE
  2
ACISOGDT
 70
     0
 40
0.0
 41
1.0
 50
0.0
 71
     0
 42
3.0
  3
amgdt.shx
  4
extfont.shx
  0
STYLE
  2
ACANSTS
 70
     0
 40
1.0
 41
1.0
 50
0.0
 71
     0
 42
3.0
  3
romans.shx
  4
extfont.shx
  0
STYLE
  2
ACANSGDT
 70
     0
 40
0.0
 41
1.0
 50
0.0
 71
     0
 42
3.0
  3
amgdtans.shx
  4

  0
ENDTAB
  0
TABLE
  2
VIEW
 70
     1
  0
VIEW
  2
OLE1
 70
     0
 40
148.06053087999999
 10
40.80233535
 20
18.14941026
 41
215.56999574
 11
0.0
 21
0.0
 31
1.0
 12
0.0
 22
0.0
 32
0.0
 42
50.0
 43
0.0
 44
0.0
 50
0.0
 71
     0
  0
ENDTAB
  0
TABLE
  2
UCS
 70
     0
  0
ENDTAB
  0
TABLE
  2
APPID
 70
    33
  0
APPID
  2
ACAD
 70
     0
  0
APPID
  2
GLOBAL
 70
     0
  0
APPID
  2
DETAIL
 70
     0
  0
APPID
  2
GRPNAME
 70
     0
  0
APPID
  2
GPARA
 70
     0
  0
APPID
  2
ITEMNAME
 70
     0
  0
APPID
  2
HATCH_TYPE
 70
     0
  0
APPID
  2
HATCH_DISPLAY
 70
     0
  0
APPID
  2
HATCH_DISTANCE
 70
     0
  0
APPID
  2
CONTENTBLOCKICON
 70
     0
  0
APPID
  2
MCAD_NO_VIS
 70
     0
  0
APPID
  2
ACAD_TEMP_GRAPHIC
 70
     0
  0
APPID
  2
ACATTRIBSERVICES
 70
     0
  0
APPID
  2
GENIUS_GENSCREG_15
 70
     0
  0
APPID
  2
GENIUS_GENODEF_13
 70
     0
  0
APPID
  2
GENIUS_GENOBJ-N-SDF_13
 70
     0
  0
APPID
  2
GENIUS_GENREC_14
 70
     0
  0
APPID
  2
GENIUS_GENOBJ-N-REC_13
 70
     0
  0
APPID
  2
GENIUS_GENDIMSH_14
 70
     0
  0
APPID
  2
GENIUS_GENOBJ-N-DIM_13
 70
     0
  0
APPID
  2
GENIUS_GENDIM_13
 70
     0
  0
APPID
  2
GENIUS_GENDTOL_13
 70
     0
  0
APPID
  2
GENIUS_GENOLIS_13
 70
     0
  0
APPID
  2
GENIUS_GENOENT_13
 70
     0
  0
APPID
  2
GENIUS_GENOBJ-F-FEM_13
 70
     0
  0
APPID
  2
GENIUS_GENOREF_13
 70
     0
  0
APPID
  2
GENIUS_GEFFEM_13
 70
     0
  0
APPID
  2
GENIUS_GEFFEMP_13
 70
     0
  0
APPID
  2
AD_DRAW
 70
     0
  0
APPID
  2
DESIGNERASSEMBLIES
 70
     0
  0
APPID
  2
ACADM_DIM_EDIT
 70
     0
  0
APPID
  2
AMDT_DM_ADJ
 70
     0
  0
APPID
  2
GENIUS_GENOBJ-N-FIL_13
 70
     0
  0
ENDTAB
  0
TABLE
  2
DIMSTYLE
 70
    29
  0
DIMSTYLE
  2
BIGT
 70
     0
  3

  4

  5
OPEN
  6

  7

 40
1.0
 41
2.2299999999999991
 42
0.5
 43
7.0
 44
1.0
 45
0.0
 46
0.0
 47
0.0
 48
0.01
140
2.7999999999999989
141
0.0
142
0.0
143
25.399999999999999
144
1.0
145
0.0
146
1.0
147
1.0
 71
     0
 72
     0
 73
     0
 74
     0
 75
     0
 76
     0
 77
     3
 78
     9
170
     0
171
     2
172
     1
173
     0
174
     1
175
     0
176
   256
177
   256
178
    40
  0
DIMSTYLE
  2
BIGT$0
 70
     0
  3

  4

  5
OPEN
  6

  7

 40
1.0
 41
2.2299999999999991
 42
0.5
 43
7.0
 44
1.0
 45
0.0
 46
0.0
 47
0.0
 48
0.01
140
2.7999999999999989
141
0.0
142
0.0
143
25.399999999999999
144
1.0
145
0.0
146
1.0
147
1.0
 71
     0
 72
     0
 73
     0
 74
     0
 75
     0
 76
     0
 77
     3
 78
     9
170
     0
171
     2
172
     1
173
     0
174
     0
175
     0
176
   256
177
   256
178
    40
  0
DIMSTYLE
  2
BIGT$2
 70
     0
  3

  4

  5
OPEN
  6

  7

 40
1.0
 41
2.2299999999999991
 42
0.5
 43
7.0
 44
1.0
 45
0.0
 46
0.0
 47
0.0
 48
0.01
140
2.7999999999999989
141
0.0
142
0.0
143
25.399999999999999
144
1.0
145
0.0
146
1.0
147
1.0
 71
     0
 72
     0
 73
     0
 74
     0
 75
     0
 76
     0
 77
     3
 78
     9
170
     0
171
     2
172
     1
173
     0
174
     0
175
     0
176
   256
177
   256
178
    40
  0
DIMSTYLE
  2
BIGT$3
 70
     0
  3

  4

  5
OPEN
  6

  7

 40
1.0
 41
2.2299999999999991
 42
0.5
 43
2.5
 44
1.0
 45
0.0
 46
0.0
 47
0.0
 48
0.01
140
2.7999999999999989
141
0.0
142
0.0
143
25.399999999999999
144
1.0
145
0.0
146
1.0
147
1.0
 71
     0
 72
     0
 73
     0
 74
     0
 75
     0
 76
     0
 77
     3
 78
     9
170
     0
171
     2
172
     1
173
     0
174
     0
175
     0
176
   256
177
   256
178
    40
  0
DIMSTYLE
  2
BIGT$4
 70
     0
  3

  4

  5
OPEN
  6

  7

 40
1.0
 41
2.2299999999999991
 42
0.5
 43
2.5
 44
1.0
 45
0.0
 46
0.0
 47
0.0
 48
0.01
140
2.7999999999999989
141
0.0
142
0.0
143
25.399999999999999
144
1.0
145
0.0
146
1.0
147
1.0
 71
     0
 72
     0
 73
     0
 74
     0
 75
     0
 76
     0
 77
     3
 78
     9
170
     0
171
     2
172
     1
173
     0
174
     0
175
     0
176
   256
177
   256
178
    40
  0
DIMSTYLE
  2
BIGT$6
 70
     0
  3

  4

  5
OPEN
  6

  7

 40
1.0
 41
2.2299999999999991
 42
0.5
 43
2.5
 44
1.0
 45
0.0
 46
0.0
 47
0.0
 48
0.01
140
2.7999999999999989
141
0.0
142
0.0
143
25.399999999999999
144
1.0
145
0.0
146
1.0
147
1.0
 71
     0
 72
     0
 73
     0
 74
     0
 75
     0
 76
     0
 77
     3
 78
     9
170
     0
171
     2
172
     1
173
     0
174
     0
175
     0
176
   256
177
   256
178
    40
  0
DIMSTYLE
  2
BIGT$7
 70
     0
  3

  4

  5
OPEN
  6

  7

 40
0.0
 41
2.2299999999999991
 42
0.5
 43
7.0
 44
1.0
 45
0.0
 46
0.0
 47
0.0
 48
0.01
140
2.7999999999999989
141
0.0
142
0.0
143
25.399999999999999
144
1.0
145
0.0
146
1.0
147
1.0
 71
     0
 72
     0
 73
     0
 74
     0
 75
     0
 76
     0
 77
     3
 78
     9
170
     0
171
     2
172
     0
173
     0
174
     0
175
     0
176
   256
177
   256
178
    40
  0
DIMSTYLE
  2
BIGT$SF
 70
     0
  3

  4

  5
OPEN
  6

  7

 40
1.0
 41
2.2299999999999991
 42
0.5
 43
7.0
 44
1.0
 45
0.0
 46
0.0
 47
0.0
 48
0.0
140
2.7999999999999989
141
0.0
142
0.0
143
25.399999999999999
144
1.0
145
0.0
146
1.0
147
1.0
 71
     0
 72
     0
 73
     0
 74
     0
 75
     0
 76
     0
 77
     3
 78
     9
170
     0
171
     2
172
     1
173
     0
174
     0
175
     0
176
   256
177
   256
178
    40
  0
DIMSTYLE
  2
BIGT$SH
 70
     0
  3

  4

  5
OPEN
  6

  7

 40
1.0
 41
2.2299999999999991
 42
0.5
 43
7.0
 44
1.0
 45
0.0
 46
0.0
 47
0.0
 48
0.0
140
2.7999999999999989
141
0.0
142
0.0
143
25.399999999999999
144
1.0
145
0.0
146
1.0
147
1.0
 71
     0
 72
     0
 73
     0
 74
     0
 75
     0
 76
     0
 77
     3
 78
     9
170
     0
171
     2
172
     1
173
     0
174
     0
175
     0
176
   256
177
   256
178
    40
  0
DIMSTYLE
  2
AM_ISO
 70
     0
  3

  4
"
  5

  6

  7

 40
1.0
 41
2.5
 42
1.0
 43
10.0
 44
1.0
 45
0.0
 46
0.0
 47
0.1
 48
0.1
140
3.5
141
0.0
142
0.0
143
0.0393701
144
1.0
145
0.0
146
0.71
147
1.5
 71
     0
 72
     0
 73
     0
 74
     0
 75
     0
 76
     0
 77
     1
 78
     8
170
     0
171
     2
172
     1
173
     0
174
     0
175
     0
176
   256
177
   256
178
     2
  0
DIMSTYLE
  2
AM_ISO$3
 70
     0
  3

  4
"
  5

  6

  7

 40
1.0
 41
2.5
 42
1.0
 43
10.0
 44
1.0
 45
0.0
 46
0.0
 47
0.1
 48
0.1
140
3.5
141
0.0
142
0.0
143
0.0393701
144
1.0
145
0.0
146
0.71
147
1.5
 71
     0
 72
     0
 73
     0
 74
     1
 75
     0
 76
     0
 77
     1
 78
     8
170
     0
171
     2
172
     0
173
     0
174
     0
175
     0
176
   256
177
   256
178
     2
  0
DIMSTYLE
  2
AM_ISO$4
 70
     0
  3

  4
"
  5

  6

  7

 40
1.0
 41
2.5
 42
1.0
 43
10.0
 44
1.0
 45
0.0
 46
0.0
 47
0.1
 48
0.1
140
3.5
141
0.0
142
0.0
143
0.0393701
144
1.0
145
0.0
146
0.71
147
1.5
 71
     0
 72
     0
 73
     0
 74
     1
 75
     0
 76
     0
 77
     1
 78
     8
170
     0
171
     2
172
     0
173
     0
174
     0
175
     0
176
   256
177
   256
178
     2
  0
DIMSTYLE
  2
AM_ISO$6
 70
     0
  3

  4
"
  5

  6

  7

 40
1.0
 41
2.5
 42
1.0
 43
10.0
 44
1.0
 45
0.0
 46
0.0
 47
0.1
 48
0.1
140
3.5
141
0.0
142
0.0
143
0.0393701
144
1.0
145
0.0
146
0.71
147
1.5
 71
     0
 72
     0
 73
     0
 74
     0
 75
     0
 76
     0
 77
     0
 78
     8
170
     0
171
     2
172
     1
173
     0
174
     0
175
     0
176
   256
177
   256
178
     2
  0
DIMSTYLE
  2
AM_ISO$7
 70
     0
  3

  4
"
  5

  6

  7

 40
1.0
 41
2.5
 42
1.0
 43
10.0
 44
1.0
 45
0.0
 46
0.0
 47
0.1
 48
0.1
140
5.0
141
0.0
142
0.0
143
0.0393701
144
1.0
145
0.0
146
0.71
147
1.5
 71
     0
 72
     0
 73
     0
 74
     0
 75
     0
 76
     0
 77
     1
 78
     8
170
     0
171
     2
172
     1
173
     0
174
     0
175
     0
176
   256
177
   256
178
     2
  0
DIMSTYLE
  2
AM_ISO$SF
 70
     0
  3

  4
"
  5

  6

  7

 40
1.0
 41
2.5
 42
1.0
 43
10.0
 44
1.0
 45
0.0
 46
0.0
 47
0.1
 48
0.1
140
3.5
141
0.0
142
0.0
143
0.0393701
144
1.0
145
0.0
146
0.71
147
1.5
 71
     0
 72
     0
 73
     0
 74
     0
 75
     1
 76
     1
 77
     1
 78
     8
170
     0
171
     2
172
     1
173
     0
174
     0
175
     0
176
   256
177
   256
178
     2
  0
DIMSTYLE
  2
AM_ISO$SH
 70
     0
  3

  4
"
  5

  6
GENAXEH
  7

 40
1.0
 41
2.5
 42
1.0
 43
10.0
 44
1.0
 45
0.0
 46
0.0
 47
0.1
 48
0.1
140
3.5
141
0.0
142
0.0
143
0.0393701
144
2.0
145
0.0
146
0.71
147
1.5
 71
     0
 72
     0
 73
     0
 74
     0
 75
     1
 76
     1
 77
     1
 78
     8
170
     0
171
     2
172
     1
173
     1
174
     0
175
     0
176
   256
177
   256
178
     2
  0
DIMSTYLE
  2
TECHNICAL_OSAKA
 70
     0
  3

  4
"
  5
OPEN30
  6

  7

 40
1.0
 41
2.5
 42
1.0
 43
10.0
 44
1.0
 45
0.0
 46
0.0
 47
0.1
 48
0.1
140
2.7999999999999989
141
0.0
142
0.0
143
0.0393701
144
1.0
145
0.0
146
0.71
147
1.5
 71
     0
 72
     0
 73
     0
 74
     0
 75
     0
 76
     0
 77
     3
 78
     8
170
     0
171
     2
172
     1
173
     0
174
     0
175
     0
176
   256
177
   256
178
    40
  0
DIMSTYLE
  2
TECHNICAL_OSAKA$3
 70
     0
  3

  4
"
  5
OPEN30
  6

  7

 40
1.0
 41
2.5
 42
1.0
 43
10.0
 44
1.0
 45
0.0
 46
0.0
 47
0.1
 48
0.1
140
2.7999999999999989
141
0.0
142
0.0
143
0.0393701
144
1.0
145
0.0
146
0.71
147
1.5
 71
     0
 72
     0
 73
     0
 74
     1
 75
     0
 76
     0
 77
     3
 78
     8
170
     0
171
     2
172
     0
173
     0
174
     0
175
     0
176
   256
177
   256
178
    40
  0
DIMSTYLE
  2
TECHNICAL_OSAKA$4
 70
     0
  3

  4
"
  5
OPEN30
  6

  7

 40
1.0
 41
2.5
 42
1.0
 43
10.0
 44
1.0
 45
0.0
 46
0.0
 47
0.1
 48
0.1
140
2.7999999999999989
141
0.0
142
0.0
143
0.0393701
144
1.0
145
0.0
146
0.71
147
1.5
 71
     0
 72
     0
 73
     0
 74
     1
 75
     0
 76
     0
 77
     3
 78
     8
170
     0
171
     2
172
     0
173
     0
174
     0
175
     0
176
   256
177
   256
178
    40
  0
DIMSTYLE
  2
TECHNICAL_OSAKA$6
 70
     0
  3

  4
"
  5
OPEN30
  6

  7

 40
1.0
 41
2.5
 42
1.0
 43
10.0
 44
1.0
 45
0.0
 46
0.0
 47
0.1
 48
0.1
140
2.7999999999999989
141
0.0
142
0.0
143
0.0393701
144
1.0
145
0.0
146
0.71
147
1.5
 71
     0
 72
     0
 73
     0
 74
     0
 75
     0
 76
     0
 77
     0
 78
     8
170
     0
171
     2
172
     1
173
     0
174
     0
175
     0
176
   256
177
   256
178
    40
  0
DIMSTYLE
  2
TECHNICAL_OSAKA$7
 70
     0
  3

  4
"
  5
OPEN30
  6

  7

 40
1.0
 41
2.5
 42
1.0
 43
10.0
 44
1.0
 45
0.0
 46
0.0
 47
0.1
 48
0.1
140
2.7999999999999989
141
0.0
142
0.0
143
0.0393701
144
1.0
145
0.0
146
0.71
147
1.5
 71
     0
 72
     0
 73
     0
 74
     0
 75
     0
 76
     0
 77
     3
 78
     8
170
     0
171
     2
172
     1
173
     0
174
     0
175
     0
176
   256
177
   256
178
    40
  0
DIMSTYLE
  2
TECHNICAL_OSAKA$SF
 70
     0
  3

  4
"
  5
OPEN30
  6
OPEN30
  7
OPEN30
 40
1.0
 41
2.5
 42
1.0
 43
10.0
 44
1.0
 45
0.0
 46
0.0
 47
0.1
 48
0.1
140
3.5
141
0.0
142
0.0
143
0.0393701
144
1.0
145
0.0
146
0.71
147
1.5
 71
     0
 72
     0
 73
     0
 74
     0
 75
     1
 76
     1
 77
     3
 78
     8
170
     0
171
     2
172
     1
173
     0
174
     0
175
     0
176
   256
177
   256
178
    40
  0
DIMSTYLE
  2
TECHNICAL_OSAKA$SH
 70
     0
  3

  4
"
  5
OPEN30
  6
GENAXEH
  7
OPEN30
 40
1.0
 41
2.5
 42
1.0
 43
10.0
 44
1.0
 45
0.0
 46
0.0
 47
0.1
 48
0.1
140
3.5
141
0.0
142
0.0
143
0.0393701
144
2.0
145
0.0
146
0.71
147
1.5
 71
     0
 72
     0
 73
     0
 74
     0
 75
     1
 76
     1
 77
     3
 78
     8
170
     0
171
     2
172
     1
173
     1
174
     0
175
     0
176
   256
177
   256
178
    40
  0
DIMSTYLE
  2
AM_ANSI
 70
     0
  3

  4
mm
  5

  6

  7

 40
1.0
 41
0.1
 42
0.05
 43
0.5
 44
0.1
 45
0.0
 46
0.0
 47
0.1
 48
0.1
140
0.12
141
0.0
142
0.0
143
25.399999999999999
144
1.0
145
0.0
146
0.71
147
0.06
 71
     0
 72
     0
 73
     1
 74
     1
 75
     0
 76
     0
 77
     0
 78
     7
170
     0
171
     2
172
     0
173
     0
174
     0
175
     0
176
   256
177
   256
178
     2
  0
DIMSTYLE
  2
AM_ANSI$3
 70
     0
  3

  4
mm
  5

  6

  7

 40
1.0
 41
0.1
 42
0.05
 43
0.5
 44
0.1
 45
0.0
 46
0.0
 47
0.1
 48
0.1
140
0.12
141
0.0
142
0.0
143
25.399999999999999
144
1.0
145
0.0
146
0.71
147
0.06
 71
     0
 72
     0
 73
     1
 74
     1
 75
     0
 76
     0
 77
     0
 78
     7
170
     0
171
     2
172
     0
173
     0
174
     0
175
     0
176
   256
177
   256
178
     2
  0
DIMSTYLE
  2
AM_ANSI$4
 70
     0
  3

  4
mm
  5

  6

  7

 40
1.0
 41
0.1
 42
0.05
 43
0.5
 44
0.1
 45
0.0
 46
0.0
 47
0.1
 48
0.1
140
0.12
141
0.0
142
0.0
143
25.399999999999999
144
1.0
145
0.0
146
0.71
147
0.06
 71
     0
 72
     0
 73
     1
 74
     1
 75
     0
 76
     0
 77
     0
 78
     7
170
     0
171
     2
172
     0
173
     0
174
     0
175
     0
176
   256
177
   256
178
     2
  0
DIMSTYLE
  2
AM_ANSI$7
 70
     0
  3

  4
mm
  5

  6

  7

 40
1.0
 41
0.1
 42
0.05
 43
0.5
 44
0.1
 45
0.0
 46
0.0
 47
0.1
 48
0.1
140
0.24
141
0.0
142
0.0
143
25.399999999999999
144
1.0
145
0.0
146
0.71
147
0.06
 71
     0
 72
     0
 73
     1
 74
     1
 75
     0
 76
     0
 77
     0
 78
     7
170
     0
171
     2
172
     0
173
     0
174
     0
175
     0
176
   256
177
   256
178
     2
  0
DIMSTYLE
  2
AM_ANSI$SF
 70
     0
  3

  4
mm
  5

  6

  7

 40
1.0
 41
0.1
 42
0.05
 43
0.5
 44
0.1
 45
0.0
 46
0.0
 47
0.1
 48
0.1
140
0.12
141
0.0
142
0.0
143
25.399999999999999
144
1.0
145
0.0
146
0.71
147
0.06
 71
     0
 72
     0
 73
     1
 74
     1
 75
     1
 76
     1
 77
     0
 78
     7
170
     0
171
     2
172
     0
173
     0
174
     0
175
     0
176
   256
177
   256
178
     2
  0
DIMSTYLE
  2
AM_ANSI$SH
 70
     0
  3

  4
mm
  5

  6

  7

 40
1.0
 41
0.1
 42
0.05
 43
0.5
 44
0.1
 45
0.0
 46
0.0
 47
0.1
 48
0.1
140
0.12
141
0.0
142
0.0
143
25.399999999999999
144
1.0
145
0.0
146
0.71
147
0.06
 71
     0
 72
     0
 73
     1
 74
     1
 75
     1
 76
     1
 77
     0
 78
     7
170
     0
171
     2
172
     0
173
     1
174
     0
175
     0
176
   256
177
   256
178
     2
  0
ENDTAB
  0
ENDSEC
  0
SECTION
  2
BLOCKS
  0
BLOCK
  8
0
  2
$MODEL_SPACE
 70
     0
 10
0.0
 20
0.0
 30
0.0
  3
$MODEL_SPACE
  1

  0
ENDBLK
  5
1C
  8
0
  0
BLOCK
 67
     1
  8
0
  2
$PAPER_SPACE
 70
     0
 10
0.0
 20
0.0
 30
0.0
  3
$PAPER_SPACE
  1

  0
ENDBLK
  5
19
 67
     1
  8
0
  0
BLOCK
  8
0
  2
_OPEN
 70
     0
 10
0.0
 20
0.0
 30
0.0
  3
_OPEN
  1

  0
LINE
  5
1829
  8
0
  6
BYBLOCK
 62
     0
 10
-1.0
 20
0.1666666666666666
 30
0.0
 11
0.0
 21
0.0
 31
0.0
  0
LINE
  5
182A
  8
0
  6
BYBLOCK
 62
     0
 10
-1.0
 20
-0.1666666666666666
 30
0.0
 11
0.0
 21
0.0
 31
0.0
  0
LINE
  5
182B
  8
0
  6
BYBLOCK
 62
     0
 10
0.0
 20
0.0
 30
0.0
 11
-1.0
 21
0.0
 31
0.0
  0
ENDBLK
  5
182C
  8
0
  0
BLOCK
  8
0
  2
GENAXEH
 70
     0
 10
0.0
 20
0.0
 30
0.0
  3
GENAXEH
  1

  0
LINE
  5
1854
  8
0
 10
-1.0
 20
0.0
 30
0.0
 11
1.0
 21
0.0
 31
0.0
  0
ENDBLK
  5
1855
  8
0
  0
BLOCK
  8
0
  2
_OPEN30
 70
     0
 10
0.0
 20
0.0
 30
0.0
  3
_OPEN30
  1

  0
LINE
  5
1879
  8
0
  6
BYBLOCK
 62
     0
 10
-1.0
 20
0.26794919
 30
0.0
 11
0.0
 21
0.0
 31
0.0
  0
LINE
  5
187A
  8
0
  6
BYBLOCK
 62
     0
 10
0.0
 20
0.0
 30
0.0
 11
-1.0
 21
-0.26794919
 31
0.0
  0
LINE
  5
187B
  8
0
  6
BYBLOCK
 62
     0
 10
0.0
 20
0.0
 30
0.0
 11
-1.0
 21
0.0
 31
0.0
  0
ENDBLK
  5
187C
  8
0
  0
BLOCK
  8
0
  2
*U10
 70
     1
 10
0.0
 20
0.0
 30
0.0
  3
*U10
  1

  0
TEXT
  5
19F8
  8
250
 62
    40
 10
146.0
 20
-4.0714285714285712
 30
0.0
 40
3.0
  1
\U+2205
 50
90.0
  0
TEXT
  5
19F9
  8
250
 62
    40
 10
146.0
 20
-1.357142857142857
 30
0.0
 40
3.0
  1
40
 50
90.0
  0
ENDBLK
  5
19FB
  8
0
  0
BLOCK
  8
0
  2
*U11
 70
     1
 10
0.0
 20
0.0
 30
0.0
  3
*U11
  1

  0
TEXT
  5
19FD
  8
250
 62
    40
 10
63.0
 20
50.0
 30
0.0
 40
3.0
  1
135
  0
ENDBLK
  5
19FF
  8
0
  0
BLOCK
  8
0
  2
*U12
 70
     1
 10
0.0
 20
0.0
 30
0.0
  3
*U12
  1

  0
TEXT
  5
1A01
  8
250
 62
    40
 10
126.4166666666666
 20
36.0
 30
0.0
 40
3.5
  1
11
  0
ENDBLK
  5
1A03
  8
0
  0
BLOCK
  8
0
  2
*U13
 70
     1
 10
0.0
 20
0.0
 30
0.0
  3
*U13
  1

  0
TEXT
  5
1A05
  8
250
 62
    40
 10
102.0714285714285
 20
43.0
 30
0.0
 40
3.0
  1
60
  0
ENDBLK
  5
1A07
  8
0
  0
ENDSEC
  0
SECTION
  2
ENTITIES
  0
TEXT
  5
12CD
  8
241
 10
-65.400000000000006
 20
63.0
 30
0.0
 40
5.0
  1
BBT40-FCM40114-135
  7
YOKO
 11
-65.400000000000006
 21
63.0
 31
0.0
 73
     1
  0
LINE
  5
15DE
  8
250
 10
-32.458397099999999
 20
-28.409457620000001
 30
0.0
 11
-50.191730440000001
 21
-28.409457620000001
 31
0.0
1001
ITEMNAME
1000
LNSP2
  0
LINE
  5
1890
  8
245
  6
CENTER2
 10
136.0
 20
0.0
 30
0.0
 11
-66.400000000000006
 21
0.0
 31
0.0
1001
GRPNAME
1000
PASTMD06
  0
ARC
  5
1894
  8
240
  6
CONTINUOUS
 10
2.0
 20
-30.5
 30
0.0
 40
1.0
 50
180.0
 51
270.0
  0
LINE
  5
1895
  8
241
  6
HIDDEN2
 10
23.0
 20
-22.5
 30
0.0
 11
1.0
 21
-22.5
 31
0.0
  0
LINE
  5
1896
  8
241
  6
HIDDEN2
 10
23.0
 20
22.5
 30
0.0
 11
1.0
 21
22.5
 31
0.0
  0
ARC
  5
1897
  8
240
  6
CONTINUOUS
 10
2.0
 20
30.5
 30
0.0
 40
1.0
 50
90.0
 51
180.0
  0
LINE
  5
1898
  8
240
  6
CONTINUOUS
 10
0.0
 20
22.225000000000001
 30
0.0
 11
-64.030891030000006
 21
12.887161730000001
 31
0.0
  0
LINE
  5
1899
  8
241
 10
1.0
 20
0.0
 30
0.0
 11
1.0
 21
22.225000000000001
 31
0.0
  0
LINE
  5
189A
  8
241
  6
CONTINUOUS
 10
0.0
 20
22.225000000000001
 30
0.0
 11
0.0
 21
0.0
 31
0.0
  0
LINE
  5
189B
  8
240
  6
CONTINUOUS
 10
0.0
 20
-22.225000000000001
 30
0.0
 11
-64.030891030000006
 21
-12.887161730000001
 31
0.0
  0
LINE
  5
189C
  8
240
  6
CONTINUOUS
 10
-65.400000000000006
 20
-11.303908959999999
 30
0.0
 11
-65.400000000000006
 21
0.0
 31
0.0
  0
ARC
  5
189D
  8
240
  6
CONTINUOUS
 10
-63.79999999999999
 20
-11.303908959999999
 30
0.0
 40
1.6000000000000001
 50
180.0
 51
261.70285503000002
  0
LINE
  5
189E
  8
240
  6
CONTINUOUS
 10
-65.400000000000006
 20
11.303908959999999
 30
0.0
 11
-65.400000000000006
 21
0.0
 31
0.0
  0
ARC
  5
189F
  8
240
  6
CONTINUOUS
 10
-63.79999999999999
 20
11.303908959999999
 30
0.0
 40
1.6000000000000001
 50
98.297144969999977
 51
180.0
  0
LINE
  5
18A0
  8
240
  6
CONTINUOUS
 10
1.0
 20
-22.225000000000001
 30
0.0
 11
1.0
 21
-30.5
 31
0.0
  0
LINE
  5
18A1
  8
241
 10
1.0
 20
0.0
 30
0.0
 11
1.0
 21
-22.225000000000001
 31
0.0
  0
LINE
  5
18A2
  8
241
  6
CONTINUOUS
 10
0.0
 20
-22.225000000000001
 30
0.0
 11
0.0
 21
0.0
 31
0.0
  0
LINE
  5
18A3
  8
240
 10
0.0
 20
-22.225000000000001
 30
0.0
 11
1.0
 21
-22.225000000000001
 31
0.0
  0
LINE
  5
18A4
  8
240
  6
CONTINUOUS
 10
1.0
 20
22.225000000000001
 30
0.0
 11
1.0
 21
30.5
 31
0.0
  0
LINE
  5
18A5
  8
240
 10
0.0
 20
22.225000000000001
 30
0.0
 11
1.0
 21
22.225000000000001
 31
0.0
  0
LINE
  5
18A6
  8
241
  6
CONTINUOUS
 10
75.0
 20
0.0
 30
0.0
 11
75.0
 21
19.399999999999999
 31
0.0
1001
GRPNAME
1000
PASTMD03
  0
LINE
  5
18A7
  8
245
  6
CENTER2
 10
16.600000000000001
 20
-31.5
 30
0.0
 11
16.600000000000001
 21
31.5
 31
0.0
  0
LINE
  5
18A8
  8
241
  6
CONTINUOUS
 10
21.600000000000001
 20
0.0
 30
0.0
 11
21.600000000000001
 21
31.5
 31
0.0
  0
LINE
  5
18A9
  8
241
  6
CONTINUOUS
 10
18.713248650000001
 20
26.5
 30
0.0
 11
18.713248650000001
 21
0.0
 31
0.0
  0
LINE
  5
18AA
  8
241
  6
CONTINUOUS
 10
14.48675135
 20
26.5
 30
0.0
 11
14.48675135
 21
0.0
 31
0.0
  0
LINE
  5
18AB
  8
241
  6
CONTINUOUS
 10
11.6
 20
31.5
 30
0.0
 11
11.6
 21
0.0
 31
0.0
  0
LINE
  5
18AC
  8
241
  6
CONTINUOUS
 10
27.0
 20
0.0
 30
0.0
 11
27.0
 21
30.0
 31
0.0
  0
ARC
  5
18AD
  8
240
  6
CONTINUOUS
 10
96.715413190000007
 20
-318.61303586000002
 30
0.0
 40
299.99999999999989
 50
94.375611469999967
 51
102.82720592
1001
GRPNAME
1000
PASTMD03
  0
LINE
  5
18AE
  8
241
  6
CONTINUOUS
 10
14.48675135
 20
-26.5
 30
0.0
 11
14.48675135
 21
0.0
 31
0.0
  0
LINE
  5
18AF
  8
241
  6
CONTINUOUS
 10
18.713248650000001
 20
-26.5
 30
0.0
 11
18.713248650000001
 21
0.0
 31
0.0
  0
LINE
  5
18B0
  8
241
  6
CONTINUOUS
 10
21.600000000000001
 20
0.0
 30
0.0
 11
21.600000000000001
 21
-31.5
 31
0.0
  0
LINE
  5
18B1
  8
241
  6
CONTINUOUS
 10
11.6
 20
-31.5
 30
0.0
 11
11.6
 21
0.0
 31
0.0
  0
LINE
  5
18B2
  8
241
  6
HIDDEN2
 10
23.0
 20
-22.5
 30
0.0
 11
23.0
 21
-31.5
 31
0.0
  0
LINE
  5
18B3
  8
241
  6
CONTINUOUS
 10
27.0
 20
0.0
 30
0.0
 11
27.0
 21
-30.0
 31
0.0
  0
LINE
  5
18B4
  8
240
  6
CONTINUOUS
 10
18.713248650000001
 20
-26.5
 30
0.0
 11
14.48675135
 21
-26.5
 31
0.0
  0
LINE
  5
18B5
  8
240
  6
CONTINUOUS
 10
2.0
 20
-31.5
 30
0.0
 11
11.6
 21
-31.5
 31
0.0
  0
LINE
  5
18B6
  8
240
  6
CONTINUOUS
 10
14.48675135
 20
-26.5
 30
0.0
 11
11.6
 21
-31.5
 31
0.0
  0
LINE
  5
18B7
  8
240
  6
CONTINUOUS
 10
21.600000000000001
 20
-31.5
 30
0.0
 11
26.0
 21
-31.5
 31
0.0
  0
LINE
  5
18B8
  8
240
  6
CONTINUOUS
 10
18.713248650000001
 20
-26.5
 30
0.0
 11
21.600000000000001
 21
-31.5
 31
0.0
  0
ARC
  5
18B9
  8
240
  6
CONTINUOUS
 10
31.0
 20
-30.0
 30
0.0
 40
4.0
 50
102.82712196
 51
179.99999998999999
1001
GRPNAME
1000
PASTMD03
  0
ARC
  5
18BA
  8
240
  6
CONTINUOUS
 10
26.0
 20
-30.5
 30
0.0
 40
1.0
 50
270.0
 51
0.0
  0
LINE
  5
18BB
  8
240
  6
CONTINUOUS
 10
27.0
 20
-30.5
 30
0.0
 11
27.0
 21
-30.0
 31
0.0
  0
LINE
  5
18BC
  8
241
  6
CONTINUOUS
 10
75.0
 20
0.0
 30
0.0
 11
75.0
 21
-19.399999999999999
 31
0.0
1001
GRPNAME
1000
PASTMD03
  0
ARC
  5
18BD
  8
240
  6
CONTINUOUS
 10
76.115866550000007
 20
-49.399999999999999
 30
0.0
 40
30.00000000000005
 50
90.0
 51
94.375611329999984
1001
GRPNAME
1000
PASTMD03
  0
ARC
  5
18BF
  8
240
  6
CONTINUOUS
 10
96.715413190000007
 20
318.61303586000002
 30
0.0
 40
300.0
 50
257.17279371000001
 51
265.62438842
1001
GRPNAME
1000
PASTMD03
  0
LINE
  5
18C0
  8
240
  6
CONTINUOUS
 10
18.713248650000001
 20
26.5
 30
0.0
 11
14.48675135
 21
26.5
 31
0.0
  0
LINE
  5
18C1
  8
240
  6
CONTINUOUS
 10
2.0
 20
31.5
 30
0.0
 11
11.6
 21
31.5
 31
0.0
  0
LINE
  5
18C2
  8
240
  6
CONTINUOUS
 10
11.6
 20
31.5
 30
0.0
 11
14.48675135
 21
26.5
 31
0.0
  0
LINE
  5
18C3
  8
241
  6
HIDDEN2
 10
23.0
 20
22.5
 30
0.0
 11
23.0
 21
31.5
 31
0.0
  0
LINE
  5
18C4
  8
240
  6
CONTINUOUS
 10
21.600000000000001
 20
31.5
 30
0.0
 11
26.0
 21
31.5
 31
0.0
  0
LINE
  5
18C5
  8
240
  6
CONTINUOUS
 10
21.600000000000001
 20
31.5
 30
0.0
 11
18.713248650000001
 21
26.5
 31
0.0
  0
ARC
  5
18C6
  8
240
  6
CONTINUOUS
 10
31.0
 20
30.0
 30
0.0
 40
4.0
 50
179.99999998999999
 51
257.17287802999999
1001
GRPNAME
1000
PASTMD03
  0
ARC
  5
18C7
  8
240
  6
CONTINUOUS
 10
26.0
 20
30.5
 30
0.0
 40
1.0
 50
0.0
 51
90.0
  0
LINE
  5
18C8
  8
240
  6
CONTINUOUS
 10
27.0
 20
30.5
 30
0.0
 11
27.0
 21
30.0
 31
0.0
  0
ARC
  5
18C9
  8
240
  6
CONTINUOUS
 10
76.115866550000007
 20
49.399999999999999
 30
0.0
 40
30.00000000000005
 50
265.62438843000001
 51
269.99999998999988
1001
GRPNAME
1000
PASTMD03
  0
TEXT
  5
18DC
  8
250
 10
-47.925063773333328
 20
-27.409457620000001
 30
0.0
 40
2.7999999999999989
  1
BBT40
  7
YOKO
1001
ITEMNAME
1000
LNSP3
1001
ACAD
1000
MTEXTBEGIN
1070
    73
1070
     1
1070
    44
1040
1.0
1070
    74
1070
     0
1000
MTEXTEND
1000
MTEXTBEGIN
1070
    73
1070
     1
1070
    44
1040
1.0
1070
    74
1070
     0
1000
MTEXTEND
1000
MTEXTBEGIN
1070
    73
1070
     1
1070
    44
1040
1.0
1070
    74
1070
     0
1000
MTEXTEND
  0
LINE
  5
18DF
  8
250
 10
124.0
 20
20.5
 30
0.0
 11
124.0
 21
36.0
 31
0.0
  0
LINE
  5
18E0
  8
250
 10
135.0
 20
20.5
 30
0.0
 11
135.0
 21
36.0
 31
0.0
  0
LINE
  5
18E1
  8
250
 10
126.23
 20
35.0
 30
0.0
 11
132.77000000000001
 21
35.0
 31
0.0
  0
LINE
  5
18E5
  8
250
 10
135.5
 20
-20.0
 30
0.0
 11
148.0
 21
-20.0
 31
0.0
  0
LINE
  5
18E6
  8
250
 10
135.5
 20
20.0
 30
0.0
 11
148.0
 21
20.0
 31
0.0
  0
LINE
  5
18E7
  8
250
 10
147.0
 20
-17.77
 30
0.0
 11
147.0
 21
17.77
 31
0.0
  0
LINE
  5
18EB
  8
250
 10
0.0
 20
22.725000000000001
 30
0.0
 11
0.0
 21
50.0
 31
0.0
  0
LINE
  5
18EC
  8
250
 10
135.0
 20
20.5
 30
0.0
 11
135.0
 21
50.0
 31
0.0
  0
LINE
  5
18ED
  8
250
 10
2.2299999999999991
 20
49.0
 30
0.0
 11
132.77000000000001
 21
49.0
 31
0.0
  0
LINE
  5
18F1
  8
250
 10
75.0
 20
19.920759820000001
 30
0.0
 11
75.0
 21
43.0
 31
0.0
  0
LINE
  5
18F2
  8
250
 10
135.0
 20
20.5
 30
0.0
 11
135.0
 21
43.0
 31
0.0
  0
LINE
  5
18F3
  8
250
 10
77.230000000000004
 20
42.0
 30
0.0
 11
132.77000000000001
 21
42.0
 31
0.0
  0
LINE
  5
18F7
  8
250
 10
-27.759420810687661
 20
-20.270591950042281
 30
0.0
 11
-32.458397099999999
 21
-28.409457620000001
 31
0.0
1001
ACAD
1000
DSTYLE
1002
{
1070
     5
1000
OPEN
1070
   342
1005
594
1070
   343
1005
594
1002
}
  0
LINE
  5
18F8
  8
250
 10
-28.081293585694709
 20
-20.084758616594339
 30
0.0
 11
-26.64442081
 21
-18.339355300000001
 31
0.0
  0
LINE
  5
18F9
  8
250
 10
-27.437548035680621
 20
-20.456425283490219
 30
0.0
 11
-26.64442081
 21
-18.339355300000001
 31
0.0
  0
LINE
  5
18FA
  8
250
 10
-26.64442081
 20
-18.339355300000001
 30
0.0
 11
-27.759420810687661
 21
-20.270591950042281
 31
0.0
  0
TEXT
  5
18FB
  8
250
 10
126.4166666666666
 20
36.0
 30
0.0
 40
3.5
  1
11
1001
ACAD
1000
MTEXTBEGIN
1070
    73
1070
     1
1070
    44
1040
1.0
1070
    74
1070
     0
1000
MTEXTEND
1000
MTEXTBEGIN
1070
    73
1070
     1
1070
    44
1040
1.0
1070
    74
1070
     0
1000
MTEXTEND
1000
MTEXTBEGIN
1070
    73
1070
     1
1070
    44
1040
1.0
1070
    74
1070
     0
1000
MTEXTEND
  0
LINE
  5
18FC
  8
250
 10
132.77000000000001
 20
35.37166666666667
 30
0.0
 11
135.0
 21
35.0
 31
0.0
  0
LINE
  5
18FD
  8
250
 10
132.77000000000001
 20
34.62833333333333
 30
0.0
 11
135.0
 21
35.0
 31
0.0
  0
LINE
  5
18FE
  8
250
 10
135.0
 20
35.0
 30
0.0
 11
132.77000000000001
 21
35.0
 31
0.0
  0
LINE
  5
18FF
  8
250
 10
126.23
 20
34.62833333333333
 30
0.0
 11
124.0
 21
35.0
 31
0.0
  0
LINE
  5
1900
  8
250
 10
126.23
 20
35.37166666666667
 30
0.0
 11
124.0
 21
35.0
 31
0.0
  0
LINE
  5
1901
  8
250
 10
124.0
 20
35.0
 30
0.0
 11
126.23
 21
35.0
 31
0.0
  0
TEXT
  5
1902
  8
250
 10
146.0
 20
-4.0714285714285712
 30
0.0
 40
3.0
  1
\U+2205
 50
90.0
1001
ACAD
1000
MTEXTBEGIN
1070
    73
1070
     1
1070
    44
1040
1.0
1070
    74
1070
     0
1000
MTEXTEND
1000
MTEXTBEGIN
1070
    73
1070
     1
1070
    44
1040
1.0
1070
    74
1070
     0
1000
MTEXTEND
1000
MTEXTBEGIN
1070
    73
1070
     1
1070
    44
1040
1.0
1070
    74
1070
     0
1000
MTEXTEND
  0
TEXT
  5
1903
  8
250
 10
146.0
 20
-1.357142857142857
 30
0.0
 40
3.0
  1
40
 50
90.0
1001
ACAD
1000
MTEXTBEGIN
1070
    73
1070
     1
1070
    44
1040
1.0
1070
    74
1070
     0
1000
MTEXTEND
1000
MTEXTBEGIN
1070
    73
1070
     1
1070
    44
1040
1.0
1070
    74
1070
     0
1000
MTEXTEND
1000
MTEXTBEGIN
1070
    73
1070
     1
1070
    44
1040
1.0
1070
    74
1070
     0
1000
MTEXTEND
  0
LINE
  5
1904
  8
250
 10
146.6283333333333
 20
17.77
 30
0.0
 11
147.0
 21
20.0
 31
0.0
  0
LINE
  5
1905
  8
250
 10
147.3716666666667
 20
17.77
 30
0.0
 11
147.0
 21
20.0
 31
0.0
  0
LINE
  5
1906
  8
250
 10
147.0
 20
20.0
 30
0.0
 11
147.0
 21
17.77
 31
0.0
  0
LINE
  5
1907
  8
250
 10
147.3716666666667
 20
-17.77
 30
0.0
 11
147.0
 21
-20.0
 31
0.0
  0
LINE
  5
1908
  8
250
 10
146.6283333333333
 20
-17.77
 30
0.0
 11
147.0
 21
-20.0
 31
0.0
  0
LINE
  5
1909
  8
250
 10
147.0
 20
-20.0
 30
0.0
 11
147.0
 21
-17.77
 31
0.0
  0
TEXT
  5
190A
  8
250
 10
63.0
 20
50.0
 30
0.0
 40
3.0
  1
135
1001
ACAD
1000
MTEXTBEGIN
1070
    73
1070
     1
1070
    44
1040
1.0
1070
    74
1070
     0
1000
MTEXTEND
1000
MTEXTBEGIN
1070
    73
1070
     1
1070
    44
1040
1.0
1070
    74
1070
     0
1000
MTEXTEND
1000
MTEXTBEGIN
1070
    73
1070
     1
1070
    44
1040
1.0
1070
    74
1070
     0
1000
MTEXTEND
  0
LINE
  5
190B
  8
250
 10
132.77000000000001
 20
49.37166666666667
 30
0.0
 11
135.0
 21
49.0
 31
0.0
  0
LINE
  5
190C
  8
250
 10
132.77000000000001
 20
48.62833333333333
 30
0.0
 11
135.0
 21
49.0
 31
0.0
  0
LINE
  5
190D
  8
250
 10
135.0
 20
49.0
 30
0.0
 11
132.77000000000001
 21
49.0
 31
0.0
  0
LINE
  5
190E
  8
250
 10
2.2299999999999991
 20
48.62833333333333
 30
0.0
 11
0.0
 21
49.0
 31
0.0
  0
LINE
  5
190F
  8
250
 10
2.2299999999999991
 20
49.37166666666667
 30
0.0
 11
0.0
 21
49.0
 31
0.0
  0
LINE
  5
1910
  8
250
 10
0.0
 20
49.0
 30
0.0
 11
2.2299999999999991
 21
49.0
 31
0.0
  0
TEXT
  5
1911
  8
250
 10
102.0714285714285
 20
43.0
 30
0.0
 40
3.0
  1
60
1001
ACAD
1000
MTEXTBEGIN
1070
    73
1070
     1
1070
    44
1040
1.0
1070
    74
1070
     0
1000
MTEXTEND
1000
MTEXTBEGIN
1070
    73
1070
     1
1070
    44
1040
1.0
1070
    74
1070
     0
1000
MTEXTEND
1000
MTEXTBEGIN
1070
    73
1070
     1
1070
    44
1040
1.0
1070
    74
1070
     0
1000
MTEXTEND
  0
LINE
  5
1912
  8
250
 10
132.77000000000001
 20
42.371666666666663
 30
0.0
 11
135.0
 21
42.0
 31
0.0
  0
LINE
  5
1913
  8
250
 10
132.77000000000001
 20
41.62833333333333
 30
0.0
 11
135.0
 21
42.0
 31
0.0
  0
LINE
  5
1914
  8
250
 10
135.0
 20
42.0
 30
0.0
 11
132.77000000000001
 21
42.0
 31
0.0
  0
LINE
  5
1915
  8
250
 10
77.230000000000004
 20
41.62833333333333
 30
0.0
 11
75.0
 21
42.0
 31
0.0
  0
LINE
  5
1916
  8
250
 10
77.230000000000004
 20
42.371666666666663
 30
0.0
 11
75.0
 21
42.0
 31
0.0
  0
LINE
  5
1917
  8
250
 10
75.0
 20
42.0
 30
0.0
 11
77.230000000000004
 21
42.0
 31
0.0
  0
LINE
  5
1976
  8
240
  6
CONTINUOUS
 10
122.35358984
 20
-19.399999999999999
 30
0.0
 11
76.115866550000007
 21
-19.399999999999999
 31
0.0
1001
GRPNAME
1000
PASTMD0O
  0
LINE
  5
1977
  8
240
  6
CONTINUOUS
 10
122.48429678927
 20
19.399999999999999
 30
0.0
 11
76.115866550000007
 21
19.399999999999991
 31
0.0
1001
GRPNAME
1000
PASTMD0O
  0
LINE
  5
1979
  8
240
 10
134.39999999999989
 20
-10.500000000000041
 30
0.0
 11
134.39999999999989
 21
-4.021617859440286
 31
0.0
  0
LINE
  5
197A
  8
240
 10
134.39999999999989
 20
1.46861867253381
 30
0.0
 11
134.39999999999989
 21
9.0180641695105663
 31
0.0
  0
LINE
  5
197B
  8
240
 10
134.09999999999991
 20
10.50000000000003
 30
0.0
 11
134.09999999999991
 21
9.7322070123648103
 31
0.0
  0
LINE
  5
197C
  8
241
 10
133.68853369084121
 20
9.9755339127659237
 30
0.0
 11
109.8229326183173
 21
17.167437375102921
 31
0.0
  0
ARC
  5
197D
  8
240
 10
133.39999999999989
 20
9.0180641695105663
 30
0.0
 40
1.0
 50
0.0
 51
45.572978399097167
  0
ARC
  5
197E
  8
241
 10
133.39999999999989
 20
9.0180641695105663
 30
0.0
 40
1.0
 50
45.572978399097167
 51
73.229809418405196
  0
ARC
  5
197F
  8
241
 10
110.39999999999991
 20
19.08237686161366
 30
0.0
 40
2.0
 50
180.0
 51
253.22980941840521
  0
LINE
  5
1980
  8
245
 10
124.88080997089671
 20
15.159999999999989
 30
0.0
 11
132.3781186640017
 21
15.159999999999989
 31
0.0
  0
LINE
  5
1981
  8
245
 10
128.60299999999989
 20
11.76570507707204
 30
0.0
 11
128.60299999999989
 21
18.9468543854892
 31
0.0
  0
LINE
  5
1982
  8
240
 10
134.72170321072991
 20
17.299999999999962
 30
0.0
 11
134.7217032107298
 21
10.50000000000003
 31
0.0
1001
GRPNAME
1000
PASTMD03
  0
LINE
  5
1983
  8
240
 10
135.0
 20
17.631661198420058
 30
0.0
 11
134.72170321072991
 21
17.299999999999962
 31
0.0
1001
GRPNAME
1000
PASTMD03
  0
LINE
  5
1984
  8
240
 10
135.0
 20
20.0
 30
0.0
 11
135.0
 21
17.631661198420058
 31
0.0
1001
GRPNAME
1000
PASTMD03
  0
LINE
  5
1985
  8
240
 10
122.48429678927
 20
19.999999999999989
 30
0.0
 11
135.0
 21
20.0
 31
0.0
1001
GRPNAME
1000
PASTMD03
  0
LINE
  5
1986
  8
240
 10
122.48429678927
 20
19.399999999999999
 30
0.0
 11
122.48429678927
 21
19.999999999999989
 31
0.0
1001
GRPNAME
1000
PASTMD03
  0
LINE
  5
1987
  8
241
 10
134.09999999999991
 20
10.50000000000003
 30
0.0
 11
131.94814625661809
 21
10.50000000000003
 31
0.0
  0
CIRCLE
  5
1988
  8
241
 10
128.60299999999989
 20
15.159999999999989
 30
0.0
 40
2.8999999999999999
  0
LINE
  5
1989
  8
241
 10
122.48429678927
 20
19.385022821907729
 30
0.0
 11
122.48429678927
 21
13.35193285282965
 31
0.0
  0
LINE
  5
198A
  8
240
 10
134.09999999999991
 20
10.50000000000003
 30
0.0
 11
134.7217032107298
 21
10.50000000000003
 31
0.0
  0
LINE
  5
198B
  8
241
 10
122.48429678927
 20
19.999999999999989
 30
0.0
 11
128.00322175740521
 21
17.99729907829785
 31
0.0
  0
LINE
  5
198C
  8
241
 10
130.88278571655761
 20
16.952366337158711
 30
0.0
 11
134.72170321072991
 21
15.55930452742095
 31
0.0
  0
LINE
  5
198D
  8
241
 10
122.48429678927
 20
14.94069547257906
 30
0.0
 11
126.15216776262319
 21
13.60970282067116
 31
0.0
  0
LINE
  5
198E
  8
241
 10
129.4892604452798
 20
12.398742601072421
 30
0.0
 11
134.7217032107298
 21
10.50000000000003
 31
0.0
  0
LINE
  5
198F
  8
240
 10
134.72170321072991
 20
-17.299999999999979
 30
0.0
 11
134.7217032107298
 21
-10.500000000000041
 31
0.0
1001
GRPNAME
1000
PASTMD03
  0
LINE
  5
1990
  8
240
 10
135.0
 20
-17.63166119842009
 30
0.0
 11
134.72170321072991
 21
-17.299999999999979
 31
0.0
1001
GRPNAME
1000
PASTMD03
  0
LINE
  5
1991
  8
240
 10
135.0
 20
-20.0
 30
0.0
 11
135.0
 21
-17.63166119842009
 31
0.0
1001
GRPNAME
1000
PASTMD03
  0
LINE
  5
1992
  8
240
 10
122.48429678927
 20
-19.999999999999989
 30
0.0
 11
135.0
 21
-20.0
 31
0.0
1001
GRPNAME
1000
PASTMD03
  0
LINE
  5
1993
  8
240
 10
134.39999999999989
 20
-10.500000000000041
 30
0.0
 11
134.7217032107298
 21
-10.500000000000041
 31
0.0
  0
LINE
  5
1994
  8
240
 10
122.48429678927
 20
-19.435022821573071
 30
0.0
 11
122.48429678927
 21
-19.999999999999989
 31
0.0
1001
GRPNAME
1000
PASTMD03
  0
LINE
  5
1995
  8
241
 10
134.39999999999989
 20
-10.500000000000041
 30
0.0
 11
134.39999999999989
 21
-18.910478527454188
 31
0.0
  0
LINE
  5
1996
  8
241
  6
CONTINUOUS
 10
134.40000000000001
 20
1.59280227946064
 30
0.0
 11
123.5904941891487
 21
3.4988098020386431
 31
0.0
  0
LINE
  5
1997
  8
241
 10
122.10512459707
 20
0.4533508212379047
 30
0.0
 11
134.39999999999989
 21
-4.0216178594402789
 31
0.0
  0
LINE
  5
1998
  8
240
 10
134.39999999999989
 20
-4.021617859440286
 30
0.0
 11
134.99999999999989
 21
-4.2400000000000073
 31
0.0
  0
LINE
  5
1999
  8
241
 10
112.2731919159551
 20
-7.1002953737933563
 30
0.0
 11
134.39999999999989
 21
-11.001848635968649
 31
0.0
  0
ARC
  5
199A
  8
241
 10
113.08709793005561
 20
-2.4844049931469629
 30
0.0
 40
4.687097930055768
 50
79.999982399904255
 51
259.99999999999818
  0
LINE
  5
199B
  8
241
 10
122.2091053467514
 20
0.6665429517598512
 30
0.0
 11
113.9010039441564
 21
2.1314853874994202
 31
0.0
  0
LINE
  5
199C
  8
241
  6
CONTINUOUS
 10
123.5904941891487
 20
3.4988098020386431
 30
0.0
 11
122.10512459707
 21
0.4533508212379047
 31
0.0
  0
LINE
  5
199D
  8
241
 10
134.38670131627981
 20
1.5951471962084141
 30
0.0
 11
134.39999999999989
 21
1.468618672533833
 31
0.0
  0
LINE
  5
199E
  8
240
 10
134.39999999999989
 20
1.46861867253381
 30
0.0
 11
134.99999999999989
 21
-4.2400000000000331
 31
0.0
  0
LINE
  5
19A0
  8
241
 10
134.0106157285328
 20
-19.31033763552567
 30
0.0
 11
123.09999999999999
 21
-19.600000000000001
 31
0.0
1001
GRPNAME
1000
PASTMD0O
  0
LINE
  5
19A1
  8
240
  6
CONTINUOUS
 10
122.35358984
 20
-19.399999999999999
 30
0.0
 11
122.48429678927
 21
-19.435022821573071
 31
0.0
1001
GRPNAME
1000
PASTMD0O
  0
ARC
  5
19A2
  8
241
 10
133.99999999999989
 20
-18.910478527454188
 30
0.0
 40
0.4
 50
271.52076966114311
 51
0.0
1001
GENIUS_GENOBJ-N-FIL_13
1002
{
1000
OWNER
1000
GEN
1002
}
1001
GENIUS_GENODEF_13
1002
{
1000
HIER
1070
     0
1002
}
1002
{
1000
MANEDIT
1070
     0
1002
}
1002
{
1000
NOSEL
1070
     0
1002
}
1002
{
1000
BEHIND
1070
     0
1002
}
1002
{
1000
OTHER
1070
     0
1002
}
1002
{
1000
REACTOR
1002
}
  0
LINE
  5
19A3
  8
241
 10
122.48429678927
 20
-19.435022821573071
 30
0.0
 11
123.09999999999999
 21
-19.600000000000001
 31
0.0
1001
GRPNAME
1000
PASTMD0O
  0
VIEWPORT
  5
22
 67
     1
  8
0
 10
261.51769911999997
 20
148.5
 30
0.0
 40
523.03539823000006
 41
297.0
 68
     1
 69
     1
1001
ACAD
1000
MVIEW
1002
{
1070
    16
1010
0.0
1020
0.0
1030
0.0
1010
0.0
1020
0.0
1030
1.0
1040
0.0
1040
297.0
1040
261.51769911999997
1040
148.5
1040
50.0
1040
0.0
1040
0.0
1070
     0
1070
   100
1070
     1
1070
     1
1070
     0
1070
     0
1070
     0
1070
     0
1040
0.0
1040
0.0
1040
0.0
1040
1.0
1040
1.0
1040
10.0
1040
10.0
1070
     0
1002
{
1002
}
1002
}
1001
GENIUS_GENODEF_13
1002
{
1000
HIER
1070
     0
1002
}
1002
{
1000
MANEDIT
1070
     0
1002
}
1002
{
1000
NOSEL
1070
     0
1002
}
1002
{
1000
BEHIND
1070
     0
1002
}
1002
{
1000
OTHER
1070
     0
1002
}
1002
{
1000
REACTOR
1002
}
1001
GENIUS_GENOBJ-N-SDF_13
1002
{
1000
OWNER
1000
GEN
1002
}
1001
GENIUS_GENSCREG_15
1000
PF
1040
1.0
1000
DF
1040
1.0
1000
MIN
1011
0.0000000049999471
1021
1.6801835288150554E+153
1031
3.2046955221103787E+147
1021
0.0
1031
0.0
1000
MAX
1011
523.035398235
1021
1.6801835288150554E+153
1031
3.2046955221103787E+147
1021
297.0
1031
0.0
1000
FLAGS
1070
     2
  0
ENDSEC
  0
EOF
