  0
SECTION
  2
HEADER
  9
$ACADVER
  1
AC1009
  9
$INSBASE
 10
0.0
 20
0.0
 30
0.0
  9
$EXTMIN
 10
-64.516006894650332
 20
-31.72185850782785
 30
-0.000000039842541
  9
$EXTMAX
 10
134.0094456061255
 20
68.008970300440964
 30
0.0000000765687993
  9
$LIMMIN
 10
0.0
 20
0.0
  9
$LIMMAX
 10
297.0
 20
210.0
  9
$ORTHOMODE
 70
     0
  9
$REGENMODE
 70
     1
  9
$FILLMODE
 70
     1
  9
$QTEXTMODE
 70
     0
  9
$MIRRTEXT
 70
     1
  9
$DRAGMODE
 70
     2
  9
$LTSCALE
 40
10.0
  9
$OSMODE
 70
    39
  9
$ATTMODE
 70
     1
  9
$TEXTSIZE
 40
3.0
  9
$TRACEWID
 40
1.0
  9
$TEXTSTYLE
  7
YOKO
  9
$CLAYER
  8
240
  9
$CELTYPE
  6
BYLAYER
  9
$CECOLOR
 62
   256
  9
$DIMSCALE
 40
1.0
  9
$DIMASZ
 40
2.2299999999999991
  9
$DIMEXO
 40
0.5
  9
$DIMDLI
 40
2.5
  9
$DIMRND
 40
0.0
  9
$DIMDLE
 40
0.0
  9
$DIMEXE
 40
1.0
  9
$DIMTP
 40
0.0
  9
$DIMTM
 40
0.0
  9
$DIMTXT
 40
3.5
  9
$DIMCEN
 40
0.0
  9
$DIMTSZ
 40
0.0
  9
$DIMTOL
 70
     0
  9
$DIMLIM
 70
     0
  9
$DIMTIH
 70
     0
  9
$DIMTOH
 70
     0
  9
$DIMSE1
 70
     0
  9
$DIMSE2
 70
     0
  9
$DIMTAD
 70
     3
  9
$DIMZIN
 70
     9
  9
$DIMBLK
  1
OPEN
  9
$DIMASO
 70
     1
  9
$DIMSHO
 70
     1
  9
$DIMPOST
  1

  9
$DIMAPOST
  1

  9
$DIMALT
 70
     0
  9
$DIMALTD
 70
     2
  9
$DIMALTF
 40
25.399999999999999
  9
$DIMLFAC
 40
1.0
  9
$DIMTOFL
 70
     1
  9
$DIMTVP
 40
0.0
  9
$DIMTIX
 70
     0
  9
$DIMSOXD
 70
     0
  9
$DIMSAH
 70
     0
  9
$DIMBLK1
  1

  9
$DIMBLK2
  1

  9
$DIMSTYLE
  2
BIGT
  9
$DIMCLRD
 70
   256
  9
$DIMCLRE
 70
   256
  9
$DIMCLRT
 70
    40
  9
$DIMTFAC
 40
1.0
  9
$DIMGAP
 40
1.0
  9
$LUNITS
 70
     2
  9
$LUPREC
 70
     3
  9
$SKETCHINC
 40
1.0
  9
$FILLETRAD
 40
1.6000000000000001
  9
$AUNITS
 70
     0
  9
$AUPREC
 70
     3
  9
$MENU
  1
.
  9
$ELEVATION
 40
0.0
  9
$PELEVATION
 40
0.0
  9
$THICKNESS
 40
0.0
  9
$LIMCHECK
 70
     0
  9
$BLIPMODE
 70
     0
  9
$CHAMFERA
 40
10.0
  9
$CHAMFERB
 40
10.0
  9
$SKPOLY
 70
     0
  9
$TDCREATE
 40
2452356.6921308911
  9
$TDUPDATE
 40
2456086.6894389931
  9
$TDINDWG
 40
0.1382561921
  9
$TDUSRTIMER
 40
0.1382561921
  9
$USRTIMER
 70
     1
  9
$ANGBASE
 50
0.0
  9
$ANGDIR
 70
     0
  9
$PDMODE
 70
     1
  9
$PDSIZE
 40
-5.0
  9
$PLINEWID
 40
0.0
  9
$COORDS
 70
     0
  9
$SPLFRAME
 70
     0
  9
$SPLINETYPE
 70
     6
  9
$SPLINESEGS
 70
     8
  9
$ATTDIA
 70
     1
  9
$ATTREQ
 70
     1
  9
$HANDLING
 70
     1
  9
$HANDSEED
  5
176C
  9
$SURFTAB1
 70
     6
  9
$SURFTAB2
 70
     6
  9
$SURFTYPE
 70
     6
  9
$SURFU
 70
     6
  9
$SURFV
 70
     6
  9
$UCSNAME
  2

  9
$UCSORG
 10
0.0
 20
0.0
 30
0.0
  9
$UCSXDIR
 10
1.0
 20
0.0
 30
0.0
  9
$UCSYDIR
 10
0.0
 20
1.0
 30
0.0
  9
$PUCSNAME
  2

  9
$PUCSORG
 10
0.0
 20
0.0
 30
0.0
  9
$PUCSXDIR
 10
1.0
 20
0.0
 30
0.0
  9
$PUCSYDIR
 10
0.0
 20
1.0
 30
0.0
  9
$USERI1
 70
     1
  9
$USERI2
 70
     0
  9
$USERI3
 70
     0
  9
$USERI4
 70
     0
  9
$USERI5
 70
     0
  9
$USERR1
 40
0.0
  9
$USERR2
 40
0.0
  9
$USERR3
 40
0.0
  9
$USERR4
 40
0.0
  9
$USERR5
 40
0.0
  9
$WORLDVIEW
 70
     1
  9
$SHADEDGE
 70
     3
  9
$SHADEDIF
 70
    70
  9
$TILEMODE
 70
     1
  9
$MAXACTVP
 70
    16
  9
$PLIMCHECK
 70
     0
  9
$PEXTMIN
 10
1.0000000000000000E+020
 20
1.0000000000000000E+020
 30
1.0000000000000000E+020
  9
$PEXTMAX
 10
-1.0000000000000000E+020
 20
-1.0000000000000000E+020
 30
-1.0000000000000000E+020
  9
$PLIMMIN
 10
0.0
 20
0.0
  9
$PLIMMAX
 10
420.0
 20
297.0
  9
$UNITMODE
 70
     0
  9
$VISRETAIN
 70
     0
  9
$PLINEGEN
 70
     0
  9
$PSLTSCALE
 70
     1
  0
ENDSEC
  0
SECTION
  2
TABLES
  0
TABLE
  2
VPORT
 70
    32
  0
VPORT
  2
*ACTIVE
 70
     0
 10
0.0
 20
0.0
 11
1.0
 21
1.0
 12
34.746719355737611
 22
18.143555896306559
 13
0.0
 23
0.0
 14
7.0
 24
7.0
 15
7.0
 25
7.0
 16
0.0
 26
0.0
 36
1.0
 17
0.0
 27
0.0
 37
0.0
 40
128.85452190085439
 41
1.5472527472527471
 42
50.0
 43
0.0
 44
0.0
 50
0.0
 51
0.0
 71
     0
 72
  2000
 73
     1
 74
     0
 75
     0
 76
     0
 77
     0
 78
     0
  0
ENDTAB
  0
TABLE
  2
LTYPE
 70
    16
  0
LTYPE
  2
CONTINUOUS
 70
     0
  3
Solid line
 72
    65
 73
     0
 40
0.0
  0
LTYPE
  2
CENTER2
 70
     0
  3
___ _ ___ _ ___ _ ___ _ ___ _ ___ _ ___ _ ___ _
 72
    65
 73
     4
 40
1.125
 49
0.75
 49
-0.125
 49
0.125
 49
-0.125
  0
LTYPE
  2
HIDDEN2
 70
     0
  3
_ _ _ _ _ _ _ _ _ _ _ _ _ _ _ _ _ _ _ _ _ _ _ _
 72
    65
 73
     2
 40
0.1875
 49
0.125
 49
-0.0625
  0
LTYPE
  2
PHANTOM2
 70
     0
  3
___ _ _ ___ _ _ ___ _ _ ___ _ _ ___ _ _ ___ _ _
 72
    65
 73
     6
 40
1.25
 49
0.625
 49
-0.125
 49
0.125
 49
-0.125
 49
0.125
 49
-0.125
  0
LTYPE
  2
AMCONSTR
 70
     0
  3
_______________________
 72
    65
 73
     2
 40
9999.0
 49
9999.0
 49
0.0
  0
LTYPE
  2
AM_ISO02W050
 70
     0
  3
__ __ __ __ __ __ __ __ __ __ __ __ __ __ __
 72
    65
 73
     2
 40
7.5
 49
6.0
 49
-1.5
  0
LTYPE
  2
HIDDEN
 70
     0
  3
Hidden __ __ __ __ __ __ __ __ __ __ __ __ __ _
 72
    65
 73
     2
 40
9.5249999999999986
 49
6.3499999999999988
 49
-3.1749999999999989
  0
LTYPE
  2
CENTER
 70
     0
  3
____ _ ____ _ ____ _ ____ _ ____ _ ____ _ ____ 
 72
    65
 73
     4
 40
2.0
 49
1.25
 49
-0.25
 49
0.25
 49
-0.25
  0
LTYPE
  2
ACJISTGB
 70
     0
  3
__ . . __ . .
 72
    65
 73
     6
 40
9.0
 49
4.0
 49
-1.0
 49
1.0
 49
-1.0
 49
1.0
 49
-1.0
  0
LTYPE
  2
ACJISTGL
 70
     0
  3
_ _ _ _ _
 72
    65
 73
     2
 40
3.0
 49
2.0
 49
-1.0
  0
LTYPE
  2
ACISOWELD
 70
     0
  3
_ _ _ _ _
 72
    65
 73
     2
 40
2.0
 49
2.0
 49
-1.0
  0
LTYPE
  2
ACISOTGB
 70
     0
  3
__ . . __ . .
 72
    65
 73
     6
 40
9.0
 49
4.0
 49
-1.0
 49
1.0
 49
-1.0
 49
1.0
 49
-1.0
  0
LTYPE
  2
ACISOTGL
 70
     0
  3
_ _ _ _ _
 72
    65
 73
     2
 40
3.0
 49
2.0
 49
-1.0
  0
LTYPE
  2
ACANSTGB
 70
     0
  3
__ . . __ . .
 72
    65
 73
     6
 40
0.35433070866
 49
0.15748031496
 49
-0.03937007874
 49
0.03937007874
 49
-0.03937007874
 49
0.03937007874
 49
-0.03937007874
  0
LTYPE
  2
ACANSTGL
 70
     0
  3
_ _ _ _ _
 72
    65
 73
     2
 40
0.11811023622
 49
0.07874015748
 49
-0.03937007874
  0
ENDTAB
  0
TABLE
  2
LAYER
 70
     9
  0
LAYER
  2
0
 70
     0
 62
     7
  6
CONTINUOUS
  0
LAYER
  2
240
 70
     0
 62
     4
  6
CONTINUOUS
  0
LAYER
  2
241
 70
     0
 62
   211
  6
CONTINUOUS
  0
LAYER
  2
245
 70
     0
 62
     2
  6
CENTER2
  0
LAYER
  2
250
 70
     0
 62
     3
  6
CONTINUOUS
  0
LAYER
  2
DEFPOINTS
 70
     0
 62
     7
  6
CONTINUOUS
  0
ENDTAB
  0
TABLE
  2
STYLE
 70
     8
  0
STYLE
  2
STANDARD
 70
     0
 40
0.0
 41
1.0
 50
0.0
 71
     0
 42
3.0
  3
romans.shx
  4
BIGFONT.SHX
  0
STYLE
  2
YOKO
 70
     0
 40
0.0
 41
1.0
 50
0.0
 71
     0
 42
3.0
  3
romans.shx
  4
extfont.shx
  0
STYLE
  2
ACJISGDT
 70
     0
 40
0.0
 41
1.0
 50
0.0
 71
     0
 42
3.0
  3
amgdt.shx
  4
extfont.shx
  0
STYLE
  2
ACJISTS
 70
     0
 40
1.0
 41
1.0
 50
0.0
 71
     0
 42
3.0
  3
amgdt.shx
  4
extfont.shx
  0
STYLE
  2
ACISOTS
 70
     0
 40
1.0
 41
1.0
 50
0.0
 71
     0
 42
3.0
  3
amgdt.shx
  4
extfont.shx
  0
STYLE
  2
ACISOGDT
 70
     0
 40
0.0
 41
1.0
 50
0.0
 71
     0
 42
3.0
  3
amgdt.shx
  4
extfont.shx
  0
STYLE
  2
ACANSTS
 70
     0
 40
1.0
 41
1.0
 50
0.0
 71
     0
 42
3.0
  3
romans.shx
  4
extfont.shx
  0
STYLE
  2
ACANSGDT
 70
     0
 40
0.0
 41
1.0
 50
0.0
 71
     0
 42
3.0
  3
amgdtans.shx
  4

  0
ENDTAB
  0
TABLE
  2
VIEW
 70
     1
  0
VIEW
  2
OLE1
 70
     0
 40
137.07652315999999
 10
34.754721840000002
 20
18.14941026
 41
199.57773578999999
 11
0.0
 21
0.0
 31
1.0
 12
0.0
 22
0.0
 32
0.0
 42
50.0
 43
0.0
 44
0.0
 50
0.0
 71
     0
  0
ENDTAB
  0
TABLE
  2
UCS
 70
     0
  0
ENDTAB
  0
TABLE
  2
APPID
 70
    33
  0
APPID
  2
ACAD
 70
     0
  0
APPID
  2
GLOBAL
 70
     0
  0
APPID
  2
DETAIL
 70
     0
  0
APPID
  2
GRPNAME
 70
     0
  0
APPID
  2
GPARA
 70
     0
  0
APPID
  2
ITEMNAME
 70
     0
  0
APPID
  2
HATCH_TYPE
 70
     0
  0
APPID
  2
HATCH_DISPLAY
 70
     0
  0
APPID
  2
HATCH_DISTANCE
 70
     0
  0
APPID
  2
CONTENTBLOCKICON
 70
     0
  0
APPID
  2
MCAD_NO_VIS
 70
     0
  0
APPID
  2
ACAD_TEMP_GRAPHIC
 70
     0
  0
APPID
  2
ACATTRIBSERVICES
 70
     0
  0
APPID
  2
GENIUS_GENSCREG_15
 70
     0
  0
APPID
  2
GENIUS_GENODEF_13
 70
     0
  0
APPID
  2
GENIUS_GENOBJ-N-SDF_13
 70
     0
  0
APPID
  2
GENIUS_GENREC_14
 70
     0
  0
APPID
  2
GENIUS_GENOBJ-N-REC_13
 70
     0
  0
APPID
  2
GENIUS_GENDIMSH_14
 70
     0
  0
APPID
  2
GENIUS_GENOBJ-N-DIM_13
 70
     0
  0
APPID
  2
GENIUS_GENDIM_13
 70
     0
  0
APPID
  2
GENIUS_GENDTOL_13
 70
     0
  0
APPID
  2
GENIUS_GENOLIS_13
 70
     0
  0
APPID
  2
GENIUS_GENOENT_13
 70
     0
  0
APPID
  2
GENIUS_GENOBJ-F-FEM_13
 70
     0
  0
APPID
  2
GENIUS_GENOREF_13
 70
     0
  0
APPID
  2
GENIUS_GEFFEM_13
 70
     0
  0
APPID
  2
GENIUS_GEFFEMP_13
 70
     0
  0
APPID
  2
AD_DRAW
 70
     0
  0
APPID
  2
DESIGNERASSEMBLIES
 70
     0
  0
APPID
  2
ACADM_DIM_EDIT
 70
     0
  0
APPID
  2
AMDT_DM_ADJ
 70
     0
  0
APPID
  2
GENIUS_GENOBJ-N-FIL_13
 70
     0
  0
ENDTAB
  0
TABLE
  2
DIMSTYLE
 70
    29
  0
DIMSTYLE
  2
BIGT
 70
     0
  3

  4

  5
OPEN
  6

  7

 40
1.0
 41
2.2299999999999991
 42
0.5
 43
7.0
 44
1.0
 45
0.0
 46
0.0
 47
0.0
 48
0.01
140
2.7999999999999989
141
0.0
142
0.0
143
25.399999999999999
144
1.0
145
0.0
146
1.0
147
1.0
 71
     0
 72
     0
 73
     0
 74
     0
 75
     0
 76
     0
 77
     3
 78
     9
170
     0
171
     2
172
     1
173
     0
174
     1
175
     0
176
   256
177
   256
178
    40
  0
DIMSTYLE
  2
BIGT$0
 70
     0
  3

  4

  5
OPEN
  6

  7

 40
1.0
 41
2.2299999999999991
 42
0.5
 43
7.0
 44
1.0
 45
0.0
 46
0.0
 47
0.0
 48
0.01
140
2.7999999999999989
141
0.0
142
0.0
143
25.399999999999999
144
1.0
145
0.0
146
1.0
147
1.0
 71
     0
 72
     0
 73
     0
 74
     0
 75
     0
 76
     0
 77
     3
 78
     9
170
     0
171
     2
172
     1
173
     0
174
     0
175
     0
176
   256
177
   256
178
    40
  0
DIMSTYLE
  2
BIGT$2
 70
     0
  3

  4

  5
OPEN
  6

  7

 40
1.0
 41
2.2299999999999991
 42
0.5
 43
7.0
 44
1.0
 45
0.0
 46
0.0
 47
0.0
 48
0.01
140
2.7999999999999989
141
0.0
142
0.0
143
25.399999999999999
144
1.0
145
0.0
146
1.0
147
1.0
 71
     0
 72
     0
 73
     0
 74
     0
 75
     0
 76
     0
 77
     3
 78
     9
170
     0
171
     2
172
     1
173
     0
174
     0
175
     0
176
   256
177
   256
178
    40
  0
DIMSTYLE
  2
BIGT$3
 70
     0
  3

  4

  5
OPEN
  6

  7

 40
1.0
 41
2.2299999999999991
 42
0.5
 43
2.5
 44
1.0
 45
0.0
 46
0.0
 47
0.0
 48
0.01
140
2.7999999999999989
141
0.0
142
0.0
143
25.399999999999999
144
1.0
145
0.0
146
1.0
147
1.0
 71
     0
 72
     0
 73
     0
 74
     0
 75
     0
 76
     0
 77
     3
 78
     9
170
     0
171
     2
172
     1
173
     0
174
     0
175
     0
176
   256
177
   256
178
    40
  0
DIMSTYLE
  2
BIGT$4
 70
     0
  3

  4

  5
OPEN
  6

  7

 40
1.0
 41
2.2299999999999991
 42
0.5
 43
2.5
 44
1.0
 45
0.0
 46
0.0
 47
0.0
 48
0.01
140
2.7999999999999989
141
0.0
142
0.0
143
25.399999999999999
144
1.0
145
0.0
146
1.0
147
1.0
 71
     0
 72
     0
 73
     0
 74
     0
 75
     0
 76
     0
 77
     3
 78
     9
170
     0
171
     2
172
     1
173
     0
174
     0
175
     0
176
   256
177
   256
178
    40
  0
DIMSTYLE
  2
BIGT$6
 70
     0
  3

  4

  5
OPEN
  6

  7

 40
1.0
 41
2.2299999999999991
 42
0.5
 43
2.5
 44
1.0
 45
0.0
 46
0.0
 47
0.0
 48
0.01
140
2.7999999999999989
141
0.0
142
0.0
143
25.399999999999999
144
1.0
145
0.0
146
1.0
147
1.0
 71
     0
 72
     0
 73
     0
 74
     0
 75
     0
 76
     0
 77
     3
 78
     9
170
     0
171
     2
172
     1
173
     0
174
     0
175
     0
176
   256
177
   256
178
    40
  0
DIMSTYLE
  2
BIGT$7
 70
     0
  3

  4

  5
OPEN
  6

  7

 40
0.0
 41
2.2299999999999991
 42
0.5
 43
7.0
 44
1.0
 45
0.0
 46
0.0
 47
0.0
 48
0.01
140
2.7999999999999989
141
0.0
142
0.0
143
25.399999999999999
144
1.0
145
0.0
146
1.0
147
1.0
 71
     0
 72
     0
 73
     0
 74
     0
 75
     0
 76
     0
 77
     3
 78
     9
170
     0
171
     2
172
     0
173
     0
174
     0
175
     0
176
   256
177
   256
178
    40
  0
DIMSTYLE
  2
BIGT$SF
 70
     0
  3

  4

  5
OPEN
  6

  7

 40
1.0
 41
2.2299999999999991
 42
0.5
 43
7.0
 44
1.0
 45
0.0
 46
0.0
 47
0.0
 48
0.0
140
2.7999999999999989
141
0.0
142
0.0
143
25.399999999999999
144
1.0
145
0.0
146
1.0
147
1.0
 71
     0
 72
     0
 73
     0
 74
     0
 75
     0
 76
     0
 77
     3
 78
     9
170
     0
171
     2
172
     1
173
     0
174
     0
175
     0
176
   256
177
   256
178
    40
  0
DIMSTYLE
  2
BIGT$SH
 70
     0
  3

  4

  5
OPEN
  6

  7

 40
1.0
 41
2.2299999999999991
 42
0.5
 43
7.0
 44
1.0
 45
0.0
 46
0.0
 47
0.0
 48
0.0
140
2.7999999999999989
141
0.0
142
0.0
143
25.399999999999999
144
1.0
145
0.0
146
1.0
147
1.0
 71
     0
 72
     0
 73
     0
 74
     0
 75
     0
 76
     0
 77
     3
 78
     9
170
     0
171
     2
172
     1
173
     0
174
     0
175
     0
176
   256
177
   256
178
    40
  0
DIMSTYLE
  2
AM_ISO
 70
     0
  3

  4
"
  5

  6

  7

 40
1.0
 41
2.5
 42
1.0
 43
10.0
 44
1.0
 45
0.0
 46
0.0
 47
0.1
 48
0.1
140
3.5
141
0.0
142
0.0
143
0.0393701
144
1.0
145
0.0
146
0.71
147
1.5
 71
     0
 72
     0
 73
     0
 74
     0
 75
     0
 76
     0
 77
     1
 78
     8
170
     0
171
     2
172
     1
173
     0
174
     0
175
     0
176
   256
177
   256
178
     2
  0
DIMSTYLE
  2
AM_ISO$3
 70
     0
  3

  4
"
  5

  6

  7

 40
1.0
 41
2.5
 42
1.0
 43
10.0
 44
1.0
 45
0.0
 46
0.0
 47
0.1
 48
0.1
140
3.5
141
0.0
142
0.0
143
0.0393701
144
1.0
145
0.0
146
0.71
147
1.5
 71
     0
 72
     0
 73
     0
 74
     1
 75
     0
 76
     0
 77
     1
 78
     8
170
     0
171
     2
172
     0
173
     0
174
     0
175
     0
176
   256
177
   256
178
     2
  0
DIMSTYLE
  2
AM_ISO$4
 70
     0
  3

  4
"
  5

  6

  7

 40
1.0
 41
2.5
 42
1.0
 43
10.0
 44
1.0
 45
0.0
 46
0.0
 47
0.1
 48
0.1
140
3.5
141
0.0
142
0.0
143
0.0393701
144
1.0
145
0.0
146
0.71
147
1.5
 71
     0
 72
     0
 73
     0
 74
     1
 75
     0
 76
     0
 77
     1
 78
     8
170
     0
171
     2
172
     0
173
     0
174
     0
175
     0
176
   256
177
   256
178
     2
  0
DIMSTYLE
  2
AM_ISO$6
 70
     0
  3

  4
"
  5

  6

  7

 40
1.0
 41
2.5
 42
1.0
 43
10.0
 44
1.0
 45
0.0
 46
0.0
 47
0.1
 48
0.1
140
3.5
141
0.0
142
0.0
143
0.0393701
144
1.0
145
0.0
146
0.71
147
1.5
 71
     0
 72
     0
 73
     0
 74
     0
 75
     0
 76
     0
 77
     0
 78
     8
170
     0
171
     2
172
     1
173
     0
174
     0
175
     0
176
   256
177
   256
178
     2
  0
DIMSTYLE
  2
AM_ISO$7
 70
     0
  3

  4
"
  5

  6

  7

 40
1.0
 41
2.5
 42
1.0
 43
10.0
 44
1.0
 45
0.0
 46
0.0
 47
0.1
 48
0.1
140
5.0
141
0.0
142
0.0
143
0.0393701
144
1.0
145
0.0
146
0.71
147
1.5
 71
     0
 72
     0
 73
     0
 74
     0
 75
     0
 76
     0
 77
     1
 78
     8
170
     0
171
     2
172
     1
173
     0
174
     0
175
     0
176
   256
177
   256
178
     2
  0
DIMSTYLE
  2
AM_ISO$SF
 70
     0
  3

  4
"
  5

  6

  7

 40
1.0
 41
2.5
 42
1.0
 43
10.0
 44
1.0
 45
0.0
 46
0.0
 47
0.1
 48
0.1
140
3.5
141
0.0
142
0.0
143
0.0393701
144
1.0
145
0.0
146
0.71
147
1.5
 71
     0
 72
     0
 73
     0
 74
     0
 75
     1
 76
     1
 77
     1
 78
     8
170
     0
171
     2
172
     1
173
     0
174
     0
175
     0
176
   256
177
   256
178
     2
  0
DIMSTYLE
  2
AM_ISO$SH
 70
     0
  3

  4
"
  5

  6
GENAXEH
  7

 40
1.0
 41
2.5
 42
1.0
 43
10.0
 44
1.0
 45
0.0
 46
0.0
 47
0.1
 48
0.1
140
3.5
141
0.0
142
0.0
143
0.0393701
144
2.0
145
0.0
146
0.71
147
1.5
 71
     0
 72
     0
 73
     0
 74
     0
 75
     1
 76
     1
 77
     1
 78
     8
170
     0
171
     2
172
     1
173
     1
174
     0
175
     0
176
   256
177
   256
178
     2
  0
DIMSTYLE
  2
TECHNICAL_OSAKA
 70
     0
  3

  4
"
  5
OPEN30
  6

  7

 40
1.0
 41
2.5
 42
1.0
 43
10.0
 44
1.0
 45
0.0
 46
0.0
 47
0.1
 48
0.1
140
2.7999999999999989
141
0.0
142
0.0
143
0.0393701
144
1.0
145
0.0
146
0.71
147
1.5
 71
     0
 72
     0
 73
     0
 74
     0
 75
     0
 76
     0
 77
     3
 78
     8
170
     0
171
     2
172
     1
173
     0
174
     0
175
     0
176
   256
177
   256
178
    40
  0
DIMSTYLE
  2
TECHNICAL_OSAKA$3
 70
     0
  3

  4
"
  5
OPEN30
  6

  7

 40
1.0
 41
2.5
 42
1.0
 43
10.0
 44
1.0
 45
0.0
 46
0.0
 47
0.1
 48
0.1
140
2.7999999999999989
141
0.0
142
0.0
143
0.0393701
144
1.0
145
0.0
146
0.71
147
1.5
 71
     0
 72
     0
 73
     0
 74
     1
 75
     0
 76
     0
 77
     3
 78
     8
170
     0
171
     2
172
     0
173
     0
174
     0
175
     0
176
   256
177
   256
178
    40
  0
DIMSTYLE
  2
TECHNICAL_OSAKA$4
 70
     0
  3

  4
"
  5
OPEN30
  6

  7

 40
1.0
 41
2.5
 42
1.0
 43
10.0
 44
1.0
 45
0.0
 46
0.0
 47
0.1
 48
0.1
140
2.7999999999999989
141
0.0
142
0.0
143
0.0393701
144
1.0
145
0.0
146
0.71
147
1.5
 71
     0
 72
     0
 73
     0
 74
     1
 75
     0
 76
     0
 77
     3
 78
     8
170
     0
171
     2
172
     0
173
     0
174
     0
175
     0
176
   256
177
   256
178
    40
  0
DIMSTYLE
  2
TECHNICAL_OSAKA$6
 70
     0
  3

  4
"
  5
OPEN30
  6

  7

 40
1.0
 41
2.5
 42
1.0
 43
10.0
 44
1.0
 45
0.0
 46
0.0
 47
0.1
 48
0.1
140
2.7999999999999989
141
0.0
142
0.0
143
0.0393701
144
1.0
145
0.0
146
0.71
147
1.5
 71
     0
 72
     0
 73
     0
 74
     0
 75
     0
 76
     0
 77
     0
 78
     8
170
     0
171
     2
172
     1
173
     0
174
     0
175
     0
176
   256
177
   256
178
    40
  0
DIMSTYLE
  2
TECHNICAL_OSAKA$7
 70
     0
  3

  4
"
  5
OPEN30
  6

  7

 40
1.0
 41
2.5
 42
1.0
 43
10.0
 44
1.0
 45
0.0
 46
0.0
 47
0.1
 48
0.1
140
2.7999999999999989
141
0.0
142
0.0
143
0.0393701
144
1.0
145
0.0
146
0.71
147
1.5
 71
     0
 72
     0
 73
     0
 74
     0
 75
     0
 76
     0
 77
     3
 78
     8
170
     0
171
     2
172
     1
173
     0
174
     0
175
     0
176
   256
177
   256
178
    40
  0
DIMSTYLE
  2
TECHNICAL_OSAKA$SF
 70
     0
  3

  4
"
  5
OPEN30
  6
OPEN30
  7
OPEN30
 40
1.0
 41
2.5
 42
1.0
 43
10.0
 44
1.0
 45
0.0
 46
0.0
 47
0.1
 48
0.1
140
3.5
141
0.0
142
0.0
143
0.0393701
144
1.0
145
0.0
146
0.71
147
1.5
 71
     0
 72
     0
 73
     0
 74
     0
 75
     1
 76
     1
 77
     3
 78
     8
170
     0
171
     2
172
     1
173
     0
174
     0
175
     0
176
   256
177
   256
178
    40
  0
DIMSTYLE
  2
TECHNICAL_OSAKA$SH
 70
     0
  3

  4
"
  5
OPEN30
  6
GENAXEH
  7
OPEN30
 40
1.0
 41
2.5
 42
1.0
 43
10.0
 44
1.0
 45
0.0
 46
0.0
 47
0.1
 48
0.1
140
3.5
141
0.0
142
0.0
143
0.0393701
144
2.0
145
0.0
146
0.71
147
1.5
 71
     0
 72
     0
 73
     0
 74
     0
 75
     1
 76
     1
 77
     3
 78
     8
170
     0
171
     2
172
     1
173
     1
174
     0
175
     0
176
   256
177
   256
178
    40
  0
DIMSTYLE
  2
AM_ANSI
 70
     0
  3

  4
mm
  5

  6

  7

 40
1.0
 41
0.1
 42
0.05
 43
0.5
 44
0.1
 45
0.0
 46
0.0
 47
0.1
 48
0.1
140
0.12
141
0.0
142
0.0
143
25.399999999999999
144
1.0
145
0.0
146
0.71
147
0.06
 71
     0
 72
     0
 73
     1
 74
     1
 75
     0
 76
     0
 77
     0
 78
     7
170
     0
171
     2
172
     0
173
     0
174
     0
175
     0
176
   256
177
   256
178
     2
  0
DIMSTYLE
  2
AM_ANSI$3
 70
     0
  3

  4
mm
  5

  6

  7

 40
1.0
 41
0.1
 42
0.05
 43
0.5
 44
0.1
 45
0.0
 46
0.0
 47
0.1
 48
0.1
140
0.12
141
0.0
142
0.0
143
25.399999999999999
144
1.0
145
0.0
146
0.71
147
0.06
 71
     0
 72
     0
 73
     1
 74
     1
 75
     0
 76
     0
 77
     0
 78
     7
170
     0
171
     2
172
     0
173
     0
174
     0
175
     0
176
   256
177
   256
178
     2
  0
DIMSTYLE
  2
AM_ANSI$4
 70
     0
  3

  4
mm
  5

  6

  7

 40
1.0
 41
0.1
 42
0.05
 43
0.5
 44
0.1
 45
0.0
 46
0.0
 47
0.1
 48
0.1
140
0.12
141
0.0
142
0.0
143
25.399999999999999
144
1.0
145
0.0
146
0.71
147
0.06
 71
     0
 72
     0
 73
     1
 74
     1
 75
     0
 76
     0
 77
     0
 78
     7
170
     0
171
     2
172
     0
173
     0
174
     0
175
     0
176
   256
177
   256
178
     2
  0
DIMSTYLE
  2
AM_ANSI$7
 70
     0
  3

  4
mm
  5

  6

  7

 40
1.0
 41
0.1
 42
0.05
 43
0.5
 44
0.1
 45
0.0
 46
0.0
 47
0.1
 48
0.1
140
0.24
141
0.0
142
0.0
143
25.399999999999999
144
1.0
145
0.0
146
0.71
147
0.06
 71
     0
 72
     0
 73
     1
 74
     1
 75
     0
 76
     0
 77
     0
 78
     7
170
     0
171
     2
172
     0
173
     0
174
     0
175
     0
176
   256
177
   256
178
     2
  0
DIMSTYLE
  2
AM_ANSI$SF
 70
     0
  3

  4
mm
  5

  6

  7

 40
1.0
 41
0.1
 42
0.05
 43
0.5
 44
0.1
 45
0.0
 46
0.0
 47
0.1
 48
0.1
140
0.12
141
0.0
142
0.0
143
25.399999999999999
144
1.0
145
0.0
146
0.71
147
0.06
 71
     0
 72
     0
 73
     1
 74
     1
 75
     1
 76
     1
 77
     0
 78
     7
170
     0
171
     2
172
     0
173
     0
174
     0
175
     0
176
   256
177
   256
178
     2
  0
DIMSTYLE
  2
AM_ANSI$SH
 70
     0
  3

  4
mm
  5

  6

  7

 40
1.0
 41
0.1
 42
0.05
 43
0.5
 44
0.1
 45
0.0
 46
0.0
 47
0.1
 48
0.1
140
0.12
141
0.0
142
0.0
143
25.399999999999999
144
1.0
145
0.0
146
0.71
147
0.06
 71
     0
 72
     0
 73
     1
 74
     1
 75
     1
 76
     1
 77
     0
 78
     7
170
     0
171
     2
172
     0
173
     1
174
     0
175
     0
176
   256
177
   256
178
     2
  0
ENDTAB
  0
ENDSEC
  0
SECTION
  2
BLOCKS
  0
BLOCK
  8
0
  2
$MODEL_SPACE
 70
     0
 10
0.0
 20
0.0
 30
0.0
  3
$MODEL_SPACE
  1

  0
ENDBLK
  5
1C
  8
0
  0
BLOCK
 67
     1
  8
0
  2
$PAPER_SPACE
 70
     0
 10
0.0
 20
0.0
 30
0.0
  3
$PAPER_SPACE
  1

  0
ENDBLK
  5
19
 67
     1
  8
0
  0
BLOCK
  8
0
  2
_OPEN
 70
     0
 10
0.0
 20
0.0
 30
0.0
  3
_OPEN
  1

  0
LINE
  5
14FA
  8
0
  6
BYBLOCK
 62
     0
 10
-1.0
 20
0.1666666666666666
 30
0.0
 11
0.0
 21
0.0
 31
0.0
  0
LINE
  5
14FB
  8
0
  6
BYBLOCK
 62
     0
 10
-1.0
 20
-0.1666666666666666
 30
0.0
 11
0.0
 21
0.0
 31
0.0
  0
LINE
  5
14FC
  8
0
  6
BYBLOCK
 62
     0
 10
0.0
 20
0.0
 30
0.0
 11
-1.0
 21
0.0
 31
0.0
  0
ENDBLK
  5
14FD
  8
0
  0
BLOCK
  8
0
  2
GENAXEH
 70
     0
 10
0.0
 20
0.0
 30
0.0
  3
GENAXEH
  1

  0
LINE
  5
1525
  8
0
 10
-1.0
 20
0.0
 30
0.0
 11
1.0
 21
0.0
 31
0.0
  0
ENDBLK
  5
1526
  8
0
  0
BLOCK
  8
0
  2
_OPEN30
 70
     0
 10
0.0
 20
0.0
 30
0.0
  3
_OPEN30
  1

  0
LINE
  5
154A
  8
0
  6
BYBLOCK
 62
     0
 10
-1.0
 20
0.26794919
 30
0.0
 11
0.0
 21
0.0
 31
0.0
  0
LINE
  5
154B
  8
0
  6
BYBLOCK
 62
     0
 10
0.0
 20
0.0
 30
0.0
 11
-1.0
 21
-0.26794919
 31
0.0
  0
LINE
  5
154C
  8
0
  6
BYBLOCK
 62
     0
 10
0.0
 20
0.0
 30
0.0
 11
-1.0
 21
0.0
 31
0.0
  0
ENDBLK
  5
154D
  8
0
  0
BLOCK
  8
0
  2
*U10
 70
     1
 10
0.0
 20
0.0
 30
0.0
  3
*U10
  1

  0
TEXT
  5
16CA
  8
250
 62
    40
 10
113.3227222666666
 20
36.0
 30
0.0
 40
3.5
  1
11
  0
ENDBLK
  5
16CC
  8
0
  0
BLOCK
  8
0
  2
*U11
 70
     1
 10
0.0
 20
0.0
 30
0.0
  3
*U11
  1

  0
TEXT
  5
16CE
  8
250
 62
    40
 10
86.477484171428571
 20
43.0
 30
0.0
 40
3.0
  1
65
  0
ENDBLK
  5
16D0
  8
0
  0
BLOCK
  8
0
  2
*U12
 70
     1
 10
0.0
 20
0.0
 30
0.0
  3
*U12
  1

  0
TEXT
  5
16D2
  8
250
 62
    40
 10
57.406055599999988
 20
50.0
 30
0.0
 40
3.0
  1
120
  0
ENDBLK
  5
16D4
  8
0
  0
BLOCK
  8
0
  2
*U13
 70
     1
 10
0.0
 20
0.0
 30
0.0
  3
*U13
  1

  0
TEXT
  5
16D6
  8
250
 62
    40
 10
132.0
 20
-4.0714285714285712
 30
0.0
 40
3.0
  1
\U+2205
 50
90.0
  0
TEXT
  5
16D7
  8
250
 62
    40
 10
132.0
 20
-1.357142857142857
 30
0.0
 40
3.0
  1
40
 50
90.0
  0
ENDBLK
  5
16D9
  8
0
  0
ENDSEC
  0
SECTION
  2
ENTITIES
  0
TEXT
  5
F94
  8
241
 10
-63.493944400000011
 20
63.0
 30
0.0
 40
5.0
  1
BBT40-FCM40114-120
  7
YOKO
 11
-63.493944400000011
 21
63.0
 31
0.0
 73
     1
  0
LINE
  5
12A4
  8
250
 10
-30.552341500000001
 20
-28.409457620000001
 30
0.0
 11
-48.285674839999999
 21
-28.409457620000001
 31
0.0
1001
ITEMNAME
1000
LNSP2
  0
LINE
  5
1564
  8
245
  6
CENTER2
 10
-64.493944400000004
 20
0.0
 30
0.0
 11
122.9060556
 21
0.0
 31
0.0
1001
GRPNAME
1000
PASTMD06
  0
ARC
  5
156A
  8
240
  6
CONTINUOUS
 10
3.9060556000000002
 20
-30.5
 30
0.0
 40
1.0
 50
180.0
 51
270.0
  0
LINE
  5
156B
  8
241
  6
HIDDEN2
 10
24.906055599999998
 20
-22.5
 30
0.0
 11
2.9060556000000002
 21
-22.5
 31
0.0
  0
LINE
  5
156C
  8
241
  6
HIDDEN2
 10
24.906055599999998
 20
22.5
 30
0.0
 11
2.9060556000000002
 21
22.5
 31
0.0
  0
ARC
  5
156D
  8
240
  6
CONTINUOUS
 10
3.9060556000000002
 20
30.5
 30
0.0
 40
1.0
 50
90.0
 51
180.0
  0
LINE
  5
156E
  8
240
  6
CONTINUOUS
 10
1.9060556
 20
22.225000000000001
 30
0.0
 11
-62.124835429999997
 21
12.887161730000001
 31
0.0
  0
LINE
  5
156F
  8
241
 10
2.9060556000000002
 20
0.0
 30
0.0
 11
2.9060556000000002
 21
22.225000000000001
 31
0.0
  0
LINE
  5
1570
  8
241
  6
CONTINUOUS
 10
1.9060556
 20
22.225000000000001
 30
0.0
 11
1.9060556
 21
0.0
 31
0.0
  0
LINE
  5
1571
  8
240
  6
CONTINUOUS
 10
1.9060556
 20
-22.225000000000001
 30
0.0
 11
-62.124835429999997
 21
-12.887161730000001
 31
0.0
  0
LINE
  5
1572
  8
240
  6
CONTINUOUS
 10
-63.493944400000011
 20
-11.303908959999999
 30
0.0
 11
-63.493944400000011
 21
0.0
 31
0.0
  0
ARC
  5
1573
  8
240
  6
CONTINUOUS
 10
-61.893944400000002
 20
-11.303908959999999
 30
0.0
 40
1.6000000000000001
 50
180.0
 51
261.70285503000002
  0
LINE
  5
1574
  8
240
  6
CONTINUOUS
 10
-63.493944400000011
 20
11.303908959999999
 30
0.0
 11
-63.493944400000011
 21
0.0
 31
0.0
  0
ARC
  5
1575
  8
240
  6
CONTINUOUS
 10
-61.893944400000002
 20
11.303908959999999
 30
0.0
 40
1.6000000000000001
 50
98.297144969999977
 51
180.0
  0
LINE
  5
1576
  8
240
  6
CONTINUOUS
 10
2.9060556000000002
 20
-22.225000000000001
 30
0.0
 11
2.9060556000000002
 21
-30.5
 31
0.0
  0
LINE
  5
1577
  8
241
 10
2.9060556000000002
 20
0.0
 30
0.0
 11
2.9060556000000002
 21
-22.225000000000001
 31
0.0
  0
LINE
  5
1578
  8
241
  6
CONTINUOUS
 10
1.9060556
 20
-22.225000000000001
 30
0.0
 11
1.9060556
 21
0.0
 31
0.0
  0
LINE
  5
1579
  8
240
 10
1.9060556
 20
-22.225000000000001
 30
0.0
 11
2.9060556000000002
 21
-22.225000000000001
 31
0.0
  0
LINE
  5
157A
  8
240
  6
CONTINUOUS
 10
2.9060556000000002
 20
22.225000000000001
 30
0.0
 11
2.9060556000000002
 21
30.5
 31
0.0
  0
LINE
  5
157B
  8
240
 10
1.9060556
 20
22.225000000000001
 30
0.0
 11
2.9060556000000002
 21
22.225000000000001
 31
0.0
  0
LINE
  5
157C
  8
241
  6
CONTINUOUS
 10
56.906055599999988
 20
0.0
 30
0.0
 11
56.906055599999988
 21
19.399999999999999
 31
0.0
1001
GRPNAME
1000
PASTMD02
  0
LINE
  5
157D
  8
245
  6
CENTER2
 10
18.5060556
 20
-31.5
 30
0.0
 11
18.5060556
 21
31.5
 31
0.0
  0
LINE
  5
157E
  8
241
  6
CONTINUOUS
 10
23.5060556
 20
0.0
 30
0.0
 11
23.5060556
 21
31.5
 31
0.0
  0
LINE
  5
157F
  8
241
  6
CONTINUOUS
 10
20.619304249999999
 20
26.5
 30
0.0
 11
20.619304249999999
 21
0.0
 31
0.0
  0
LINE
  5
1580
  8
241
  6
CONTINUOUS
 10
16.392806950000001
 20
26.5
 30
0.0
 11
16.392806950000001
 21
0.0
 31
0.0
  0
LINE
  5
1581
  8
241
  6
CONTINUOUS
 10
13.5060556
 20
31.5
 30
0.0
 11
13.5060556
 21
0.0
 31
0.0
  0
LINE
  5
1582
  8
241
  6
CONTINUOUS
 10
28.906055600000009
 20
0.0
 30
0.0
 11
28.906055600000009
 21
29.0
 31
0.0
  0
ARC
  5
1584
  8
240
  6
CONTINUOUS
 10
73.559021040000005
 20
-168.47272971000001
 30
0.0
 40
150.0
 50
96.847430079999981
 51
105.8707807
1001
GRPNAME
1000
PASTMD02
  0
ARC
  5
1585
  8
240
  6
CONTINUOUS
 10
33.906055600000002
 20
-29.0
 30
0.0
 40
5.0000000000024896
 50
105.87078108
 51
180.00000001999999
1001
GRPNAME
1000
PASTMD02
  0
LINE
  5
1586
  8
241
  6
CONTINUOUS
 10
16.392806950000001
 20
-26.5
 30
0.0
 11
16.392806950000001
 21
0.0
 31
0.0
  0
LINE
  5
1587
  8
241
  6
CONTINUOUS
 10
20.619304249999999
 20
-26.5
 30
0.0
 11
20.619304249999999
 21
0.0
 31
0.0
  0
LINE
  5
1588
  8
241
  6
CONTINUOUS
 10
23.5060556
 20
0.0
 30
0.0
 11
23.5060556
 21
-31.5
 31
0.0
  0
LINE
  5
1589
  8
241
  6
CONTINUOUS
 10
13.5060556
 20
-31.5
 30
0.0
 11
13.5060556
 21
0.0
 31
0.0
  0
LINE
  5
158A
  8
241
  6
HIDDEN2
 10
24.906055599999998
 20
-22.5
 30
0.0
 11
24.906055599999998
 21
-31.5
 31
0.0
  0
LINE
  5
158B
  8
241
  6
CONTINUOUS
 10
28.906055600000009
 20
0.0
 30
0.0
 11
28.906055600000009
 21
-29.0
 31
0.0
  0
LINE
  5
158C
  8
240
  6
CONTINUOUS
 10
20.619304249999999
 20
-26.5
 30
0.0
 11
16.392806950000001
 21
-26.5
 31
0.0
  0
LINE
  5
158D
  8
240
  6
CONTINUOUS
 10
3.9060556000000002
 20
-31.5
 30
0.0
 11
13.5060556
 21
-31.5
 31
0.0
  0
LINE
  5
158E
  8
240
  6
CONTINUOUS
 10
16.392806950000001
 20
-26.5
 30
0.0
 11
13.5060556
 21
-31.5
 31
0.0
  0
LINE
  5
158F
  8
240
  6
CONTINUOUS
 10
23.5060556
 20
-31.5
 30
0.0
 11
27.906055600000009
 21
-31.5
 31
0.0
  0
LINE
  5
1590
  8
240
  6
CONTINUOUS
 10
20.619304249999999
 20
-26.5
 30
0.0
 11
23.5060556
 21
-31.5
 31
0.0
  0
ARC
  5
1591
  8
240
  6
CONTINUOUS
 10
27.906055600000009
 20
-30.5
 30
0.0
 40
1.0
 50
270.0
 51
0.0
  0
LINE
  5
1592
  8
240
  6
CONTINUOUS
 10
28.906055600000009
 20
-30.5
 30
0.0
 11
28.906055600000009
 21
-29.0
 31
0.0
  0
LINE
  5
1593
  8
241
  6
CONTINUOUS
 10
56.906055599999988
 20
0.0
 30
0.0
 11
56.906055599999988
 21
-19.399999999999999
 31
0.0
1001
GRPNAME
1000
PASTMD02
  0
ARC
  5
1594
  8
240
  6
CONTINUOUS
 10
58.059651819999999
 20
-39.399999999999999
 30
0.0
 40
20.0
 50
90.0
 51
96.847429869999985
1001
GRPNAME
1000
PASTMD02
  0
ARC
  5
159A
  8
240
  6
CONTINUOUS
 10
33.906055600000002
 20
29.0
 30
0.0
 40
5.0000000000024709
 50
179.99999997
 51
254.12921890999999
1001
GRPNAME
1000
PASTMD02
  0
LINE
  5
159B
  8
240
  6
CONTINUOUS
 10
20.619304249999999
 20
26.5
 30
0.0
 11
16.392806950000001
 21
26.5
 31
0.0
  0
LINE
  5
159C
  8
240
  6
CONTINUOUS
 10
3.9060556000000002
 20
31.5
 30
0.0
 11
13.5060556
 21
31.5
 31
0.0
  0
LINE
  5
159D
  8
240
  6
CONTINUOUS
 10
13.5060556
 20
31.5
 30
0.0
 11
16.392806950000001
 21
26.5
 31
0.0
  0
LINE
  5
159E
  8
241
  6
HIDDEN2
 10
24.906055599999998
 20
22.5
 30
0.0
 11
24.906055599999998
 21
31.5
 31
0.0
  0
LINE
  5
159F
  8
240
  6
CONTINUOUS
 10
23.5060556
 20
31.5
 30
0.0
 11
27.906055600000009
 21
31.5
 31
0.0
  0
LINE
  5
15A0
  8
240
  6
CONTINUOUS
 10
23.5060556
 20
31.5
 30
0.0
 11
20.619304249999999
 21
26.5
 31
0.0
  0
ARC
  5
15A1
  8
240
  6
CONTINUOUS
 10
27.906055600000009
 20
30.5
 30
0.0
 40
1.0
 50
0.0
 51
90.0
  0
LINE
  5
15A2
  8
240
  6
CONTINUOUS
 10
28.906055600000009
 20
30.5
 30
0.0
 11
28.906055600000009
 21
29.0
 31
0.0
  0
ARC
  5
15A3
  8
240
  6
CONTINUOUS
 10
73.559021040000005
 20
168.47272971000001
 30
0.0
 40
150.0
 50
254.12921890999999
 51
263.15256979999998
1001
GRPNAME
1000
PASTMD02
  0
ARC
  5
15A4
  8
240
  6
CONTINUOUS
 10
58.059651819999999
 20
39.399999999999999
 30
0.0
 40
19.999999999999979
 50
263.15256980999999
 51
270.0
1001
GRPNAME
1000
PASTMD02
  0
TEXT
  5
15AD
  8
250
 10
-46.019008173333333
 20
-27.409457620000001
 30
0.0
 40
2.7999999999999989
  1
BBT40
  7
YOKO
1001
ITEMNAME
1000
LNSP3
1001
ACAD
1000
MTEXTBEGIN
1070
    73
1070
     1
1070
    44
1040
1.0
1070
    74
1070
     0
1000
MTEXTEND
1000
MTEXTBEGIN
1070
    73
1070
     1
1070
    44
1040
1.0
1070
    74
1070
     0
1000
MTEXTEND
1000
MTEXTBEGIN
1070
    73
1070
     1
1070
    44
1040
1.0
1070
    74
1070
     0
1000
MTEXTEND
  0
LINE
  5
15B0
  8
250
 10
110.9060556
 20
20.5
 30
0.0
 11
110.9060556
 21
36.0
 31
0.0
  0
LINE
  5
15B1
  8
250
 10
121.9060556
 20
20.5
 30
0.0
 11
121.9060556
 21
36.0
 31
0.0
  0
LINE
  5
15B2
  8
250
 10
113.13605560000001
 20
35.0
 30
0.0
 11
119.6760556
 21
35.0
 31
0.0
  0
LINE
  5
15B6
  8
250
 10
56.906055599999988
 20
19.933297320000001
 30
0.0
 11
56.906055599999988
 21
43.0
 31
0.0
  0
LINE
  5
15B7
  8
250
 10
121.9060556
 20
20.5
 30
0.0
 11
121.9060556
 21
43.0
 31
0.0
  0
LINE
  5
15B8
  8
250
 10
59.136055599999999
 20
42.0
 30
0.0
 11
119.6760556
 21
42.0
 31
0.0
  0
LINE
  5
15BC
  8
250
 10
122.4060556
 20
-20.0
 30
0.0
 11
134.0
 21
-20.0
 31
0.0
  0
LINE
  5
15BD
  8
250
 10
122.4060556
 20
20.0
 30
0.0
 11
134.0
 21
20.0
 31
0.0
  0
LINE
  5
15BE
  8
250
 10
133.0
 20
-17.77
 30
0.0
 11
133.0
 21
17.77
 31
0.0
  0
LINE
  5
15C2
  8
250
 10
1.9060556
 20
22.725000000000001
 30
0.0
 11
1.9060556
 21
50.0
 31
0.0
  0
LINE
  5
15C3
  8
250
 10
121.9060556
 20
20.5
 30
0.0
 11
121.9060556
 21
50.0
 31
0.0
  0
LINE
  5
15C4
  8
250
 10
4.1360555999999997
 20
49.0
 30
0.0
 11
119.6760556
 21
49.0
 31
0.0
  0
LINE
  5
15C8
  8
250
 10
-25.85336521068767
 20
-20.270591950042281
 30
0.0
 11
-30.552341500000001
 21
-28.409457620000001
 31
0.0
1001
ACAD
1000
DSTYLE
1002
{
1070
     5
1000
OPEN
1070
   342
1005
594
1070
   343
1005
594
1002
}
  0
LINE
  5
15C9
  8
250
 10
-26.175237985694711
 20
-20.084758616594339
 30
0.0
 11
-24.738365210000001
 21
-18.339355300000001
 31
0.0
  0
LINE
  5
15CA
  8
250
 10
-25.531492435680619
 20
-20.456425283490219
 30
0.0
 11
-24.738365210000001
 21
-18.339355300000001
 31
0.0
  0
LINE
  5
15CB
  8
250
 10
-24.738365210000001
 20
-18.339355300000001
 30
0.0
 11
-25.85336521068767
 21
-20.270591950042281
 31
0.0
  0
TEXT
  5
15CC
  8
250
 10
113.3227222666666
 20
36.0
 30
0.0
 40
3.5
  1
11
1001
ACAD
1000
MTEXTBEGIN
1070
    73
1070
     1
1070
    44
1040
1.0
1070
    74
1070
     0
1000
MTEXTEND
1000
MTEXTBEGIN
1070
    73
1070
     1
1070
    44
1040
1.0
1070
    74
1070
     0
1000
MTEXTEND
1000
MTEXTBEGIN
1070
    73
1070
     1
1070
    44
1040
1.0
1070
    74
1070
     0
1000
MTEXTEND
  0
LINE
  5
15CD
  8
250
 10
119.6760556
 20
35.37166666666667
 30
0.0
 11
121.9060556
 21
35.0
 31
0.0
  0
LINE
  5
15CE
  8
250
 10
119.6760556
 20
34.62833333333333
 30
0.0
 11
121.9060556
 21
35.0
 31
0.0
  0
LINE
  5
15CF
  8
250
 10
121.9060556
 20
35.0
 30
0.0
 11
119.6760556
 21
35.0
 31
0.0
  0
LINE
  5
15D0
  8
250
 10
113.13605560000001
 20
34.62833333333333
 30
0.0
 11
110.9060556
 21
35.0
 31
0.0
  0
LINE
  5
15D1
  8
250
 10
113.13605560000001
 20
35.37166666666667
 30
0.0
 11
110.9060556
 21
35.0
 31
0.0
  0
LINE
  5
15D2
  8
250
 10
110.9060556
 20
35.0
 30
0.0
 11
113.13605560000001
 21
35.0
 31
0.0
  0
TEXT
  5
15D3
  8
250
 10
86.477484171428571
 20
43.0
 30
0.0
 40
3.0
  1
65
1001
ACAD
1000
MTEXTBEGIN
1070
    73
1070
     1
1070
    44
1040
1.0
1070
    74
1070
     0
1000
MTEXTEND
1000
MTEXTBEGIN
1070
    73
1070
     1
1070
    44
1040
1.0
1070
    74
1070
     0
1000
MTEXTEND
1000
MTEXTBEGIN
1070
    73
1070
     1
1070
    44
1040
1.0
1070
    74
1070
     0
1000
MTEXTEND
  0
LINE
  5
15D4
  8
250
 10
119.6760556
 20
42.371666666666663
 30
0.0
 11
121.9060556
 21
42.0
 31
0.0
  0
LINE
  5
15D5
  8
250
 10
119.6760556
 20
41.62833333333333
 30
0.0
 11
121.9060556
 21
42.0
 31
0.0
  0
LINE
  5
15D6
  8
250
 10
121.9060556
 20
42.0
 30
0.0
 11
119.6760556
 21
42.0
 31
0.0
  0
LINE
  5
15D7
  8
250
 10
59.136055599999992
 20
41.62833333333333
 30
0.0
 11
56.906055599999988
 21
42.0
 31
0.0
  0
LINE
  5
15D8
  8
250
 10
59.136055599999992
 20
42.371666666666663
 30
0.0
 11
56.906055599999988
 21
42.0
 31
0.0
  0
LINE
  5
15D9
  8
250
 10
56.906055599999988
 20
42.0
 30
0.0
 11
59.136055599999992
 21
42.0
 31
0.0
  0
TEXT
  5
15DA
  8
250
 10
132.0
 20
-4.0714285714285712
 30
0.0
 40
3.0
  1
\U+2205
 50
90.0
1001
ACAD
1000
MTEXTBEGIN
1070
    73
1070
     1
1070
    44
1040
1.0
1070
    74
1070
     0
1000
MTEXTEND
1000
MTEXTBEGIN
1070
    73
1070
     1
1070
    44
1040
1.0
1070
    74
1070
     0
1000
MTEXTEND
  0
TEXT
  5
15DB
  8
250
 10
132.0
 20
-1.357142857142857
 30
0.0
 40
3.0
  1
40
 50
90.0
1001
ACAD
1000
MTEXTBEGIN
1070
    73
1070
     1
1070
    44
1040
1.0
1070
    74
1070
     0
1000
MTEXTEND
1000
MTEXTBEGIN
1070
    73
1070
     1
1070
    44
1040
1.0
1070
    74
1070
     0
1000
MTEXTEND
  0
LINE
  5
15DC
  8
250
 10
132.6283333333333
 20
17.77
 30
0.0
 11
133.0
 21
20.0
 31
0.0
  0
LINE
  5
15DD
  8
250
 10
133.37166666666661
 20
17.77
 30
0.0
 11
133.0
 21
20.0
 31
0.0
  0
LINE
  5
15DE
  8
250
 10
133.0
 20
20.0
 30
0.0
 11
133.0
 21
17.77
 31
0.0
  0
LINE
  5
15DF
  8
250
 10
133.37166666666661
 20
-17.77
 30
0.0
 11
133.0
 21
-20.0
 31
0.0
  0
LINE
  5
15E0
  8
250
 10
132.6283333333333
 20
-17.77
 30
0.0
 11
133.0
 21
-20.0
 31
0.0
  0
LINE
  5
15E1
  8
250
 10
133.0
 20
-20.0
 30
0.0
 11
133.0
 21
-17.77
 31
0.0
  0
TEXT
  5
15E2
  8
250
 10
57.406055599999988
 20
50.0
 30
0.0
 40
3.0
  1
120
1001
ACAD
1000
MTEXTBEGIN
1070
    73
1070
     1
1070
    44
1040
1.0
1070
    74
1070
     0
1000
MTEXTEND
1000
MTEXTBEGIN
1070
    73
1070
     1
1070
    44
1040
1.0
1070
    74
1070
     0
1000
MTEXTEND
1000
MTEXTBEGIN
1070
    73
1070
     1
1070
    44
1040
1.0
1070
    74
1070
     0
1000
MTEXTEND
  0
LINE
  5
15E3
  8
250
 10
119.6760556
 20
49.37166666666667
 30
0.0
 11
121.9060556
 21
49.0
 31
0.0
  0
LINE
  5
15E4
  8
250
 10
119.6760556
 20
48.62833333333333
 30
0.0
 11
121.9060556
 21
49.0
 31
0.0
  0
LINE
  5
15E5
  8
250
 10
121.9060556
 20
49.0
 30
0.0
 11
119.6760556
 21
49.0
 31
0.0
  0
LINE
  5
15E6
  8
250
 10
4.1360555999999988
 20
48.62833333333333
 30
0.0
 11
1.9060556
 21
49.0
 31
0.0
  0
LINE
  5
15E7
  8
250
 10
4.1360555999999988
 20
49.37166666666667
 30
0.0
 11
1.9060556
 21
49.0
 31
0.0
  0
LINE
  5
15E8
  8
250
 10
1.9060556
 20
49.0
 30
0.0
 11
4.1360555999999988
 21
49.0
 31
0.0
  0
LINE
  5
1647
  8
240
  6
CONTINUOUS
 10
109.25964544
 20
-19.399999999999999
 30
0.0
 11
58.059651819999999
 21
-19.399999999999999
 31
0.0
1001
GRPNAME
1000
PASTMD0O
  0
LINE
  5
1648
  8
240
  6
CONTINUOUS
 10
109.39035238927001
 20
19.399999999999999
 30
0.0
 11
58.059651819999999
 21
19.400000000000009
 31
0.0
1001
GRPNAME
1000
PASTMD0O
  0
LINE
  5
164A
  8
240
 10
121.30605559999989
 20
-10.500000000000041
 30
0.0
 11
121.30605559999989
 21
-4.021617859440286
 31
0.0
  0
LINE
  5
164B
  8
240
 10
121.30605559999989
 20
1.46861867253381
 30
0.0
 11
121.30605559999989
 21
9.0180641695105663
 31
0.0
  0
LINE
  5
164C
  8
240
 10
121.0060555999999
 20
10.50000000000003
 30
0.0
 11
121.0060555999999
 21
9.7322070123648103
 31
0.0
  0
LINE
  5
164D
  8
241
 10
120.5945892908412
 20
9.9755339127659237
 30
0.0
 11
96.728988218317326
 21
17.167437375102921
 31
0.0
  0
ARC
  5
164E
  8
240
 10
120.30605559999989
 20
9.0180641695105663
 30
0.0
 40
1.0
 50
0.0
 51
45.572978399097167
  0
ARC
  5
164F
  8
241
 10
120.30605559999989
 20
9.0180641695105663
 30
0.0
 40
1.0
 50
45.572978399097167
 51
73.229809418405196
  0
ARC
  5
1650
  8
241
 10
97.306055599999908
 20
19.08237686161366
 30
0.0
 40
2.0
 50
180.0
 51
253.22980941840521
  0
LINE
  5
1651
  8
245
 10
111.78686557089669
 20
15.159999999999989
 30
0.0
 11
119.28417426400171
 21
15.159999999999989
 31
0.0
  0
LINE
  5
1652
  8
245
 10
115.5090555999999
 20
11.76570507707204
 30
0.0
 11
115.5090555999999
 21
18.9468543854892
 31
0.0
  0
LINE
  5
1653
  8
240
 10
121.6277588107298
 20
17.299999999999962
 30
0.0
 11
121.6277588107298
 21
10.50000000000003
 31
0.0
1001
GRPNAME
1000
PASTMD03
  0
LINE
  5
1654
  8
240
 10
121.9060556
 20
17.631661198420058
 30
0.0
 11
121.6277588107298
 21
17.299999999999962
 31
0.0
1001
GRPNAME
1000
PASTMD03
  0
LINE
  5
1655
  8
240
 10
121.9060556
 20
20.0
 30
0.0
 11
121.9060556
 21
17.631661198420058
 31
0.0
1001
GRPNAME
1000
PASTMD03
  0
LINE
  5
1656
  8
240
 10
109.39035238927001
 20
19.999999999999989
 30
0.0
 11
121.9060556
 21
20.0
 31
0.0
1001
GRPNAME
1000
PASTMD03
  0
LINE
  5
1657
  8
240
 10
109.39035238927001
 20
19.399999999999999
 30
0.0
 11
109.39035238927001
 21
19.999999999999989
 31
0.0
1001
GRPNAME
1000
PASTMD03
  0
LINE
  5
1658
  8
241
 10
121.0060555999999
 20
10.50000000000003
 30
0.0
 11
118.8542018566181
 21
10.50000000000003
 31
0.0
  0
CIRCLE
  5
1659
  8
241
 10
115.5090555999999
 20
15.159999999999989
 30
0.0
 40
2.8999999999999999
  0
LINE
  5
165A
  8
241
 10
109.39035238927001
 20
19.385022821907729
 30
0.0
 11
109.39035238927001
 21
13.35193285282965
 31
0.0
  0
LINE
  5
165B
  8
240
 10
121.0060555999999
 20
10.50000000000003
 30
0.0
 11
121.6277588107298
 21
10.50000000000003
 31
0.0
  0
LINE
  5
165C
  8
241
 10
109.39035238927001
 20
19.999999999999989
 30
0.0
 11
114.9092773574051
 21
17.99729907829785
 31
0.0
  0
LINE
  5
165D
  8
241
 10
117.78884131655759
 20
16.952366337158711
 30
0.0
 11
121.6277588107298
 21
15.55930452742095
 31
0.0
  0
LINE
  5
165E
  8
241
 10
109.39035238927001
 20
14.94069547257906
 30
0.0
 11
113.0582233626232
 21
13.60970282067116
 31
0.0
  0
LINE
  5
165F
  8
241
 10
116.3953160452798
 20
12.398742601072421
 30
0.0
 11
121.6277588107298
 21
10.50000000000003
 31
0.0
  0
LINE
  5
1660
  8
240
 10
121.6277588107298
 20
-17.299999999999979
 30
0.0
 11
121.6277588107298
 21
-10.500000000000041
 31
0.0
1001
GRPNAME
1000
PASTMD03
  0
LINE
  5
1661
  8
240
 10
121.9060556
 20
-17.63166119842009
 30
0.0
 11
121.6277588107298
 21
-17.299999999999979
 31
0.0
1001
GRPNAME
1000
PASTMD03
  0
LINE
  5
1662
  8
240
 10
121.9060556
 20
-20.0
 30
0.0
 11
121.9060556
 21
-17.63166119842009
 31
0.0
1001
GRPNAME
1000
PASTMD03
  0
LINE
  5
1663
  8
240
 10
109.39035238927001
 20
-19.999999999999989
 30
0.0
 11
121.9060556
 21
-20.0
 31
0.0
1001
GRPNAME
1000
PASTMD03
  0
LINE
  5
1664
  8
240
 10
121.30605559999989
 20
-10.500000000000041
 30
0.0
 11
121.6277588107298
 21
-10.500000000000041
 31
0.0
  0
LINE
  5
1665
  8
240
 10
109.39035238927001
 20
-19.435022821573071
 30
0.0
 11
109.39035238927001
 21
-19.999999999999989
 31
0.0
1001
GRPNAME
1000
PASTMD03
  0
LINE
  5
1666
  8
241
 10
121.30605559999989
 20
-10.500000000000041
 30
0.0
 11
121.30605559999989
 21
-18.910478527454188
 31
0.0
  0
LINE
  5
1667
  8
241
  6
CONTINUOUS
 10
121.30605559999989
 20
1.59280227946064
 30
0.0
 11
110.4965497891487
 21
3.4988098020386431
 31
0.0
  0
LINE
  5
1668
  8
241
 10
109.01118019707
 20
0.4533508212379047
 30
0.0
 11
121.30605559999989
 21
-4.0216178594402789
 31
0.0
  0
LINE
  5
1669
  8
240
 10
121.30605559999989
 20
-4.021617859440286
 30
0.0
 11
121.9060555999999
 21
-4.2400000000000073
 31
0.0
  0
LINE
  5
166A
  8
241
 10
99.179247515955126
 20
-7.1002953737933563
 30
0.0
 11
121.30605559999989
 21
-11.001848635968649
 31
0.0
  0
ARC
  5
166B
  8
241
 10
99.993153530055665
 20
-2.4844049931469629
 30
0.0
 40
4.687097930055768
 50
79.999982399904255
 51
259.99999999999818
  0
LINE
  5
166C
  8
241
 10
109.1151609467514
 20
0.6665429517598512
 30
0.0
 11
100.8070595441564
 21
2.1314853874994202
 31
0.0
  0
LINE
  5
166D
  8
241
  6
CONTINUOUS
 10
110.4965497891487
 20
3.4988098020386431
 30
0.0
 11
109.01118019707
 21
0.4533508212379047
 31
0.0
  0
LINE
  5
166E
  8
241
 10
121.2927569162798
 20
1.5951471962084141
 30
0.0
 11
121.30605559999989
 21
1.468618672533833
 31
0.0
  0
LINE
  5
166F
  8
240
 10
121.30605559999989
 20
1.46861867253381
 30
0.0
 11
121.9060555999999
 21
-4.2400000000000331
 31
0.0
  0
LINE
  5
1671
  8
241
 10
120.9166713285327
 20
-19.31033763552567
 30
0.0
 11
110.0060556
 21
-19.600000000000001
 31
0.0
1001
GRPNAME
1000
PASTMD0O
  0
LINE
  5
1672
  8
240
  6
CONTINUOUS
 10
109.25964544
 20
-19.399999999999999
 30
0.0
 11
109.39035238927001
 21
-19.435022821573071
 31
0.0
1001
GRPNAME
1000
PASTMD0O
  0
ARC
  5
1673
  8
241
 10
120.9060555999999
 20
-18.910478527454188
 30
0.0
 40
0.4
 50
271.52076966114311
 51
0.0
1001
GENIUS_GENOBJ-N-FIL_13
1002
{
1000
OWNER
1000
GEN
1002
}
1001
GENIUS_GENODEF_13
1002
{
1000
HIER
1070
     0
1002
}
1002
{
1000
MANEDIT
1070
     0
1002
}
1002
{
1000
NOSEL
1070
     0
1002
}
1002
{
1000
BEHIND
1070
     0
1002
}
1002
{
1000
OTHER
1070
     0
1002
}
1002
{
1000
REACTOR
1002
}
  0
LINE
  5
1674
  8
241
 10
109.39035238927001
 20
-19.435022821573071
 30
0.0
 11
110.0060556
 21
-19.600000000000001
 31
0.0
1001
GRPNAME
1000
PASTMD0O
  0
VIEWPORT
  5
22
 67
     1
  8
0
 10
261.51769911999997
 20
148.5
 30
0.0
 40
523.03539823000006
 41
297.0
 68
     1
 69
     1
1001
ACAD
1000
MVIEW
1002
{
1070
    16
1010
0.0
1020
0.0
1030
0.0
1010
0.0
1020
0.0
1030
1.0
1040
0.0
1040
297.0
1040
261.51769911999997
1040
148.5
1040
50.0
1040
0.0
1040
0.0
1070
     0
1070
   100
1070
     1
1070
     1
1070
     0
1070
     0
1070
     0
1070
     0
1040
0.0
1040
0.0
1040
0.0
1040
1.0
1040
1.0
1040
10.0
1040
10.0
1070
     0
1002
{
1002
}
1002
}
1001
GENIUS_GENOBJ-N-SDF_13
1002
{
1000
OWNER
1000
GEN
1002
}
1001
GENIUS_GENODEF_13
1002
{
1000
HIER
1070
     0
1002
}
1002
{
1000
MANEDIT
1070
     0
1002
}
1002
{
1000
NOSEL
1070
     0
1002
}
1002
{
1000
BEHIND
1070
     0
1002
}
1002
{
1000
OTHER
1070
     0
1002
}
1002
{
1000
REACTOR
1002
}
1001
GENIUS_GENSCREG_15
1000
PF
1040
1.0
1000
DF
1040
1.0
1000
MIN
1011
0.0000000049999471
1021
0.0
1031
0.0
1021
0.0
1031
0.0
1000
MAX
1011
523.035398235
1021
0.0
1031
0.0
1021
297.0
1031
0.0
1000
FLAGS
1070
     2
  0
ENDSEC
  0
EOF
