  0
SECTION
  2
HEADER
  9
$ACADVER
  1
AC1009
  9
$INSBASE
 10
0.0
 20
0.0
 30
0.0
  9
$EXTMIN
 10
-66.407417573968814
 20
-31.71211954462456
 30
-0.0000000000074783
  9
$EXTMAX
 10
148.0236370959135
 20
61.008243111222782
 30
0.0000000000044428
  9
$LIMMIN
 10
0.0
 20
0.0
  9
$LIMMAX
 10
420.0
 20
297.0
  9
$ORTHOMODE
 70
     0
  9
$REGENMODE
 70
     1
  9
$FILLMODE
 70
     1
  9
$QTEXTMODE
 70
     0
  9
$MIRRTEXT
 70
     1
  9
$DRAGMODE
 70
     2
  9
$LTSCALE
 40
10.0
  9
$OSMODE
 70
    39
  9
$ATTMODE
 70
     1
  9
$TEXTSIZE
 40
3.0
  9
$TRACEWID
 40
1.0
  9
$TEXTSTYLE
  7
YOKO
  9
$CLAYER
  8
240
  9
$CELTYPE
  6
BYLAYER
  9
$CECOLOR
 62
   256
  9
$DIMSCALE
 40
1.0
  9
$DIMASZ
 40
2.2299999999999991
  9
$DIMEXO
 40
0.5
  9
$DIMDLI
 40
2.5
  9
$DIMRND
 40
0.0
  9
$DIMDLE
 40
0.0
  9
$DIMEXE
 40
1.0
  9
$DIMTP
 40
0.0
  9
$DIMTM
 40
0.0
  9
$DIMTXT
 40
2.799999999999998
  9
$DIMCEN
 40
0.0
  9
$DIMTSZ
 40
0.0
  9
$DIMTOL
 70
     0
  9
$DIMLIM
 70
     0
  9
$DIMTIH
 70
     0
  9
$DIMTOH
 70
     0
  9
$DIMSE1
 70
     0
  9
$DIMSE2
 70
     0
  9
$DIMTAD
 70
     3
  9
$DIMZIN
 70
     8
  9
$DIMBLK
  1

  9
$DIMASO
 70
     1
  9
$DIMSHO
 70
     1
  9
$DIMPOST
  1

  9
$DIMAPOST
  1

  9
$DIMALT
 70
     0
  9
$DIMALTD
 70
     2
  9
$DIMALTF
 40
25.399999999999999
  9
$DIMLFAC
 40
1.0
  9
$DIMTOFL
 70
     1
  9
$DIMTVP
 40
0.0
  9
$DIMTIX
 70
     1
  9
$DIMSOXD
 70
     0
  9
$DIMSAH
 70
     1
  9
$DIMBLK1
  1
OPEN
  9
$DIMBLK2
  1
OPEN
  9
$DIMSTYLE
  2
BIGT
  9
$DIMCLRD
 70
   256
  9
$DIMCLRE
 70
   256
  9
$DIMCLRT
 70
    40
  9
$DIMTFAC
 40
1.0
  9
$DIMGAP
 40
1.0
  9
$LUNITS
 70
     2
  9
$LUPREC
 70
     3
  9
$SKETCHINC
 40
1.0
  9
$FILLETRAD
 40
1.6000000000000001
  9
$AUNITS
 70
     0
  9
$AUPREC
 70
     3
  9
$MENU
  1
.
  9
$ELEVATION
 40
0.0
  9
$PELEVATION
 40
0.0
  9
$THICKNESS
 40
0.0
  9
$LIMCHECK
 70
     0
  9
$BLIPMODE
 70
     0
  9
$CHAMFERA
 40
10.0
  9
$CHAMFERB
 40
10.0
  9
$SKPOLY
 70
     0
  9
$TDCREATE
 40
2455140.6435901271
  9
$TDUPDATE
 40
2456092.7689961111
  9
$TDINDWG
 40
0.0364280556
  9
$TDUSRTIMER
 40
0.0364280556
  9
$USRTIMER
 70
     1
  9
$ANGBASE
 50
0.0
  9
$ANGDIR
 70
     0
  9
$PDMODE
 70
     1
  9
$PDSIZE
 40
-5.0
  9
$PLINEWID
 40
0.0
  9
$COORDS
 70
     2
  9
$SPLFRAME
 70
     0
  9
$SPLINETYPE
 70
     6
  9
$SPLINESEGS
 70
     8
  9
$ATTDIA
 70
     1
  9
$ATTREQ
 70
     1
  9
$HANDLING
 70
     1
  9
$HANDSEED
  5
1171
  9
$SURFTAB1
 70
     6
  9
$SURFTAB2
 70
     6
  9
$SURFTYPE
 70
     6
  9
$SURFU
 70
     6
  9
$SURFV
 70
     6
  9
$UCSNAME
  2

  9
$UCSORG
 10
0.0
 20
0.0
 30
0.0
  9
$UCSXDIR
 10
1.0
 20
0.0
 30
0.0
  9
$UCSYDIR
 10
0.0
 20
1.0
 30
0.0
  9
$PUCSNAME
  2

  9
$PUCSORG
 10
0.0
 20
0.0
 30
0.0
  9
$PUCSXDIR
 10
1.0
 20
0.0
 30
0.0
  9
$PUCSYDIR
 10
0.0
 20
1.0
 30
0.0
  9
$USERI1
 70
     1
  9
$USERI2
 70
     0
  9
$USERI3
 70
     0
  9
$USERI4
 70
     0
  9
$USERI5
 70
     0
  9
$USERR1
 40
0.0
  9
$USERR2
 40
0.0
  9
$USERR3
 40
0.0
  9
$USERR4
 40
0.0
  9
$USERR5
 40
0.0
  9
$WORLDVIEW
 70
     1
  9
$SHADEDGE
 70
     3
  9
$SHADEDIF
 70
    70
  9
$TILEMODE
 70
     1
  9
$MAXACTVP
 70
    16
  9
$PLIMCHECK
 70
     0
  9
$PEXTMIN
 10
1.0000000000000000E+020
 20
1.0000000000000000E+020
 30
1.0000000000000000E+020
  9
$PEXTMAX
 10
-1.0000000000000000E+020
 20
-1.0000000000000000E+020
 30
-1.0000000000000000E+020
  9
$PLIMMIN
 10
0.0
 20
0.0
  9
$PLIMMAX
 10
420.0
 20
297.0
  9
$UNITMODE
 70
     0
  9
$VISRETAIN
 70
     0
  9
$PLINEGEN
 70
     0
  9
$PSLTSCALE
 70
     1
  0
ENDSEC
  0
SECTION
  2
TABLES
  0
TABLE
  2
VPORT
 70
    37
  0
VPORT
  2
*ACTIVE
 70
     0
 10
0.0
 20
0.0
 11
1.0
 21
1.0
 12
40.808109760972322
 22
14.648061783299109
 13
0.0
 23
0.0
 14
7.0
 24
7.0
 15
7.0
 25
7.0
 16
0.0
 26
0.0
 36
1.0
 17
0.0
 27
0.0
 37
0.0
 40
148.01349421074309
 41
1.4552401746724879
 42
50.0
 43
0.0
 44
0.0
 50
0.0
 51
0.0
 71
     0
 72
  2000
 73
     1
 74
     0
 75
     0
 76
     0
 77
     0
 78
     0
  0
ENDTAB
  0
TABLE
  2
LTYPE
 70
    21
  0
LTYPE
  2
CONTINUOUS
 70
     0
  3
Solid line
 72
    65
 73
     0
 40
0.0
  0
LTYPE
  2
CENTER2
 70
     0
  3
___ _ ___ _ ___ _ ___ _ ___ _ ___ _ ___ _ ___ _
 72
    65
 73
     4
 40
1.125
 49
0.75
 49
-0.125
 49
0.125
 49
-0.125
  0
LTYPE
  2
HIDDEN2
 70
     0
  3
_ _ _ _ _ _ _ _ _ _ _ _ _ _ _ _ _ _ _ _ _ _ _ _
 72
    65
 73
     2
 40
0.1875
 49
0.125
 49
-0.0625
  0
LTYPE
  2
PHANTOM2
 70
     0
  3
___ _ _ ___ _ _ ___ _ _ ___ _ _ ___ _ _ ___ _ _
 72
    65
 73
     6
 40
1.25
 49
0.625
 49
-0.125
 49
0.125
 49
-0.125
 49
0.125
 49
-0.125
  0
LTYPE
  2
AMCONSTR
 70
     0
  3
_______________________
 72
    65
 73
     2
 40
9999.0
 49
9999.0
 49
0.0
  0
LTYPE
  2
HIDDEN
 70
     0
  3
Hidden __ __ __ __ __ __ __ __ __ __ __ __ __ _
 72
    65
 73
     2
 40
9.5249999999999986
 49
6.3499999999999979
 49
-3.174999999999998
  0
LTYPE
  2
CENTER
 70
     0
  3
____ _ ____ _ ____ _ ____ _ ____ _ ____ _ ____ 
 72
    65
 73
     4
 40
2.0
 49
1.25
 49
-0.25
 49
0.25
 49
-0.25
  0
LTYPE
  2
ACJISTGB
 70
     0
  3
__ . . __ . .
 72
    65
 73
     6
 40
9.0
 49
4.0
 49
-1.0
 49
1.0
 49
-1.0
 49
1.0
 49
-1.0
  0
LTYPE
  2
ACJISTGL
 70
     0
  3
_ _ _ _ _
 72
    65
 73
     2
 40
3.0
 49
2.0
 49
-1.0
  0
LTYPE
  2
ACANSTGB
 70
     0
  3
__ . . __ . .
 72
    65
 73
     6
 40
0.35433070866
 49
0.15748031496
 49
-0.03937007874
 49
0.03937007874
 49
-0.03937007874
 49
0.03937007874
 49
-0.03937007874
  0
LTYPE
  2
ACANSTGL
 70
     0
  3
_ _ _ _ _
 72
    65
 73
     2
 40
0.11811023622
 49
0.07874015748
 49
-0.03937007874
  0
LTYPE
  2
AMZIGZAG2
 70
     0
  3
/\/-/\/-/\/-/\/-/\/-/\/
 72
    65
 73
     2
 40
0.4401
 49
0.0001
 49
-0.4400000000000001
  0
ENDTAB
  0
TABLE
  2
LAYER
 70
     8
  0
LAYER
  2
0
 70
     0
 62
     7
  6
CONTINUOUS
  0
LAYER
  2
240
 70
     0
 62
     4
  6
CONTINUOUS
  0
LAYER
  2
241
 70
     0
 62
   211
  6
CONTINUOUS
  0
LAYER
  2
245
 70
     0
 62
     2
  6
CENTER2
  0
LAYER
  2
250
 70
     0
 62
     3
  6
CONTINUOUS
  0
LAYER
  2
DEFPOINTS
 70
     0
 62
     7
  6
CONTINUOUS
  0
ENDTAB
  0
TABLE
  2
STYLE
 70
     9
  0
STYLE
  2
STANDARD
 70
     0
 40
0.0
 41
1.0
 50
0.0
 71
     0
 42
3.0
  3
romans.shx
  4
BIGFONT.SHX
  0
STYLE
  2
YOKO
 70
     0
 40
0.0
 41
1.0
 50
0.0
 71
     0
 42
3.0
  3
romans.shx
  4
extfont.shx
  0
STYLE
  2
ACJISGDT
 70
     0
 40
0.0
 41
1.0
 50
0.0
 71
     0
 42
3.0
  3
amgdt.shx
  4
extfont.shx
  0
STYLE
  2
ACJISTS
 70
     0
 40
1.0
 41
1.0
 50
0.0
 71
     0
 42
3.0
  3
amgdt.shx
  4
extfont.shx
  0
STYLE
  2
ACANSTS
 70
     0
 40
1.0
 41
1.0
 50
0.0
 71
     0
 42
3.0
  3
romans.shx
  4
extfont.shx
  0
STYLE
  2
ACANSGDT
 70
     0
 40
0.0
 41
1.0
 50
0.0
 71
     0
 42
3.0
  3
amgdtans.shx
  4

  0
STYLE
  2

 70
     1
 40
0.0
 41
1.0
 50
0.0
 71
     0
 42
3.0
  3
ltypeshp.shx
  4

  0
ENDTAB
  0
TABLE
  2
VIEW
 70
     1
  0
VIEW
  2
OLE1
 70
     0
 40
148.05439877000001
 10
40.794141600000003
 20
14.65275389
 41
215.56106764
 11
0.0
 21
0.0
 31
1.0
 12
0.0
 22
0.0
 32
0.0
 42
50.0
 43
0.0
 44
0.0
 50
0.0
 71
     0
  0
ENDTAB
  0
TABLE
  2
UCS
 70
     0
  0
ENDTAB
  0
TABLE
  2
APPID
 70
    35
  0
APPID
  2
ACAD
 70
     0
  0
APPID
  2
GLOBAL
 70
     0
  0
APPID
  2
DETAIL
 70
     0
  0
APPID
  2
GRPNAME
 70
     0
  0
APPID
  2
GPARA
 70
     0
  0
APPID
  2
DCO15
 70
     0
  0
APPID
  2
ITEMNAME
 70
     0
  0
APPID
  2
GRADE_0
 70
     0
  0
APPID
  2
HATCH_TYPE
 70
     0
  0
APPID
  2
HATCH_DISPLAY
 70
     0
  0
APPID
  2
HATCH_DISTANCE
 70
     0
  0
APPID
  2
CONTENTBLOCKICON
 70
     0
  0
APPID
  2
MCAD_NO_VIS
 70
     0
  0
APPID
  2
ACAD_TEMP_GRAPHIC
 70
     0
  0
APPID
  2
ACATTRIBSERVICES
 70
     0
  0
APPID
  2
GENIUS_GENSCREG_15
 70
     0
  0
APPID
  2
GENIUS_GENODEF_13
 70
     0
  0
APPID
  2
GENIUS_GENOBJ-N-SDF_13
 70
     0
  0
APPID
  2
GENIUS_GENREC_14
 70
     0
  0
APPID
  2
GENIUS_GENOBJ-N-REC_13
 70
     0
  0
APPID
  2
GENIUS_GENDIMSH_14
 70
     0
  0
APPID
  2
GENIUS_GENOBJ-N-DIM_13
 70
     0
  0
APPID
  2
GENIUS_GENDIM_13
 70
     0
  0
APPID
  2
GENIUS_GENDTOL_13
 70
     0
  0
APPID
  2
GENIUS_GENOLIS_13
 70
     0
  0
APPID
  2
GENIUS_GENOENT_13
 70
     0
  0
APPID
  2
GENIUS_GENOBJ-F-FEM_13
 70
     0
  0
APPID
  2
GENIUS_GENOREF_13
 70
     0
  0
APPID
  2
GENIUS_GEFFEM_13
 70
     0
  0
APPID
  2
GENIUS_GEFFEMP_13
 70
     0
  0
APPID
  2
AD_DRAW
 70
     0
  0
APPID
  2
DESIGNERASSEMBLIES
 70
     0
  0
APPID
  2
ACADM_DIM_EDIT
 70
     0
  0
APPID
  2
AMDT_DM_ADJ
 70
     0
  0
APPID
  2
GENIUS_GENOBJ-N-FIL_13
 70
     0
  0
ENDTAB
  0
TABLE
  2
DIMSTYLE
 70
    32
  0
DIMSTYLE
  2
BIGT
 70
     0
  3

  4

  5

  6

  7

 40
1.0
 41
2.2299999999999991
 42
0.5
 43
7.0
 44
1.0
 45
0.0
 46
0.0
 47
0.0
 48
0.01
140
2.799999999999998
141
0.0
142
0.0
143
25.399999999999999
144
1.0
145
0.0
146
1.0
147
1.0
 71
     0
 72
     0
 73
     0
 74
     0
 75
     0
 76
     0
 77
     3
 78
     9
170
     0
171
     2
172
     1
173
     0
174
     1
175
     0
176
   256
177
   256
178
    40
  0
DIMSTYLE
  2
BIGT$0
 70
     0
  3

  4

  5

  6

  7

 40
1.0
 41
2.2299999999999991
 42
0.5
 43
7.0
 44
1.0
 45
0.0
 46
0.0
 47
0.0
 48
0.01
140
2.799999999999998
141
0.0
142
0.0
143
25.399999999999999
144
1.0
145
0.0
146
1.0
147
1.0
 71
     0
 72
     0
 73
     0
 74
     0
 75
     0
 76
     0
 77
     3
 78
     9
170
     0
171
     2
172
     1
173
     0
174
     0
175
     0
176
   256
177
   256
178
    40
  0
DIMSTYLE
  2
BIGT$2
 70
     0
  3

  4

  5

  6

  7

 40
1.0
 41
2.2299999999999991
 42
0.5
 43
7.0
 44
1.0
 45
0.0
 46
0.0
 47
0.0
 48
0.01
140
2.799999999999998
141
0.0
142
0.0
143
25.399999999999999
144
1.0
145
0.0
146
1.0
147
1.0
 71
     0
 72
     0
 73
     0
 74
     0
 75
     0
 76
     0
 77
     3
 78
     9
170
     0
171
     2
172
     1
173
     0
174
     0
175
     0
176
   256
177
   256
178
    40
  0
DIMSTYLE
  2
BIGT$3
 70
     0
  3

  4

  5

  6

  7

 40
1.0
 41
2.2299999999999991
 42
0.5
 43
2.5
 44
1.0
 45
0.0
 46
0.0
 47
0.0
 48
0.01
140
2.799999999999998
141
0.0
142
0.0
143
25.399999999999999
144
1.0
145
0.0
146
1.0
147
1.0
 71
     0
 72
     0
 73
     0
 74
     0
 75
     0
 76
     0
 77
     3
 78
     9
170
     0
171
     2
172
     1
173
     0
174
     0
175
     0
176
   256
177
   256
178
    40
  0
DIMSTYLE
  2
BIGT$4
 70
     0
  3

  4

  5

  6

  7

 40
1.0
 41
2.2299999999999991
 42
0.5
 43
2.5
 44
1.0
 45
0.0
 46
0.0
 47
0.0
 48
0.01
140
2.799999999999998
141
0.0
142
0.0
143
25.399999999999999
144
1.0
145
0.0
146
1.0
147
1.0
 71
     0
 72
     0
 73
     0
 74
     0
 75
     0
 76
     0
 77
     3
 78
     9
170
     0
171
     2
172
     1
173
     0
174
     0
175
     0
176
   256
177
   256
178
    40
  0
DIMSTYLE
  2
BIGT$6
 70
     0
  3

  4

  5

  6

  7

 40
1.0
 41
2.2299999999999991
 42
0.5
 43
2.5
 44
1.0
 45
0.0
 46
0.0
 47
0.0
 48
0.01
140
2.799999999999998
141
0.0
142
0.0
143
25.399999999999999
144
1.0
145
0.0
146
1.0
147
1.0
 71
     0
 72
     0
 73
     0
 74
     0
 75
     0
 76
     0
 77
     3
 78
     9
170
     0
171
     2
172
     1
173
     0
174
     0
175
     0
176
   256
177
   256
178
    40
  0
DIMSTYLE
  2
BIGT$7
 70
     0
  3

  4

  5

  6

  7

 40
0.0
 41
2.2299999999999991
 42
0.5
 43
7.0
 44
1.0
 45
0.0
 46
0.0
 47
0.0
 48
0.01
140
2.799999999999998
141
0.0
142
0.0
143
25.399999999999999
144
1.0
145
0.0
146
1.0
147
1.0
 71
     0
 72
     0
 73
     0
 74
     0
 75
     0
 76
     0
 77
     3
 78
     9
170
     0
171
     2
172
     0
173
     0
174
     0
175
     0
176
   256
177
   256
178
    40
  0
DIMSTYLE
  2
BIGT$SF
 70
     0
  3

  4

  5

  6

  7

 40
1.0
 41
2.2299999999999991
 42
0.5
 43
7.0
 44
1.0
 45
0.0
 46
0.0
 47
0.0
 48
0.0
140
2.799999999999998
141
0.0
142
0.0
143
25.399999999999999
144
1.0
145
0.0
146
1.0
147
1.0
 71
     0
 72
     0
 73
     0
 74
     0
 75
     0
 76
     0
 77
     3
 78
     9
170
     0
171
     2
172
     1
173
     0
174
     0
175
     0
176
   256
177
   256
178
    40
  0
DIMSTYLE
  2
BIGT$SH
 70
     0
  3

  4

  5

  6

  7

 40
1.0
 41
2.2299999999999991
 42
0.5
 43
7.0
 44
1.0
 45
0.0
 46
0.0
 47
0.0
 48
0.0
140
2.799999999999998
141
0.0
142
0.0
143
25.399999999999999
144
1.0
145
0.0
146
1.0
147
1.0
 71
     0
 72
     0
 73
     0
 74
     0
 75
     0
 76
     0
 77
     3
 78
     9
170
     0
171
     2
172
     1
173
     0
174
     0
175
     0
176
   256
177
   256
178
    40
  0
DIMSTYLE
  2
AM_ANSI
 70
     0
  3

  4
mm
  5

  6

  7

 40
1.0
 41
0.1
 42
0.05
 43
0.5
 44
0.1
 45
0.0
 46
0.0
 47
0.1
 48
0.1
140
0.12
141
0.0
142
0.0
143
25.399999999999999
144
1.0
145
0.0
146
0.71
147
0.06
 71
     0
 72
     0
 73
     1
 74
     1
 75
     0
 76
     0
 77
     0
 78
     7
170
     0
171
     2
172
     0
173
     0
174
     0
175
     0
176
   256
177
   256
178
     2
  0
DIMSTYLE
  2
AM_ANSI$3
 70
     0
  3

  4
mm
  5

  6

  7

 40
1.0
 41
0.1
 42
0.05
 43
0.5
 44
0.1
 45
0.0
 46
0.0
 47
0.1
 48
0.1
140
0.12
141
0.0
142
0.0
143
25.399999999999999
144
1.0
145
0.0
146
0.71
147
0.06
 71
     0
 72
     0
 73
     1
 74
     1
 75
     0
 76
     0
 77
     0
 78
     7
170
     0
171
     2
172
     0
173
     0
174
     0
175
     0
176
   256
177
   256
178
     2
  0
DIMSTYLE
  2
AM_ANSI$4
 70
     0
  3

  4
mm
  5

  6

  7

 40
1.0
 41
0.1
 42
0.05
 43
0.5
 44
0.1
 45
0.0
 46
0.0
 47
0.1
 48
0.1
140
0.12
141
0.0
142
0.0
143
25.399999999999999
144
1.0
145
0.0
146
0.71
147
0.06
 71
     0
 72
     0
 73
     1
 74
     1
 75
     0
 76
     0
 77
     0
 78
     7
170
     0
171
     2
172
     0
173
     0
174
     0
175
     0
176
   256
177
   256
178
     2
  0
DIMSTYLE
  2
AM_ANSI$7
 70
     0
  3

  4
mm
  5

  6

  7

 40
1.0
 41
0.1
 42
0.05
 43
0.5
 44
0.1
 45
0.0
 46
0.0
 47
0.1
 48
0.1
140
0.24
141
0.0
142
0.0
143
25.399999999999999
144
1.0
145
0.0
146
0.71
147
0.06
 71
     0
 72
     0
 73
     1
 74
     1
 75
     0
 76
     0
 77
     0
 78
     7
170
     0
171
     2
172
     0
173
     0
174
     0
175
     0
176
   256
177
   256
178
     2
  0
DIMSTYLE
  2
AM_ANSI$SF
 70
     0
  3

  4
mm
  5

  6

  7

 40
1.0
 41
0.1
 42
0.05
 43
0.5
 44
0.1
 45
0.0
 46
0.0
 47
0.1
 48
0.1
140
0.12
141
0.0
142
0.0
143
25.399999999999999
144
1.0
145
0.0
146
0.71
147
0.06
 71
     0
 72
     0
 73
     1
 74
     1
 75
     1
 76
     1
 77
     0
 78
     7
170
     0
171
     2
172
     0
173
     0
174
     0
175
     0
176
   256
177
   256
178
     2
  0
DIMSTYLE
  2
AM_ANSI$SH
 70
     0
  3

  4
mm
  5

  6

  7

 40
1.0
 41
0.1
 42
0.05
 43
0.5
 44
0.1
 45
0.0
 46
0.0
 47
0.1
 48
0.1
140
0.12
141
0.0
142
0.0
143
25.399999999999999
144
1.0
145
0.0
146
0.71
147
0.06
 71
     0
 72
     0
 73
     1
 74
     1
 75
     1
 76
     1
 77
     0
 78
     7
170
     0
171
     2
172
     0
173
     1
174
     0
175
     0
176
   256
177
   256
178
     2
  0
ENDTAB
  0
ENDSEC
  0
SECTION
  2
BLOCKS
  0
BLOCK
  8
0
  2
$MODEL_SPACE
 70
     0
 10
0.0
 20
0.0
 30
0.0
  3
$MODEL_SPACE
  1

  0
ENDBLK
  5
FD9
  8
0
  0
BLOCK
 67
     1
  8
0
  2
$PAPER_SPACE
 70
     0
 10
0.0
 20
0.0
 30
0.0
  3
$PAPER_SPACE
  1

  0
ENDBLK
  5
FD5
 67
     1
  8
0
  0
BLOCK
  8
0
  2
_OPEN
 70
     0
 10
0.0
 20
0.0
 30
0.0
  3
_OPEN
  1

  0
LINE
  5
D90
  8
0
  6
BYBLOCK
 62
     0
 10
-1.0
 20
0.1666666666666666
 30
0.0
 11
0.0
 21
0.0
 31
0.0
  0
LINE
  5
D91
  8
0
  6
BYBLOCK
 62
     0
 10
-1.0
 20
-0.1666666666666666
 30
0.0
 11
0.0
 21
0.0
 31
0.0
  0
LINE
  5
D92
  8
0
  6
BYBLOCK
 62
     0
 10
0.0
 20
0.0
 30
0.0
 11
-1.0
 21
0.0
 31
0.0
  0
ENDBLK
  5
D93
  8
0
  0
BLOCK
  8
0
  2
矢印なし
 70
     0
 10
0.0
 20
0.0
 30
0.0
  3
矢印なし
  1

  0
ENDBLK
  5
6E5
  8
0
  0
ENDSEC
  0
SECTION
  2
ENTITIES
  0
INSERT
  5
6E6
  8
245
  2
矢印なし
 10
175.62382697000001
 20
90.551235719999994
 30
0.0
  0
TEXT
  5
885
  8
241
 10
-65.400000000000006
 20
56.0
 30
0.0
 40
5.0
  1
BBT40-FCM25092L-135
  7
YOKO
 11
-65.400000000000006
 21
56.0
 31
0.0
 73
     1
  0
LINE
  5
B1B
  8
250
 10
-32.458397099999999
 20
-28.409457620000001
 30
0.0
 11
-50.191730440000001
 21
-28.409457620000001
 31
0.0
1001
ITEMNAME
1000
LNSP2
  0
LINE
  5
DF6
  8
245
 10
-66.400000000000006
 20
0.0
 30
0.0
 11
136.0
 21
0.0
 31
0.0
  0
LINE
  5
DF7
  8
240
  6
CONTINUOUS
 10
21.600000000000001
 20
-31.5
 30
0.0
 11
26.0
 21
-31.5
 31
0.0
  0
LINE
  5
DF8
  8
240
  6
CONTINUOUS
 10
21.600000000000001
 20
31.5
 30
0.0
 11
26.0
 21
31.5
 31
0.0
  0
LINE
  5
DF9
  8
245
  6
CENTER2
 10
16.600000000000001
 20
-31.5
 30
0.0
 11
16.600000000000001
 21
31.5
 31
0.0
  0
LINE
  5
DFA
  8
241
  6
CONTINUOUS
 10
21.600000000000001
 20
0.0
 30
0.0
 11
21.600000000000001
 21
31.5
 31
0.0
  0
LINE
  5
DFB
  8
241
  6
CONTINUOUS
 10
11.6
 20
31.5
 30
0.0
 11
11.6
 21
0.0
 31
0.0
  0
LINE
  5
DFC
  8
240
  6
CONTINUOUS
 10
11.6
 20
31.5
 30
0.0
 11
14.48675135
 21
26.5
 31
0.0
  0
LINE
  5
DFD
  8
240
  6
CONTINUOUS
 10
1.0
 20
22.225000000000001
 30
0.0
 11
1.0
 21
30.5
 31
0.0
  0
LINE
  5
DFE
  8
240
  6
CONTINUOUS
 10
21.600000000000001
 20
31.5
 30
0.0
 11
18.713248650000001
 21
26.5
 31
0.0
  0
LINE
  5
DFF
  8
241
  6
HIDDEN2
 10
23.0
 20
22.5
 30
0.0
 11
23.0
 21
31.5
 31
0.0
  0
LINE
  5
E00
  8
240
  6
CONTINUOUS
 10
0.0
 20
22.225000000000001
 30
0.0
 11
-64.030891030000006
 21
12.887161730000001
 31
0.0
  0
LINE
  5
E01
  8
240
  6
CONTINUOUS
 10
0.0
 20
-22.225000000000001
 30
0.0
 11
-64.030891030000006
 21
-12.887161730000001
 31
0.0
  0
LINE
  5
E02
  8
240
  6
CONTINUOUS
 10
-65.400000000000006
 20
11.303908959999999
 30
0.0
 11
-65.400000000000006
 21
0.0
 31
0.0
  0
LINE
  5
E03
  8
240
  6
CONTINUOUS
 10
-65.400000000000006
 20
-11.303908959999999
 30
0.0
 11
-65.400000000000006
 21
0.0
 31
0.0
  0
ARC
  5
E04
  8
240
  6
CONTINUOUS
 10
-63.79999999999999
 20
-11.303908959999999
 30
0.0
 40
1.6000000000000001
 50
180.0
 51
261.70285503000002
  0
ARC
  5
E05
  8
240
  6
CONTINUOUS
 10
-63.79999999999999
 20
11.303908959999999
 30
0.0
 40
1.6000000000000001
 50
98.297144969999977
 51
180.0
  0
LINE
  5
E06
  8
241
  6
CONTINUOUS
 10
14.48675135
 20
-26.5
 30
0.0
 11
14.48675135
 21
0.0
 31
0.0
  0
LINE
  5
E07
  8
241
  6
CONTINUOUS
 10
18.713248650000001
 20
-26.5
 30
0.0
 11
18.713248650000001
 21
0.0
 31
0.0
  0
LINE
  5
E08
  8
241
  6
CONTINUOUS
 10
21.600000000000001
 20
0.0
 30
0.0
 11
21.600000000000001
 21
-31.5
 31
0.0
  0
LINE
  5
E09
  8
241
  6
CONTINUOUS
 10
11.6
 20
-31.5
 30
0.0
 11
11.6
 21
0.0
 31
0.0
  0
LINE
  5
E0A
  8
241
 10
1.0
 20
0.0
 30
0.0
 11
1.0
 21
-22.225000000000001
 31
0.0
  0
LINE
  5
E0B
  8
241
  6
CONTINUOUS
 10
0.0
 20
-22.225000000000001
 30
0.0
 11
0.0
 21
0.0
 31
0.0
  0
LINE
  5
E0C
  8
240
  6
CONTINUOUS
 10
2.0
 20
-31.5
 30
0.0
 11
11.6
 21
-31.5
 31
0.0
  0
LINE
  5
E0D
  8
241
  6
HIDDEN2
 10
23.0
 20
-22.5
 30
0.0
 11
1.0
 21
-22.5
 31
0.0
  0
LINE
  5
E0E
  8
240
  6
CONTINUOUS
 10
1.0
 20
-22.225000000000001
 30
0.0
 11
1.0
 21
-30.5
 31
0.0
  0
ARC
  5
E0F
  8
240
  6
CONTINUOUS
 10
2.0
 20
-30.5
 30
0.0
 40
1.0
 50
180.0
 51
270.0
  0
LINE
  5
E10
  8
240
 10
0.0
 20
-22.225000000000001
 30
0.0
 11
1.0
 21
-22.225000000000001
 31
0.0
  0
LINE
  5
E11
  8
240
  6
CONTINUOUS
 10
18.713248650000001
 20
-26.5
 30
0.0
 11
14.48675135
 21
-26.5
 31
0.0
  0
LINE
  5
E12
  8
240
  6
CONTINUOUS
 10
14.48675135
 20
-26.5
 30
0.0
 11
11.6
 21
-31.5
 31
0.0
  0
LINE
  5
E13
  8
241
  6
HIDDEN2
 10
23.0
 20
-22.5
 30
0.0
 11
23.0
 21
-31.5
 31
0.0
  0
LINE
  5
E14
  8
240
  6
CONTINUOUS
 10
18.713248650000001
 20
-26.5
 30
0.0
 11
21.600000000000001
 21
-31.5
 31
0.0
  0
LINE
  5
E15
  8
241
 10
1.0
 20
0.0
 30
0.0
 11
1.0
 21
22.225000000000001
 31
0.0
  0
LINE
  5
E16
  8
241
  6
CONTINUOUS
 10
0.0
 20
22.225000000000001
 30
0.0
 11
0.0
 21
0.0
 31
0.0
  0
LINE
  5
E17
  8
241
  6
CONTINUOUS
 10
18.713248650000001
 20
26.5
 30
0.0
 11
18.713248650000001
 21
0.0
 31
0.0
  0
LINE
  5
E18
  8
241
  6
CONTINUOUS
 10
14.48675135
 20
26.5
 30
0.0
 11
14.48675135
 21
0.0
 31
0.0
  0
LINE
  5
E19
  8
241
  6
HIDDEN2
 10
23.0
 20
22.5
 30
0.0
 11
1.0
 21
22.5
 31
0.0
  0
LINE
  5
E1A
  8
240
 10
0.0
 20
22.225000000000001
 30
0.0
 11
1.0
 21
22.225000000000001
 31
0.0
  0
LINE
  5
E1B
  8
240
  6
CONTINUOUS
 10
18.713248650000001
 20
26.5
 30
0.0
 11
14.48675135
 21
26.5
 31
0.0
  0
LINE
  5
E1C
  8
240
  6
CONTINUOUS
 10
2.0
 20
31.5
 30
0.0
 11
11.6
 21
31.5
 31
0.0
  0
ARC
  5
E1D
  8
240
  6
CONTINUOUS
 10
2.0
 20
30.5
 30
0.0
 40
1.0
 50
90.0
 51
180.0
  0
ARC
  5
E1E
  8
240
  6
CONTINUOUS
 10
32.0
 20
30.0
 30
0.0
 40
5.0
 50
180.0
 51
241.15627655
  0
LINE
  5
E1F
  8
241
  6
CONTINUOUS
 10
27.0
 20
0.0
 30
0.0
 11
27.0
 21
30.0
 31
0.0
  0
LINE
  5
E22
  8
240
  6
CONTINUOUS
 10
47.742228779999976
 20
-15.62183186
 30
0.0
 11
29.587890049999999
 21
-25.620305309999999
 31
0.0
  0
LINE
  5
E23
  8
241
  6
CONTINUOUS
 10
27.0
 20
0.0
 30
0.0
 11
27.0
 21
-30.0
 31
0.0
  0
ARC
  5
E24
  8
240
  6
CONTINUOUS
 10
32.0
 20
-30.0
 30
0.0
 40
5.0
 50
118.84372345
 51
180.0
  0
ARC
  5
E25
  8
240
  6
CONTINUOUS
 10
26.0
 20
-30.5
 30
0.0
 40
1.0
 50
270.0
 51
0.0
  0
LINE
  5
E26
  8
240
  6
CONTINUOUS
 10
27.0
 20
-30.5
 30
0.0
 11
27.0
 21
-30.0
 31
0.0
  0
LINE
  5
E27
  8
241
  6
CONTINUOUS
 10
54.5
 20
11.9
 30
0.0
 11
54.5
 21
0.0
 31
0.0
  0
LINE
  5
E28
  8
241
  6
CONTINUOUS
 10
54.5
 20
-11.9
 30
0.0
 11
54.5
 21
0.0
 31
0.0
  0
ARC
  5
E29
  8
240
  6
CONTINUOUS
 10
62.214888479999992
 20
-41.899999999999999
 30
0.0
 40
30.0
 50
90.0
 51
118.84370585000001
  0
LINE
  5
E2A
  8
240
  6
CONTINUOUS
 10
47.742228779999976
 20
15.62183186
 30
0.0
 11
29.587890049999999
 21
25.620305309999999
 31
0.0
  0
ARC
  5
E2B
  8
240
  6
CONTINUOUS
 10
62.214888479999992
 20
41.899999999999999
 30
0.0
 40
30.0
 50
241.15629415000001
 51
270.0
  0
ARC
  5
E40
  8
240
  6
CONTINUOUS
 10
26.0
 20
30.5
 30
0.0
 40
1.0
 50
0.0
 51
90.0
  0
LINE
  5
E41
  8
240
  6
CONTINUOUS
 10
27.0
 20
30.5
 30
0.0
 11
27.0
 21
30.0
 31
0.0
  0
LINE
  5
E91
  8
240
  6
CONTINUOUS
 10
124.2130527242022
 20
-11.9
 30
0.0
 11
62.214888479999992
 21
-11.9
 31
0.0
1001
GRPNAME
1000
PASTMD0N
  0
LINE
  5
E92
  8
240
  6
CONTINUOUS
 10
124.2130527242022
 20
11.9
 30
0.0
 11
62.214888479999992
 21
11.9
 31
0.0
1001
GRPNAME
1000
PASTMD0N
  0
LINE
  5
E9D
  8
245
 10
125.76834944375619
 20
9.1529999999999241
 30
0.0
 11
132.35816907775961
 21
9.1529999999999241
 31
0.0
  0
LINE
  5
E9E
  8
245
 10
129.43199999999959
 20
11.66320134552266
 30
0.0
 11
129.43200000000081
 21
6.7667411759452172
 31
0.0
  0
LINE
  5
E9F
  8
241
 10
133.7654594584088
 20
5.3368196378789232
 30
0.0
 11
115.2345405415907
 21
10.43908634297556
 31
0.0
  0
ARC
  5
EA1
  8
241
 10
115.4999999999995
 20
11.403208366342559
 30
0.0
 40
1.0
 50
180.00000000001791
 51
254.60574432855719
  0
LINE
  5
EA2
  8
241
 10
114.4999999999994
 20
11.899999999999929
 30
0.0
 11
114.4999999999994
 21
11.40320836634254
 31
0.0
  0
ARC
  5
EA3
  8
241
 10
133.5
 20
4.3726976145119041
 30
0.0
 40
1.0
 50
0.0
 51
74.60574432855725
  0
CIRCLE
  5
EA4
  8
241
 10
129.43200000000019
 20
9.1529999999999241
 30
0.0
 40
2.0
  0
LINE
  5
EA5
  8
240
 10
124.2130527242022
 20
12.499999999999959
 30
0.0
 11
134.9999999999998
 21
12.49999999999992
 31
0.0
1001
GRPNAME
1000
PASTMD05
  0
LINE
  5
EA6
  8
241
 10
131.35685515996721
 20
5.9999999999999538
 30
0.0
 11
134.50000000000469
 21
5.9999999999999467
 31
0.0
1001
GRPNAME
1000
PASTMD05
  0
LINE
  5
EA7
  8
240
 10
134.6509472757981
 20
5.9999999999999432
 30
0.0
 11
134.6509472757981
 21
10.294015161927639
 31
0.0
1001
GRPNAME
1000
PASTMD05
  0
LINE
  5
EA8
  8
240
 10
134.6509472757981
 20
10.294015161927639
 30
0.0
 11
135.0
 21
10.70999999999994
 31
0.0
1001
GRPNAME
1000
PASTMD05
  0
LINE
  5
EA9
  8
240
 10
135.0
 20
10.70999999999994
 30
0.0
 11
135.0
 21
12.49999999999994
 31
0.0
1001
GRPNAME
1000
PASTMD05
  0
LINE
  5
EAA
  8
241
 10
124.2130527242022
 20
11.899999999999929
 30
0.0
 11
124.2130527242022
 21
7.9669604880042382
 31
0.0
1001
GRPNAME
1000
PASTMD05
  0
LINE
  5
EAB
  8
241
 10
124.2130527242022
 20
12.499999999999959
 30
0.0
 11
128.91005469075279
 21
11.08369238724204
 31
0.0
  0
LINE
  5
EAC
  8
241
 10
130.93424057641801
 20
10.473330735294439
 30
0.0
 11
134.6509472757981
 21
9.3526158558442223
 31
0.0
  0
LINE
  5
EAD
  8
241
 10
124.2130527242022
 20
9.1473841441556996
 30
0.0
 11
127.7421425294413
 21
8.0832422100323171
 31
0.0
  0
LINE
  5
EAE
  8
241
 10
130.24880656791001
 20
7.3273968036236381
 30
0.0
 11
134.6509472757981
 21
5.9999999999999547
 31
0.0
  0
LINE
  5
EB1
  8
240
 10
134.6509472757981
 20
5.9999999999999432
 30
0.0
 11
134.50000000000469
 21
5.9999999999999467
 31
0.0
  0
LINE
  5
EB2
  8
240
 10
124.2130527242022
 20
11.9
 30
0.0
 11
124.2130527242022
 21
12.499999999999959
 31
0.0
  0
LINE
  5
EB7
  8
250
 10
135.5
 20
12.5
 30
0.0
 11
148.0
 21
12.5
 31
0.0
  0
LINE
  5
EB8
  8
250
 10
147.0
 20
-10.27
 30
0.0
 11
147.0
 21
10.27
 31
0.0
  0
LINE
  5
EBC
  8
250
 10
0.0
 20
22.725000000000001
 30
0.0
 11
0.0
 21
43.0
 31
0.0
  0
LINE
  5
EBD
  8
250
 10
135.0
 20
13.0
 30
0.0
 11
135.0
 21
43.0
 31
0.0
  0
LINE
  5
EBE
  8
250
 10
2.2299999999999991
 20
42.0
 30
0.0
 11
132.77000000000001
 21
42.0
 31
0.0
  0
LINE
  5
EC2
  8
250
 10
60.0
 20
12.481873909999999
 30
0.0
 11
60.0
 21
36.0
 31
0.0
  0
LINE
  5
EC3
  8
250
 10
135.0
 20
13.0
 30
0.0
 11
135.0
 21
36.0
 31
0.0
  0
LINE
  5
EC4
  8
250
 10
62.229999999999983
 20
35.0
 30
0.0
 11
132.77000000000001
 21
35.0
 31
0.0
  0
LINE
  5
EC8
  8
250
 10
126.0
 20
13.0
 30
0.0
 11
126.0
 21
29.0
 31
0.0
  0
LINE
  5
EC9
  8
250
 10
135.0
 20
13.0
 30
0.0
 11
135.0
 21
29.0
 31
0.0
  0
LINE
  5
ECA
  8
250
 10
128.22999999999999
 20
28.0
 30
0.0
 11
132.77000000000001
 21
28.0
 31
0.0
  0
TEXT
  5
ECE
  8
250
 10
-47.925063773333321
 20
-27.409457620000001
 30
0.0
 40
2.799999999999998
  1
BBT40
  7
YOKO
1001
ITEMNAME
1000
LNSP3
1001
ACAD
1000
MTEXTBEGIN
1070
    73
1070
     1
1070
    44
1040
1.0
1070
    74
1070
     0
1000
MTEXTEND
1000
MTEXTBEGIN
1070
    73
1070
     1
1070
    44
1040
1.0
1070
    74
1070
     0
1000
MTEXTEND
1000
MTEXTBEGIN
1070
    73
1070
     1
1070
    44
1040
1.0
1070
    74
1070
     0
1000
MTEXTEND
  0
LINE
  5
ED1
  8
250
 10
-27.759420810687661
 20
-20.270591950042281
 30
0.0
 11
-32.458397099999999
 21
-28.409457620000001
 31
0.0
1001
ACAD
1000
DSTYLE
1002
{
1070
     6
1000
OPEN
1070
   343
1005
594
1002
}
  0
LINE
  5
ED2
  8
250
 10
-28.081293585694709
 20
-20.084758616594339
 30
0.0
 11
-26.64442081
 21
-18.339355300000001
 31
0.0
  0
LINE
  5
ED3
  8
250
 10
-27.437548035680631
 20
-20.456425283490219
 30
0.0
 11
-26.64442081
 21
-18.339355300000001
 31
0.0
  0
LINE
  5
ED4
  8
250
 10
-26.64442081
 20
-18.339355300000001
 30
0.0
 11
-27.759420810687661
 21
-20.270591950042281
 31
0.0
  0
TEXT
  5
ED5
  8
250
 10
64.654793949999998
 20
43.0
 30
0.0
 40
2.799999999999998
  1
135
1001
ACAD
1000
MTEXTBEGIN
1070
    73
1070
     1
1070
    44
1040
1.0
1070
    74
1070
     0
1000
MTEXTEND
  0
LINE
  5
ED6
  8
250
 10
132.77000000000001
 20
42.371666666666663
 30
0.0
 11
135.0
 21
42.0
 31
0.0
  0
LINE
  5
ED7
  8
250
 10
132.77000000000001
 20
41.62833333333333
 30
0.0
 11
135.0
 21
42.0
 31
0.0
  0
LINE
  5
ED8
  8
250
 10
135.0
 20
42.0
 30
0.0
 11
132.77000000000001
 21
42.0
 31
0.0
  0
TEXT
  5
ED9
  8
250
 10
94.833333333333314
 20
36.0
 30
0.0
 40
2.799999999999998
  1
75
1001
ACAD
1000
MTEXTBEGIN
1070
    73
1070
     1
1070
    44
1040
1.0
1070
    74
1070
     0
1000
MTEXTEND
1000
MTEXTBEGIN
1070
    73
1070
     1
1070
    44
1040
1.0
1070
    74
1070
     0
1000
MTEXTEND
1000
MTEXTBEGIN
1070
    73
1070
     1
1070
    44
1040
1.0
1070
    74
1070
     0
1000
MTEXTEND
  0
LINE
  5
EDA
  8
250
 10
132.77000000000001
 20
35.37166666666667
 30
0.0
 11
135.0
 21
35.0
 31
0.0
  0
LINE
  5
EDB
  8
250
 10
132.77000000000001
 20
34.62833333333333
 30
0.0
 11
135.0
 21
35.0
 31
0.0
  0
LINE
  5
EDC
  8
250
 10
135.0
 20
35.0
 30
0.0
 11
132.77000000000001
 21
35.0
 31
0.0
  0
LINE
  5
EDD
  8
250
 10
62.229999999999983
 20
34.62833333333333
 30
0.0
 11
60.0
 21
35.0
 31
0.0
  0
LINE
  5
EDE
  8
250
 10
62.229999999999983
 20
35.37166666666667
 30
0.0
 11
60.0
 21
35.0
 31
0.0
  0
LINE
  5
EDF
  8
250
 10
60.0
 20
35.0
 30
0.0
 11
62.229999999999983
 21
35.0
 31
0.0
  0
TEXT
  5
EE0
  8
250
 10
129.23333333333329
 20
29.0
 30
0.0
 40
2.799999999999998
  1
9
1001
ACAD
1000
MTEXTBEGIN
1070
    73
1070
     1
1070
    44
1040
1.0
1070
    74
1070
     0
1000
MTEXTEND
1000
MTEXTBEGIN
1070
    73
1070
     1
1070
    44
1040
1.0
1070
    74
1070
     0
1000
MTEXTEND
1000
MTEXTBEGIN
1070
    73
1070
     1
1070
    44
1040
1.0
1070
    74
1070
     0
1000
MTEXTEND
  0
LINE
  5
EE1
  8
250
 10
132.77000000000001
 20
28.371666666666659
 30
0.0
 11
135.0
 21
28.0
 31
0.0
  0
LINE
  5
EE2
  8
250
 10
132.77000000000001
 20
27.62833333333333
 30
0.0
 11
135.0
 21
28.0
 31
0.0
  0
LINE
  5
EE3
  8
250
 10
135.0
 20
28.0
 30
0.0
 11
132.77000000000001
 21
28.0
 31
0.0
  0
LINE
  5
EE4
  8
250
 10
128.22999999999999
 20
27.62833333333333
 30
0.0
 11
126.0
 21
28.0
 31
0.0
  0
LINE
  5
EE5
  8
250
 10
128.22999999999999
 20
28.371666666666659
 30
0.0
 11
126.0
 21
28.0
 31
0.0
  0
LINE
  5
EE6
  8
250
 10
126.0
 20
28.0
 30
0.0
 11
128.22999999999999
 21
28.0
 31
0.0
  0
LINE
  5
EE7
  8
250
 10
2.2299999999999991
 20
41.62833333333333
 30
0.0
 11
0.0
 21
42.0
 31
0.0
  0
LINE
  5
EE8
  8
250
 10
2.2299999999999991
 20
42.371666666666663
 30
0.0
 11
0.0
 21
42.0
 31
0.0
  0
LINE
  5
EE9
  8
250
 10
0.0
 20
42.0
 30
0.0
 11
2.2299999999999991
 21
42.0
 31
0.0
  0
TEXT
  5
EEA
  8
250
 10
146.0
 20
-3.799999999999998
 30
0.0
 40
2.799999999999998
  1
\U+2205
 50
90.0
1001
ACAD
1000
MTEXTBEGIN
1070
    73
1070
     1
1070
    44
1040
1.0
1070
    74
1070
     0
1000
MTEXTEND
1000
MTEXTBEGIN
1070
    73
1070
     1
1070
    44
1040
1.0
1070
    74
1070
     0
1000
MTEXTEND
1000
MTEXTBEGIN
1070
    73
1070
     1
1070
    44
1040
1.0
1070
    74
1070
     0
1000
MTEXTEND
  0
TEXT
  5
EEB
  8
250
 10
146.0
 20
-1.2666666666666651
 30
0.0
 40
2.799999999999998
  1
25
 50
90.0
1001
ACAD
1000
MTEXTBEGIN
1070
    73
1070
     1
1070
    44
1040
1.0
1070
    74
1070
     0
1000
MTEXTEND
1000
MTEXTBEGIN
1070
    73
1070
     1
1070
    44
1040
1.0
1070
    74
1070
     0
1000
MTEXTEND
1000
MTEXTBEGIN
1070
    73
1070
     1
1070
    44
1040
1.0
1070
    74
1070
     0
1000
MTEXTEND
  0
LINE
  5
EEC
  8
250
 10
146.6283333333333
 20
10.27
 30
0.0
 11
147.0
 21
12.5
 31
0.0
  0
LINE
  5
EED
  8
250
 10
147.3716666666667
 20
10.27
 30
0.0
 11
147.0
 21
12.5
 31
0.0
  0
LINE
  5
EEE
  8
250
 10
147.0
 20
12.5
 30
0.0
 11
147.0
 21
10.27
 31
0.0
  0
LINE
  5
10F4
  8
241
 10
124.4505045161352
 20
-11.9
 30
0.0
 11
124.92887618759261
 21
-12.03058478699552
 31
0.0
1001
GRPNAME
1000
PASTMD06
  0
LINE
  5
10F5
  8
241
  6
CONTINUOUS
 10
124.4505045161155
 20
7.9015809794443399
 30
0.0
 11
124.4505045160998
 21
-11.85339825314429
 31
0.0
1001
GRPNAME
1000
PASTMD06
  0
LINE
  5
10F6
  8
240
  6
CONTINUOUS
 10
134.50000000000469
 20
5.9999999999999467
 30
0.0
 11
134.49999999999531
 21
-5.9999999999999449
 31
0.0
1001
GRPNAME
1000
PASTMD06
  0
LINE
  5
10F7
  8
241
 10
134.11052267282591
 20
-11.81024940334453
 30
0.0
 11
125.0737006483002
 21
-12.048060509245881
 31
0.0
1001
GRPNAME
1000
PASTMD06
  0
ARC
  5
10F8
  8
241
 10
125.0605473072565
 20
-11.54823354956943
 30
0.0
 40
0.5000000000000262
 50
254.7315283676721
 51
271.50743575783167
1001
GRPNAME
1000
PASTMD06
  0
ARC
  5
10F9
  8
241
 10
134.0999999999909
 20
-11.410387835603389
 30
0.0
 40
0.399999999999987
 50
271.50743575358342
 51
359.9999999948086
1001
GRPNAME
1000
PASTMD06
  0
LINE
  5
10FF
  8
240
 10
124.2130527242022
 20
-12.499999999999959
 30
0.0
 11
134.9999999999998
 21
-12.49999999999992
 31
0.0
1001
GRPNAME
1000
PASTMD05
  0
LINE
  5
1100
  8
240
 10
134.6509472757981
 20
-5.9999999999999432
 30
0.0
 11
134.6509472757981
 21
-10.294015161927639
 31
0.0
1001
GRPNAME
1000
PASTMD05
  0
LINE
  5
1101
  8
240
 10
134.6509472757981
 20
-10.294015161927639
 30
0.0
 11
135.0
 21
-10.70999999999994
 31
0.0
1001
GRPNAME
1000
PASTMD05
  0
LINE
  5
1102
  8
240
 10
135.0
 20
-10.70999999999994
 30
0.0
 11
135.0
 21
-12.49999999999994
 31
0.0
1001
GRPNAME
1000
PASTMD05
  0
LINE
  5
1103
  8
240
 10
134.6509472757981
 20
-5.9999999999999432
 30
0.0
 11
134.49999999999531
 21
-5.9999999999999449
 31
0.0
  0
LINE
  5
1104
  8
240
 10
124.2130527242022
 20
-11.9
 30
0.0
 11
124.2130527242022
 21
-12.499999999999959
 31
0.0
  0
LINE
  5
1107
  8
241
 10
124.2130527242022
 20
-11.9
 30
0.0
 11
124.4505045161352
 21
-11.9
 31
0.0
  0
LINE
  5
1108
  8
241
 10
134.49999999999531
 20
-5.9999999999999449
 30
0.0
 11
134.49999999999091
 21
-11.41038783563963
 31
0.0
  0
LINE
  5
1112
  8
250
 10
135.5
 20
-12.5
 30
0.0
 11
148.0
 21
-12.5
 31
0.0
  0
LINE
  5
1113
  8
250
 10
146.6283333333333
 20
-10.27
 30
0.0
 11
147.0
 21
-12.5
 31
0.0
  0
LINE
  5
1114
  8
250
 10
147.3716666666667
 20
-10.27
 30
0.0
 11
147.0
 21
-12.5
 31
0.0
  0
LINE
  5
1115
  8
250
 10
147.0
 20
-12.5
 30
0.0
 11
147.0
 21
-10.27
 31
0.0
  0
VIEWPORT
  5
22
 67
     1
  8
0
 10
261.51769911999997
 20
148.5
 30
0.0
 40
523.03539823000006
 41
297.0
 68
     1
 69
     1
1001
ACAD
1000
MVIEW
1002
{
1070
    16
1010
0.0
1020
0.0
1030
0.0
1010
0.0
1020
0.0
1030
1.0
1040
0.0
1040
297.0
1040
261.51769911999997
1040
148.5
1040
50.0
1040
0.0
1040
0.0
1070
     0
1070
   100
1070
     1
1070
     1
1070
     0
1070
     0
1070
     0
1070
     0
1040
0.0
1040
0.0
1040
0.0
1040
1.0
1040
1.0
1040
10.0
1040
10.0
1070
     0
1002
{
1002
}
1002
}
1001
GENIUS_GENODEF_13
1002
{
1000
HIER
1070
     0
1002
}
1002
{
1000
MANEDIT
1070
     0
1002
}
1002
{
1000
NOSEL
1070
     0
1002
}
1002
{
1000
BEHIND
1070
     0
1002
}
1002
{
1000
OTHER
1070
     0
1002
}
1002
{
1000
REACTOR
1002
}
1001
GENIUS_GENOBJ-N-SDF_13
1002
{
1000
OWNER
1000
GEN
1002
}
1001
GENIUS_GENSCREG_15
1000
PF
1040
1.0
1000
DF
1040
1.0
1000
MIN
1011
0.0000000049999471
1021
0.0
1031
0.0
1021
0.0
1031
0.0
1000
MAX
1011
523.035398235
1021
0.0
1031
0.0
1021
297.0
1031
0.0
1000
FLAGS
1070
     2
  0
ENDSEC
  0
EOF
