ISO-10303-21;
HEADER;
FILE_DESCRIPTION((''),'1');
FILE_NAME('//Big_tech03/bigt/Translate/11_3D_Field/02_Step_Field/31_\X2\30E130AC30B730F330AF30ED30BF30C330D430F330B030DB30EB30C0\X0\ MGT/01_\X2\672C4F53\X0\/BBT/BBT30/BBT30-MGT3-70.stp','2013-07-25T05:05:05',(''),(''),'Spatial Interop R18','Kubotek KeyCreator V8.5.1 (14335)',' ');
FILE_SCHEMA(('CONFIG_CONTROL_DESIGN'));
ENDSEC;
DATA;
#1=DESIGN_CONTEXT('',#27,'design');
#2=APPLICATION_PROTOCOL_DEFINITION('INTERNATIONAL STANDARD','config_control_design',1994,#27);
#3=PRODUCT_CATEGORY_RELATIONSHIP('NONE','NONE',#28,#29);
#4=DATE_AND_TIME(#30,#31);
#5=DATE_TIME_ROLE('creation_date');
#6=DATE_TIME_ROLE('classification_date');
#7=PERSON_AND_ORGANIZATION_ROLE('creator');
#8=PERSON_AND_ORGANIZATION_ROLE('design_supplier');
#9=PERSON_AND_ORGANIZATION_ROLE('classification_officer');
#10=PERSON_AND_ORGANIZATION_ROLE('design_owner');
#11=APPROVAL_PERSON_ORGANIZATION(#32,#33,#34);
#12=APPROVAL_DATE_TIME(#4,#33);
#13=CC_DESIGN_APPROVAL(#33,(#35,#36,#37));
#14=CC_DESIGN_DATE_AND_TIME_ASSIGNMENT(#4,#5,(#37));
#15=CC_DESIGN_DATE_AND_TIME_ASSIGNMENT(#4,#6,(#35));
#16=CC_DESIGN_PERSON_AND_ORGANIZATION_ASSIGNMENT(#32,#10,(#38));
#17=CC_DESIGN_PERSON_AND_ORGANIZATION_ASSIGNMENT(#32,#7,(#37));
#18=CC_DESIGN_PERSON_AND_ORGANIZATION_ASSIGNMENT(#32,#7,(#36));
#19=CC_DESIGN_PERSON_AND_ORGANIZATION_ASSIGNMENT(#32,#8,(#36));
#20=CC_DESIGN_SECURITY_CLASSIFICATION(#35,(#36));
#21=CC_DESIGN_PERSON_AND_ORGANIZATION_ASSIGNMENT(#32,#9,(#35));
#22=SHAPE_DEFINITION_REPRESENTATION(#39,#40);
#23= (GEOMETRIC_REPRESENTATION_CONTEXT(3)GLOBAL_UNCERTAINTY_ASSIGNED_CONTEXT((#43))GLOBAL_UNIT_ASSIGNED_CONTEXT((#45,#46,#47))REPRESENTATION_CONTEXT('NONE','WORKSPACE'));
#27=APPLICATION_CONTEXT('CONFIGURATION CONTROLLED 3D DESIGNS OF MECHANICAL PARTS AND ASSEMBLIES');
#28=PRODUCT_CATEGORY('part','NONE');
#29=PRODUCT_RELATED_PRODUCT_CATEGORY('detail',' ',(#38));
#30=CALENDAR_DATE(2013,25,6);
#31=LOCAL_TIME(14,5,5.0,#49);
#32=PERSON_AND_ORGANIZATION(#50,#51);
#33=APPROVAL(#52,'SOLID MODEL');
#34=APPROVAL_ROLE('APPROVED');
#35=SECURITY_CLASSIFICATION('','',#53);
#36=PRODUCT_DEFINITION_FORMATION_WITH_SPECIFIED_SOURCE(' ','NONE',#38,.NOT_KNOWN.);
#37=PRODUCT_DEFINITION('NONE','NONE',#36,#1);
#38=PRODUCT('1','1','PART-1-DESC',(#54));
#39=PRODUCT_DEFINITION_SHAPE('NONE','NONE',#37);
#40=ADVANCED_BREP_SHAPE_REPRESENTATION('1',(#55,#56),#23);
#43=UNCERTAINTY_MEASURE_WITH_UNIT(LENGTH_MEASURE(1.0E-006),#45,'','');
#45= (CONVERSION_BASED_UNIT('MILLIMETRE',#59)LENGTH_UNIT()NAMED_UNIT(#62));
#46= (NAMED_UNIT(#64)PLANE_ANGLE_UNIT()SI_UNIT($,.RADIAN.));
#47= (NAMED_UNIT(#64)SOLID_ANGLE_UNIT()SI_UNIT($,.STERADIAN.));
#49=COORDINATED_UNIVERSAL_TIME_OFFSET(9,0,.AHEAD.);
#50=PERSON('','UNSPECIFIED',$,$,$,$);
#51=ORGANIZATION('UNSPECIFIED','UNSPECIFIED','UNSPECIFIED');
#52=APPROVAL_STATUS('approved');
#53=SECURITY_CLASSIFICATION_LEVEL('unclassified');
#54=MECHANICAL_CONTEXT('',#27,'mechanical');
#55=MANIFOLD_SOLID_BREP('1',#70);
#56=AXIS2_PLACEMENT_3D('',#71,#72,#73);
#59=LENGTH_MEASURE_WITH_UNIT(LENGTH_MEASURE(1.0),#74);
#62=DIMENSIONAL_EXPONENTS(1.0,0.0,0.0,0.0,0.0,0.0,0.0);
#64=DIMENSIONAL_EXPONENTS(0.0,0.0,0.0,0.0,0.0,0.0,0.0);
#70=CLOSED_SHELL('',(#75,#76,#77,#78,#79,#80,#81,#82,#83,#84,#85,#86,#87,#88,#89,#90,#91,#92,#93,#94,#95));
#71=CARTESIAN_POINT('',(0.0,0.0,0.0));
#72=DIRECTION('',(0.0,0.0,1.0));
#73=DIRECTION('',(1.0,0.0,0.0));
#74= (NAMED_UNIT(#62)LENGTH_UNIT()SI_UNIT(.MILLI.,.METRE.));
#75=ADVANCED_FACE('',(#97),#98,.T.);
#76=ADVANCED_FACE('',(#99,#100),#101,.T.);
#77=ADVANCED_FACE('',(#102,#103),#104,.T.);
#78=ADVANCED_FACE('',(#105,#106),#107,.T.);
#79=ADVANCED_FACE('',(#108,#109),#110,.T.);
#80=ADVANCED_FACE('',(#111,#112),#113,.T.);
#81=ADVANCED_FACE('',(#114,#115),#116,.T.);
#82=ADVANCED_FACE('',(#117,#118),#119,.T.);
#83=ADVANCED_FACE('',(#120,#121),#122,.T.);
#84=ADVANCED_FACE('',(#123,#124),#125,.T.);
#85=ADVANCED_FACE('',(#126,#127),#128,.T.);
#86=ADVANCED_FACE('',(#129,#130),#131,.T.);
#87=ADVANCED_FACE('',(#132,#133),#134,.T.);
#88=ADVANCED_FACE('',(#135,#136),#137,.T.);
#89=ADVANCED_FACE('',(#138,#139),#140,.T.);
#90=ADVANCED_FACE('',(#141,#142),#143,.T.);
#91=ADVANCED_FACE('',(#144,#145),#146,.T.);
#92=ADVANCED_FACE('',(#147,#148),#149,.T.);
#93=ADVANCED_FACE('',(#150,#151),#152,.T.);
#94=ADVANCED_FACE('',(#153,#154),#155,.T.);
#95=ADVANCED_FACE('',(#156),#157,.T.);
#97=FACE_OUTER_BOUND('',#158,.T.);
#98=PLANE('',#159);
#99=FACE_BOUND('',#160,.T.);
#100=FACE_BOUND('',#161,.T.);
#101=CONICAL_SURFACE('',#162,12.34575,0.144815870053812);
#102=FACE_BOUND('',#163,.T.);
#103=FACE_BOUND('',#164,.T.);
#104=CYLINDRICAL_SURFACE('',#165,15.875);
#105=FACE_OUTER_BOUND('',#166,.T.);
#106=FACE_BOUND('',#167,.T.);
#107=PLANE('',#168);
#108=FACE_BOUND('',#169,.T.);
#109=FACE_BOUND('',#170,.T.);
#110=CYLINDRICAL_SURFACE('',#171,23.0);
#111=FACE_BOUND('',#172,.T.);
#112=FACE_BOUND('',#173,.T.);
#113=CONICAL_SURFACE('',#174,21.0,1.0471975511966);
#114=FACE_BOUND('',#175,.T.);
#115=FACE_BOUND('',#176,.T.);
#116=CYLINDRICAL_SURFACE('',#177,19.0);
#117=FACE_BOUND('',#178,.T.);
#118=FACE_BOUND('',#179,.T.);
#119=CONICAL_SURFACE('',#180,21.0,1.04719755119663);
#120=FACE_BOUND('',#181,.T.);
#121=FACE_BOUND('',#182,.T.);
#122=CYLINDRICAL_SURFACE('',#183,23.0);
#123=FACE_BOUND('',#184,.T.);
#124=FACE_OUTER_BOUND('',#185,.T.);
#125=PLANE('',#186);
#126=FACE_BOUND('',#187,.T.);
#127=FACE_BOUND('',#188,.T.);
#128=CONICAL_SURFACE('',#189,10.9000000000001,0.732815101786543);
#129=FACE_BOUND('',#190,.T.);
#130=FACE_BOUND('',#191,.T.);
#131=CYLINDRICAL_SURFACE('',#192,10.0);
#132=FACE_BOUND('',#193,.T.);
#133=FACE_OUTER_BOUND('',#194,.T.);
#134=PLANE('',#195);
#135=FACE_BOUND('',#196,.T.);
#136=FACE_BOUND('',#197,.T.);
#137=CYLINDRICAL_SURFACE('',#198,6.75000000000001);
#138=FACE_BOUND('',#199,.T.);
#139=FACE_BOUND('',#200,.T.);
#140=CONICAL_SURFACE('',#201,6.42499999999996,1.04719755119651);
#141=FACE_BOUND('',#202,.T.);
#142=FACE_BOUND('',#203,.T.);
#143=CYLINDRICAL_SURFACE('',#204,6.09999999999991);
#144=FACE_BOUND('',#205,.T.);
#145=FACE_BOUND('',#206,.T.);
#146=CONICAL_SURFACE('',#207,6.04999999999996,0.0831412318878618);
#147=FACE_BOUND('',#208,.T.);
#148=FACE_BOUND('',#209,.T.);
#149=CYLINDRICAL_SURFACE('',#210,6.0);
#150=FACE_BOUND('',#211,.T.);
#151=FACE_OUTER_BOUND('',#212,.T.);
#152=PLANE('',#213);
#153=FACE_BOUND('',#214,.T.);
#154=FACE_BOUND('',#215,.T.);
#155=CONICAL_SURFACE('',#216,4.70462157690427,0.785398163397443);
#156=FACE_OUTER_BOUND('',#217,.T.);
#157=PLANE('',#218);
#158=EDGE_LOOP('',(#219));
#159=AXIS2_PLACEMENT_3D('',#220,#221,#222);
#160=EDGE_LOOP('',(#223));
#161=EDGE_LOOP('',(#224));
#162=AXIS2_PLACEMENT_3D('',#225,#226,#227);
#163=EDGE_LOOP('',(#228));
#164=EDGE_LOOP('',(#229));
#165=AXIS2_PLACEMENT_3D('',#230,#231,#232);
#166=EDGE_LOOP('',(#233));
#167=EDGE_LOOP('',(#234));
#168=AXIS2_PLACEMENT_3D('',#235,#236,#237);
#169=EDGE_LOOP('',(#238));
#170=EDGE_LOOP('',(#239));
#171=AXIS2_PLACEMENT_3D('',#240,#241,#242);
#172=EDGE_LOOP('',(#243));
#173=EDGE_LOOP('',(#244));
#174=AXIS2_PLACEMENT_3D('',#245,#246,#247);
#175=EDGE_LOOP('',(#248));
#176=EDGE_LOOP('',(#249));
#177=AXIS2_PLACEMENT_3D('',#250,#251,#252);
#178=EDGE_LOOP('',(#253));
#179=EDGE_LOOP('',(#254));
#180=AXIS2_PLACEMENT_3D('',#255,#256,#257);
#181=EDGE_LOOP('',(#258));
#182=EDGE_LOOP('',(#259));
#183=AXIS2_PLACEMENT_3D('',#260,#261,#262);
#184=EDGE_LOOP('',(#263));
#185=EDGE_LOOP('',(#264));
#186=AXIS2_PLACEMENT_3D('',#265,#266,#267);
#187=EDGE_LOOP('',(#268));
#188=EDGE_LOOP('',(#269));
#189=AXIS2_PLACEMENT_3D('',#270,#271,#272);
#190=EDGE_LOOP('',(#273));
#191=EDGE_LOOP('',(#274));
#192=AXIS2_PLACEMENT_3D('',#275,#276,#277);
#193=EDGE_LOOP('',(#278));
#194=EDGE_LOOP('',(#279));
#195=AXIS2_PLACEMENT_3D('',#280,#281,#282);
#196=EDGE_LOOP('',(#283));
#197=EDGE_LOOP('',(#284));
#198=AXIS2_PLACEMENT_3D('',#285,#286,#287);
#199=EDGE_LOOP('',(#288));
#200=EDGE_LOOP('',(#289));
#201=AXIS2_PLACEMENT_3D('',#290,#291,#292);
#202=EDGE_LOOP('',(#293));
#203=EDGE_LOOP('',(#294));
#204=AXIS2_PLACEMENT_3D('',#295,#296,#297);
#205=EDGE_LOOP('',(#298));
#206=EDGE_LOOP('',(#299));
#207=AXIS2_PLACEMENT_3D('',#300,#301,#302);
#208=EDGE_LOOP('',(#303));
#209=EDGE_LOOP('',(#304));
#210=AXIS2_PLACEMENT_3D('',#305,#306,#307);
#211=EDGE_LOOP('',(#308));
#212=EDGE_LOOP('',(#309));
#213=AXIS2_PLACEMENT_3D('',#310,#311,#312);
#214=EDGE_LOOP('',(#313));
#215=EDGE_LOOP('',(#314));
#216=AXIS2_PLACEMENT_3D('',#315,#316,#317);
#217=EDGE_LOOP('',(#318));
#218=AXIS2_PLACEMENT_3D('',#319,#320,#321);
#219=ORIENTED_EDGE('',*,*,#322,.F.);
#220=CARTESIAN_POINT('',(-2.9636452539366E-015,4.40824999999994,48.4000000000001));
#221=DIRECTION('',(-6.12323399573677E-017,-1.22464679914735E-016,1.0));
#222=DIRECTION('',(1.23259516440783E-032,-1.0,-1.22464679914735E-016));
#223=ORIENTED_EDGE('',*,*,#323,.F.);
#224=ORIENTED_EDGE('',*,*,#322,.T.);
#225=CARTESIAN_POINT('',(-1.4818226269683E-015,-1.17170063810845E-014,24.2));
#226=DIRECTION('',(6.12323399573677E-017,5.83136689396939E-016,-1.0));
#227=DIRECTION('',(-4.05339767375698E-032,1.0,5.83136689396939E-016));
#228=ORIENTED_EDGE('',*,*,#324,.F.);
#229=ORIENTED_EDGE('',*,*,#323,.T.);
#230=CARTESIAN_POINT('',(3.06161699786847E-017,2.68646984702331E-015,-0.500000000000014));
#231=DIRECTION('',(-6.12323399573677E-017,-5.83136689397037E-016,1.0));
#232=DIRECTION('',(-4.0533976737539E-032,1.0,5.83136689397037E-016));
#233=ORIENTED_EDGE('',*,*,#325,.F.);
#234=ORIENTED_EDGE('',*,*,#324,.T.);
#235=CARTESIAN_POINT('',(6.12323399573674E-017,19.4375,-0.999999999999998));
#236=DIRECTION('',(-6.12323399573677E-017,-1.22464679914735E-016,1.0));
#237=DIRECTION('',(1.23259516440783E-032,-1.0,-1.22464679914735E-016));
#238=ORIENTED_EDGE('',*,*,#326,.F.);
#239=ORIENTED_EDGE('',*,*,#325,.T.);
#240=CARTESIAN_POINT('',(3.24531401774053E-016,5.48552595612931E-015,-5.30000000000007));
#241=DIRECTION('',(-6.12323399573677E-017,-5.83136689397001E-016,1.0));
#242=DIRECTION('',(-4.05339767375282E-032,1.0,5.83136689397001E-016));
#243=ORIENTED_EDGE('',*,*,#327,.F.);
#244=ORIENTED_EDGE('',*,*,#326,.T.);
#245=CARTESIAN_POINT('',(6.58535479505731E-016,8.66636196973227E-015,-10.7547005383794));
#246=DIRECTION('',(-6.12323399573677E-017,-5.83136689397068E-016,1.0));
#247=DIRECTION('',(-4.05339767375401E-032,1.0,5.83136689397068E-016));
#248=ORIENTED_EDGE('',*,*,#328,.F.);
#249=ORIENTED_EDGE('',*,*,#327,.T.);
#250=CARTESIAN_POINT('',(8.32759823420209E-016,1.03255604781251E-014,-13.6000000000001));
#251=DIRECTION('',(-6.12323399573677E-017,-5.8313668939715E-016,1.0));
#252=DIRECTION('',(-4.05339767375356E-032,1.0,5.8313668939715E-016));
#253=ORIENTED_EDGE('',*,*,#329,.F.);
#254=ORIENTED_EDGE('',*,*,#328,.T.);
#255=CARTESIAN_POINT('',(1.00698416733468E-015,1.19847589865178E-014,-16.4452994616208));
#256=DIRECTION('',(6.12323399573677E-017,5.83136689397068E-016,-1.0));
#257=DIRECTION('',(-4.05339767375401E-032,1.0,5.83136689397069E-016));
#258=ORIENTED_EDGE('',*,*,#330,.F.);
#259=ORIENTED_EDGE('',*,*,#329,.T.);
#260=CARTESIAN_POINT('',(1.21240033115588E-015,1.39410079523869E-014,-19.8));
#261=DIRECTION('',(-6.12323399573677E-017,-5.83136689397001E-016,1.0));
#262=DIRECTION('',(-4.0533976737497E-032,1.0,5.83136689397001E-016));
#263=ORIENTED_EDGE('',*,*,#331,.F.);
#264=ORIENTED_EDGE('',*,*,#330,.T.);
#265=CARTESIAN_POINT('',(1.3471114790621E-015,17.4000000000001,-22.0000000000001));
#266=DIRECTION('',(6.12323399573677E-017,2.45473712216686E-014,-1.0));
#267=DIRECTION('',(-1.50792013243568E-030,1.0,2.45473712216686E-014));
#268=ORIENTED_EDGE('',*,*,#332,.F.);
#269=ORIENTED_EDGE('',*,*,#331,.T.);
#270=CARTESIAN_POINT('',(1.40834381901947E-015,1.58070453584577E-014,-23.0000000000003));
#271=DIRECTION('',(-6.12323399573677E-017,-5.83136689397035E-016,1.0));
#272=DIRECTION('',(-4.05339767375281E-032,1.0,5.83136689397035E-016));
#273=ORIENTED_EDGE('',*,*,#333,.F.);
#274=ORIENTED_EDGE('',*,*,#332,.T.);
#275=CARTESIAN_POINT('',(2.20436423846525E-015,2.33878223206196E-014,-36.0000000000002));
#276=DIRECTION('',(-6.12323399573677E-017,-5.83136689396944E-016,1.0));
#277=DIRECTION('',(-4.05339767375289E-032,1.0,5.83136689396944E-016));
#278=ORIENTED_EDGE('',*,*,#334,.F.);
#279=ORIENTED_EDGE('',*,*,#333,.T.);
#280=CARTESIAN_POINT('',(2.93915231795373E-015,8.37500000000004,-48.0000000000014));
#281=DIRECTION('',(6.12323399573677E-017,7.63136048619223E-013,-1.0));
#282=DIRECTION('',(-4.67334331155053E-029,1.0,7.63136048619223E-013));
#283=ORIENTED_EDGE('',*,*,#335,.F.);
#284=ORIENTED_EDGE('',*,*,#334,.T.);
#285=CARTESIAN_POINT('',(3.12082789284066E-015,3.2115621743887E-014,-50.9669872981092));
#286=DIRECTION('',(-6.12323399573677E-017,-5.83136689396896E-016,1.0));
#287=DIRECTION('',(-4.05339767375362E-032,1.0,5.83136689396896E-016));
#288=ORIENTED_EDGE('',*,*,#336,.F.);
#289=ORIENTED_EDGE('',*,*,#335,.T.);
#290=CARTESIAN_POINT('',(3.3139930328137E-015,3.39551999848823E-014,-54.1216134337024));
#291=DIRECTION('',(-6.12323399573677E-017,-5.83136689397245E-016,1.0));
#292=DIRECTION('',(-4.05339767375488E-032,1.0,5.83136689397245E-016));
#293=ORIENTED_EDGE('',*,*,#337,.F.);
#294=ORIENTED_EDGE('',*,*,#336,.T.);
#295=CARTESIAN_POINT('',(3.42317107272422E-015,3.49949401090162E-014,-55.9046261355938));
#296=DIRECTION('',(-6.12323399573677E-017,-5.83136689397101E-016,1.0));
#297=DIRECTION('',(-4.05339767375333E-032,1.0,5.83136689397101E-016));
#298=ORIENTED_EDGE('',*,*,#338,.F.);
#299=ORIENTED_EDGE('',*,*,#337,.T.);
#300=CARTESIAN_POINT('',(3.55759895152319E-015,3.62751431562961E-014,-58.1000000000021));
#301=DIRECTION('',(-6.12323399573677E-017,-5.83136689397237E-016,1.0));
#302=DIRECTION('',(-4.05339767375875E-032,1.0,5.83136689397237E-016));
#303=ORIENTED_EDGE('',*,*,#339,.F.);
#304=ORIENTED_EDGE('',*,*,#338,.T.);
#305=CARTESIAN_POINT('',(3.93083323529505E-015,3.98295819505631E-014,-64.1953784230988));
#306=DIRECTION('',(-6.12323399573677E-017,-5.83136689396837E-016,1.0));
#307=DIRECTION('',(-4.05339767375229E-032,1.0,5.83136689396837E-016));
#308=ORIENTED_EDGE('',*,*,#340,.F.);
#309=ORIENTED_EDGE('',*,*,#339,.T.);
#310=CARTESIAN_POINT('',(4.26732811509227E-015,5.42962157690445,-69.6907568461918));
#311=DIRECTION('',(6.12323399573677E-017,1.22464679914735E-016,-1.0));
#312=DIRECTION('',(-1.23259516440783E-032,1.0,1.22464679914735E-016));
#313=ORIENTED_EDGE('',*,*,#341,.F.);
#314=ORIENTED_EDGE('',*,*,#340,.T.);
#315=CARTESIAN_POINT('',(4.27679595605403E-015,4.31243042456552E-014,-69.8453784230964));
#316=DIRECTION('',(-6.12323399573677E-017,-5.83136689396946E-016,1.0));
#317=DIRECTION('',(-4.05339767375488E-032,1.0,5.83136689396946E-016));
#318=ORIENTED_EDGE('',*,*,#341,.T.);
#319=CARTESIAN_POINT('',(4.28626379701579E-015,2.27499999999992,-70.0000000000009));
#320=DIRECTION('',(6.12323399573677E-017,1.22464679914735E-016,-1.0));
#321=DIRECTION('',(-1.23259516440783E-032,1.0,1.22464679914735E-016));
#322=EDGE_CURVE('',#342,#342,#343,.T.);
#323=EDGE_CURVE('',#344,#344,#345,.T.);
#324=EDGE_CURVE('',#346,#346,#347,.T.);
#325=EDGE_CURVE('',#348,#348,#349,.T.);
#326=EDGE_CURVE('',#350,#350,#351,.T.);
#327=EDGE_CURVE('',#352,#352,#353,.T.);
#328=EDGE_CURVE('',#354,#354,#355,.T.);
#329=EDGE_CURVE('',#356,#356,#357,.T.);
#330=EDGE_CURVE('',#358,#358,#359,.T.);
#331=EDGE_CURVE('',#360,#360,#361,.T.);
#332=EDGE_CURVE('',#362,#362,#363,.T.);
#333=EDGE_CURVE('',#364,#364,#365,.T.);
#334=EDGE_CURVE('',#366,#366,#367,.T.);
#335=EDGE_CURVE('',#368,#368,#369,.T.);
#336=EDGE_CURVE('',#370,#370,#371,.T.);
#337=EDGE_CURVE('',#372,#372,#373,.T.);
#338=EDGE_CURVE('',#374,#374,#375,.T.);
#339=EDGE_CURVE('',#376,#376,#377,.T.);
#340=EDGE_CURVE('',#378,#378,#379,.T.);
#341=EDGE_CURVE('',#380,#380,#381,.T.);
#342=VERTEX_POINT('',#382);
#343=CIRCLE('',#383,8.81649999999993);
#344=VERTEX_POINT('',#384);
#345=CIRCLE('',#385,15.875);
#346=VERTEX_POINT('',#386);
#347=CIRCLE('',#387,15.875);
#348=VERTEX_POINT('',#388);
#349=CIRCLE('',#389,23.0);
#350=VERTEX_POINT('',#390);
#351=CIRCLE('',#391,23.0);
#352=VERTEX_POINT('',#392);
#353=CIRCLE('',#393,19.0);
#354=VERTEX_POINT('',#394);
#355=CIRCLE('',#395,19.0);
#356=VERTEX_POINT('',#396);
#357=CIRCLE('',#397,23.0);
#358=VERTEX_POINT('',#398);
#359=CIRCLE('',#399,23.0);
#360=VERTEX_POINT('',#400);
#361=CIRCLE('',#401,11.8000000000001);
#362=VERTEX_POINT('',#402);
#363=CIRCLE('',#403,10.0);
#364=VERTEX_POINT('',#404);
#365=CIRCLE('',#405,10.0);
#366=VERTEX_POINT('',#406);
#367=CIRCLE('',#407,6.75000000000001);
#368=VERTEX_POINT('',#408);
#369=CIRCLE('',#409,6.75000000000001);
#370=VERTEX_POINT('',#410);
#371=CIRCLE('',#411,6.09999999999992);
#372=VERTEX_POINT('',#412);
#373=CIRCLE('',#413,6.09999999999991);
#374=VERTEX_POINT('',#414);
#375=CIRCLE('',#415,6.0);
#376=VERTEX_POINT('',#416);
#377=CIRCLE('',#417,6.0);
#378=VERTEX_POINT('',#418);
#379=CIRCLE('',#419,4.8592431538088);
#380=VERTEX_POINT('',#420);
#381=CIRCLE('',#421,4.54999999999974);
#382=CARTESIAN_POINT('',(-2.9636452539366E-015,8.8164999999999,48.4000000000001));
#383=AXIS2_PLACEMENT_3D('',#422,#423,#424);
#384=CARTESIAN_POINT('',(-1.95674482349743E-031,15.875,1.94412679364642E-015));
#385=AXIS2_PLACEMENT_3D('',#425,#426,#427);
#386=CARTESIAN_POINT('',(6.12323399573675E-017,15.875,-0.999999999999998));
#387=AXIS2_PLACEMENT_3D('',#428,#429,#430);
#388=CARTESIAN_POINT('',(6.12323399573674E-017,23.0,-0.999999999999997));
#389=AXIS2_PLACEMENT_3D('',#431,#432,#433);
#390=CARTESIAN_POINT('',(5.87830463590736E-016,23.0,-9.60000000000011));
#391=AXIS2_PLACEMENT_3D('',#434,#435,#436);
#392=CARTESIAN_POINT('',(7.29240495420725E-016,19.0,-11.9094010767586));
#393=AXIS2_PLACEMENT_3D('',#437,#438,#439);
#394=CARTESIAN_POINT('',(9.36279151419692E-016,19.0,-15.2905989232416));
#395=AXIS2_PLACEMENT_3D('',#440,#441,#442);
#396=CARTESIAN_POINT('',(1.07768918324967E-015,23.0,-17.5999999999999));
#397=AXIS2_PLACEMENT_3D('',#443,#444,#445);
#398=CARTESIAN_POINT('',(1.34711147906209E-015,23.0,-22.0));
#399=AXIS2_PLACEMENT_3D('',#446,#447,#448);
#400=CARTESIAN_POINT('',(1.3471114790621E-015,11.8000000000002,-22.0000000000003));
#401=AXIS2_PLACEMENT_3D('',#449,#450,#451);
#402=CARTESIAN_POINT('',(1.46957615897684E-015,10.0,-24.0000000000002));
#403=AXIS2_PLACEMENT_3D('',#452,#453,#454);
#404=CARTESIAN_POINT('',(2.93915231795366E-015,10.0,-48.0000000000001));
#405=AXIS2_PLACEMENT_3D('',#455,#456,#457);
#406=CARTESIAN_POINT('',(2.93915231795381E-015,6.75000000000004,-48.0000000000026));
#407=AXIS2_PLACEMENT_3D('',#458,#459,#460);
#408=CARTESIAN_POINT('',(3.30250346772751E-015,6.75000000000004,-53.9339745962157));
#409=AXIS2_PLACEMENT_3D('',#461,#462,#463);
#410=CARTESIAN_POINT('',(3.32548259789989E-015,6.09999999999995,-54.3092522711891));
#411=AXIS2_PLACEMENT_3D('',#464,#465,#466);
#412=CARTESIAN_POINT('',(3.52085954754855E-015,6.09999999999995,-57.4999999999984));
#413=AXIS2_PLACEMENT_3D('',#467,#468,#469);
#414=CARTESIAN_POINT('',(3.59433835549783E-015,6.00000000000004,-58.7000000000058));
#415=AXIS2_PLACEMENT_3D('',#470,#471,#472);
#416=CARTESIAN_POINT('',(4.26732811509227E-015,6.00000000000004,-69.6907568461918));
#417=AXIS2_PLACEMENT_3D('',#473,#474,#475);
#418=CARTESIAN_POINT('',(4.26732811509227E-015,4.85924315380885,-69.6907568461918));
#419=AXIS2_PLACEMENT_3D('',#476,#477,#478);
#420=CARTESIAN_POINT('',(4.28626379701579E-015,4.54999999999979,-70.0000000000009));
#421=AXIS2_PLACEMENT_3D('',#479,#480,#481);
#422=CARTESIAN_POINT('',(-2.9636452539366E-015,-2.58289142644938E-014,48.4000000000001));
#423=DIRECTION('',(6.12323399573677E-017,5.8313668939713E-016,-1.0));
#424=DIRECTION('',(-4.05339767375643E-032,1.0,5.8313668939713E-016));
#425=CARTESIAN_POINT('',(8.7016388700601E-031,2.39490150232478E-015,-1.4210854715202E-014));
#426=DIRECTION('',(6.12323399573677E-017,5.83136689397037E-016,-1.0));
#427=DIRECTION('',(-4.0533976737539E-032,1.0,5.83136689397037E-016));
#428=CARTESIAN_POINT('',(6.12323399573685E-017,2.97803819172185E-015,-1.00000000000001));
#429=DIRECTION('',(6.12323399573677E-017,5.83136689397037E-016,-1.0));
#430=DIRECTION('',(-4.0533976737539E-032,1.0,5.83136689397037E-016));
#431=CARTESIAN_POINT('',(6.12323399573685E-017,2.97803819172185E-015,-1.00000000000001));
#432=DIRECTION('',(6.12323399573677E-017,5.83136689397001E-016,-1.0));
#433=DIRECTION('',(-4.05339767375282E-032,1.0,5.83136689397001E-016));
#434=CARTESIAN_POINT('',(5.87830463590737E-016,7.99301372053677E-015,-9.60000000000012));
#435=DIRECTION('',(6.12323399573676E-017,5.83136689397001E-016,-1.0));
#436=DIRECTION('',(-4.0533976737497E-032,1.0,5.83136689397001E-016));
#437=CARTESIAN_POINT('',(7.29240495420726E-016,9.33971021892778E-015,-11.9094010767586));
#438=DIRECTION('',(6.12323399573677E-017,5.8313668939715E-016,-1.0));
#439=DIRECTION('',(-4.05339767375356E-032,1.0,5.8313668939715E-016));
#440=CARTESIAN_POINT('',(9.36279151419692E-016,1.13114107373224E-014,-15.2905989232416));
#441=DIRECTION('',(6.12323399573677E-017,5.8313668939715E-016,-1.0));
#442=DIRECTION('',(-4.05339767375356E-032,1.0,5.8313668939715E-016));
#443=CARTESIAN_POINT('',(1.07768918324967E-015,1.26581072357133E-014,-17.6));
#444=DIRECTION('',(6.12323399573677E-017,5.83136689397001E-016,-1.0));
#445=DIRECTION('',(-4.0533976737497E-032,1.0,5.83136689397001E-016));
#446=CARTESIAN_POINT('',(1.34711147906209E-015,1.52239086690604E-014,-22.0));
#447=DIRECTION('',(6.12323399573676E-017,5.83136689397002E-016,-1.0));
#448=DIRECTION('',(-4.0533976737497E-032,1.0,5.83136689397002E-016));
#449=CARTESIAN_POINT('',(1.3471114790621E-015,1.52239086690606E-014,-22.0000000000003));
#450=DIRECTION('',(6.12323399573677E-017,5.83136689397113E-016,-1.0));
#451=DIRECTION('',(-4.05339767375427E-032,1.0,5.83136689397113E-016));
#452=CARTESIAN_POINT('',(1.46957615897684E-015,1.63901820478548E-014,-24.0000000000003));
#453=DIRECTION('',(6.12323399573677E-017,5.83136689396943E-016,-1.0));
#454=DIRECTION('',(-4.05339767375468E-032,1.0,5.83136689396944E-016));
#455=CARTESIAN_POINT('',(2.93915231795366E-015,3.03854625933845E-014,-48.0000000000001));
#456=DIRECTION('',(6.12323399573677E-017,5.83136689396944E-016,-1.0));
#457=DIRECTION('',(-4.05339767375289E-032,1.0,5.83136689396944E-016));
#458=CARTESIAN_POINT('',(2.93915231795381E-015,3.0385462593386E-014,-48.0000000000026));
#459=DIRECTION('',(6.12323399573677E-017,5.83136689396896E-016,-1.0));
#460=DIRECTION('',(-4.05339767375362E-032,1.0,5.83136689396896E-016));
#461=CARTESIAN_POINT('',(3.30250346772751E-015,3.3845780894388E-014,-53.9339745962157));
#462=DIRECTION('',(6.12323399573677E-017,5.83136689396896E-016,-1.0));
#463=DIRECTION('',(-4.05339767375096E-032,1.0,5.83136689396896E-016));
#464=CARTESIAN_POINT('',(3.32548259789989E-015,3.40646190753766E-014,-54.3092522711891));
#465=DIRECTION('',(6.12323399573677E-017,5.83136689397101E-016,-1.0));
#466=DIRECTION('',(-4.05339767375333E-032,1.0,5.83136689397101E-016));
#467=CARTESIAN_POINT('',(3.52085954754855E-015,3.59252611426558E-014,-57.4999999999985));
#468=DIRECTION('',(6.12323399573677E-017,5.83136689397101E-016,-1.0));
#469=DIRECTION('',(-4.05339767375333E-032,1.0,5.83136689397101E-016));
#470=CARTESIAN_POINT('',(3.59433835549783E-015,3.66250251699365E-014,-58.7000000000058));
#471=DIRECTION('',(6.12323399573676E-017,5.83136689396836E-016,-1.0));
#472=DIRECTION('',(-4.05339767375229E-032,1.0,5.83136689396836E-016));
#473=CARTESIAN_POINT('',(4.26732811509227E-015,4.30341387311897E-014,-69.6907568461918));
#474=DIRECTION('',(6.12323399573676E-017,5.83136689396837E-016,-1.0));
#475=DIRECTION('',(-4.05339767375229E-032,1.0,5.83136689396837E-016));
#476=CARTESIAN_POINT('',(4.26732811509227E-015,4.30341387311897E-014,-69.6907568461918));
#477=DIRECTION('',(6.12323399573677E-017,5.83136689397023E-016,-1.0));
#478=DIRECTION('',(-4.05339767375279E-032,1.0,5.83136689397023E-016));
#479=CARTESIAN_POINT('',(4.28626379701579E-015,4.32144697601206E-014,-70.0000000000009));
#480=DIRECTION('',(6.12323399573677E-017,5.83136689397219E-016,-1.0));
#481=DIRECTION('',(-4.05339767375712E-032,1.0,5.83136689397219E-016));
ENDSEC;
END-ISO-10303-21;
