  0
SECTION
  2
HEADER
  9
$ACADVER
  1
AC1009
  9
$INSBASE
 10
0.0
 20
0.0
 30
0.0
  9
$EXTMIN
 10
-49.4000000000000128
 20
-25.0000000000000107
 30
0.0
  9
$EXTMAX
 10
105.0
 20
61.0
 30
0.0
  9
$LIMMIN
 10
0.0
 20
0.0
  9
$LIMMAX
 10
297.0
 20
210.0
  9
$ORTHOMODE
 70
     0
  9
$REGENMODE
 70
     1
  9
$FILLMODE
 70
     1
  9
$QTEXTMODE
 70
     0
  9
$MIRRTEXT
 70
     1
  9
$DRAGMODE
 70
     2
  9
$LTSCALE
 40
10.0
  9
$OSMODE
 70
  2855
  9
$ATTMODE
 70
     1
  9
$TEXTSIZE
 40
3.0
  9
$TRACEWID
 40
1.0
  9
$TEXTSTYLE
  7
YOKO
  9
$CLAYER
  8
240
  9
$CELTYPE
  6
BYLAYER
  9
$CECOLOR
 62
   256
  9
$DIMSCALE
 40
1.0
  9
$DIMASZ
 40
2.2299999999999991
  9
$DIMEXO
 40
0.5
  9
$DIMDLI
 40
7.0
  9
$DIMRND
 40
0.0
  9
$DIMDLE
 40
0.0
  9
$DIMEXE
 40
1.0
  9
$DIMTP
 40
0.0
  9
$DIMTM
 40
0.01
  9
$DIMTXT
 40
2.7999999999999989
  9
$DIMCEN
 40
0.0
  9
$DIMTSZ
 40
0.0
  9
$DIMTOL
 70
     0
  9
$DIMLIM
 70
     0
  9
$DIMTIH
 70
     0
  9
$DIMTOH
 70
     0
  9
$DIMSE1
 70
     0
  9
$DIMSE2
 70
     0
  9
$DIMTAD
 70
     3
  9
$DIMZIN
 70
     9
  9
$DIMBLK
  1
OPEN
  9
$DIMASO
 70
     1
  9
$DIMSHO
 70
     1
  9
$DIMPOST
  1

  9
$DIMAPOST
  1

  9
$DIMALT
 70
     0
  9
$DIMALTD
 70
     2
  9
$DIMALTF
 40
25.3999999999999986
  9
$DIMLFAC
 40
1.0
  9
$DIMTOFL
 70
     1
  9
$DIMTVP
 40
0.0
  9
$DIMTIX
 70
     1
  9
$DIMSOXD
 70
     0
  9
$DIMSAH
 70
     0
  9
$DIMBLK1
  1

  9
$DIMBLK2
  1

  9
$DIMSTYLE
  2
BIGT
  9
$DIMCLRD
 70
   256
  9
$DIMCLRE
 70
   256
  9
$DIMCLRT
 70
    40
  9
$DIMTFAC
 40
1.0
  9
$DIMGAP
 40
1.0
  9
$LUNITS
 70
     2
  9
$LUPREC
 70
     3
  9
$SKETCHINC
 40
1.0
  9
$FILLETRAD
 40
0.0
  9
$AUNITS
 70
     0
  9
$AUPREC
 70
     3
  9
$MENU
  1
.
  9
$ELEVATION
 40
0.0
  9
$PELEVATION
 40
0.0
  9
$THICKNESS
 40
0.0
  9
$LIMCHECK
 70
     0
  9
$BLIPMODE
 70
     0
  9
$CHAMFERA
 40
0.25
  9
$CHAMFERB
 40
0.25
  9
$SKPOLY
 70
     0
  9
$TDCREATE
 40
2458148.6371527779847383
  9
$TDUPDATE
 40
2458148.686516203917563
  9
$TDINDWG
 40
0.0240162037
  9
$TDUSRTIMER
 40
0.0240162037
  9
$USRTIMER
 70
     1
  9
$ANGBASE
 50
0.0
  9
$ANGDIR
 70
     0
  9
$PDMODE
 70
     1
  9
$PDSIZE
 40
0.0
  9
$PLINEWID
 40
0.0
  9
$COORDS
 70
     1
  9
$SPLFRAME
 70
     0
  9
$SPLINETYPE
 70
     6
  9
$SPLINESEGS
 70
     4
  9
$ATTDIA
 70
     1
  9
$ATTREQ
 70
     1
  9
$HANDLING
 70
     1
  9
$HANDSEED
  5
16F7
  9
$SURFTAB1
 70
     6
  9
$SURFTAB2
 70
     6
  9
$SURFTYPE
 70
     6
  9
$SURFU
 70
     6
  9
$SURFV
 70
     6
  9
$UCSNAME
  2

  9
$UCSORG
 10
0.0
 20
0.0
 30
0.0
  9
$UCSXDIR
 10
1.0
 20
0.0
 30
0.0
  9
$UCSYDIR
 10
0.0
 20
1.0
 30
0.0
  9
$PUCSNAME
  2

  9
$PUCSORG
 10
0.0
 20
0.0
 30
0.0
  9
$PUCSXDIR
 10
1.0
 20
0.0
 30
0.0
  9
$PUCSYDIR
 10
0.0
 20
1.0
 30
0.0
  9
$USERI1
 70
     1
  9
$USERI2
 70
     0
  9
$USERI3
 70
     0
  9
$USERI4
 70
     0
  9
$USERI5
 70
     0
  9
$USERR1
 40
0.0
  9
$USERR2
 40
0.0
  9
$USERR3
 40
0.0
  9
$USERR4
 40
0.0
  9
$USERR5
 40
0.0
  9
$WORLDVIEW
 70
     1
  9
$SHADEDGE
 70
     3
  9
$SHADEDIF
 70
    70
  9
$TILEMODE
 70
     1
  9
$MAXACTVP
 70
    16
  9
$PLIMCHECK
 70
     0
  9
$PEXTMIN
 10
1.0000000000000000E+20
 20
1.0000000000000000E+20
 30
1.0000000000000000E+20
  9
$PEXTMAX
 10
-1.0000000000000000E+20
 20
-1.0000000000000000E+20
 30
-1.0000000000000000E+20
  9
$PLIMMIN
 10
0.0
 20
0.0
  9
$PLIMMAX
 10
420.0
 20
297.0
  9
$UNITMODE
 70
     0
  9
$VISRETAIN
 70
     1
  9
$PLINEGEN
 70
     0
  9
$PSLTSCALE
 70
     1
  0
ENDSEC
  0
SECTION
  2
TABLES
  0
TABLE
  2
VPORT
 70
     1
  0
VPORT
  2
*ACTIVE
 70
     0
 10
0.0
 20
0.0
 11
1.0
 21
1.0
 12
50.4177907146640223
 22
11.1802690808032992
 13
0.0
 23
0.0
 14
7.0
 24
7.0
 15
7.0
 25
7.0
 16
0.0
 26
0.0
 36
1.0
 17
0.0
 27
0.0
 37
0.0
 40
141.5993706836165984
 41
1.9861809045226131
 42
50.0
 43
0.0
 44
0.0
 50
0.0
 51
0.0
 71
     0
 72
  2000
 73
     1
 74
     0
 75
     0
 76
     1
 77
     0
 78
     0
  0
ENDTAB
  0
TABLE
  2
LTYPE
 70
    16
  0
LTYPE
  2
CONTINUOUS
 70
     0
  3
Solid line
 72
    65
 73
     0
 40
0.0
  0
LTYPE
  2
CENTER2
 70
     0
  3
___ _ ___ _ ___ _ ___ _ ___ _ ___ _ ___ _ ___ _
 72
    65
 73
     4
 40
1.125
 49
0.75
 49
-0.125
 49
0.125
 49
-0.125
  0
LTYPE
  2
HIDDEN2
 70
     0
  3
_ _ _ _ _ _ _ _ _ _ _ _ _ _ _ _ _ _ _ _ _ _ _ _
 72
    65
 73
     2
 40
0.1875
 49
0.125
 49
-0.0625
  0
LTYPE
  2
PHANTOM2
 70
     0
  3
___ _ _ ___ _ _ ___ _ _ ___ _ _ ___ _ _ ___ _ _
 72
    65
 73
     6
 40
1.25
 49
0.625
 49
-0.125
 49
0.125
 49
-0.125
 49
0.125
 49
-0.125
  0
LTYPE
  2
CENTER
 70
     0
  3
____ _ ____ _ ____ _ ____ _ ____ _ ____ _ ____ 
 72
    65
 73
     4
 40
2.0
 49
1.25
 49
-0.25
 49
0.25
 49
-0.25
  0
LTYPE
  2
AM_ISO02W050
 70
     0
  3
__ __ __ __ __ __ __ __ __ __ __ __ __ __ __
 72
    65
 73
     2
 40
7.5
 49
6.0
 49
-1.5
  0
LTYPE
  2
AMCONSTR
 70
     0
  3
_______________________
 72
    65
 73
     2
 40
9999.0
 49
9999.0
 49
0.0
  0
LTYPE
  2
ACISOWELD
 70
     0
  3
_ _ _ _ _
 72
    65
 73
     2
 40
2.0
 49
2.0
 49
-1.0
  0
LTYPE
  2
ACISOTGB
 70
     0
  3
__ . . __ . .
 72
    65
 73
     6
 40
9.0
 49
4.0
 49
-1.0
 49
1.0
 49
-1.0
 49
1.0
 49
-1.0
  0
LTYPE
  2
ACISOTGL
 70
     0
  3
_ _ _ _ _
 72
    65
 73
     2
 40
3.0
 49
2.0
 49
-1.0
  0
LTYPE
  2
ACJISTGB
 70
     0
  3
__ . . __ . .
 72
    65
 73
     6
 40
9.0
 49
4.0
 49
-1.0
 49
1.0
 49
-1.0
 49
1.0
 49
-1.0
  0
LTYPE
  2
ACJISTGL
 70
     0
  3
_ _ _ _ _
 72
    65
 73
     2
 40
3.0
 49
2.0
 49
-1.0
  0
LTYPE
  2
HIDDEN
 70
     0
  3
Hidden __ __ __ __ __ __ __ __ __ __ __ __ __ _
 72
    65
 73
     2
 40
9.5249999999999986
 49
6.3499999999999988
 49
-3.1749999999999989
  0
LTYPE
  2
AMZIGZAG2
 70
     0
  3
/\/-/\/-/\/-/\/-/\/-/\/
 72
    65
 73
     2
 40
0.4401
 49
0.0001
 49
-0.4400000000000002
  0
LTYPE
  2
ACANSTGB
 70
     0
  3
__ . . __ . .
 72
    65
 73
     6
 40
0.35433070866
 49
0.15748031496
 49
-0.03937007874
 49
0.03937007874
 49
-0.03937007874
 49
0.03937007874
 49
-0.03937007874
  0
LTYPE
  2
ACANSTGL
 70
     0
  3
_ _ _ _ _
 72
    65
 73
     2
 40
0.11811023622
 49
0.07874015748
 49
-0.03937007874
  0
ENDTAB
  0
TABLE
  2
LAYER
 70
    10
  0
LAYER
  2
0
 70
     0
 62
     7
  6
CONTINUOUS
  0
LAYER
  2
DEFPOINTS
 70
     0
 62
     7
  6
CONTINUOUS
  0
LAYER
  2
245
 70
     0
 62
     2
  6
CENTER2
  0
LAYER
  2
240
 70
     0
 62
     4
  6
CONTINUOUS
  0
LAYER
  2
241
 70
     0
 62
   211
  6
CONTINUOUS
  0
LAYER
  2
242
 70
     0
 62
     3
  6
CONTINUOUS
  0
LAYER
  2
243
 70
     0
 62
   211
  6
HIDDEN2
  0
LAYER
  2
246
 70
     0
 62
     3
  6
PHANTOM2
  0
LAYER
  2
247
 70
     0
 62
    60
  6
CONTINUOUS
  0
LAYER
  2
250
 70
     0
 62
     3
  6
CONTINUOUS
  0
ENDTAB
  0
TABLE
  2
STYLE
 70
     7
  0
STYLE
  2
STANDARD
 70
     0
 40
0.0
 41
1.0
 50
0.0
 71
     0
 42
3.0
  3
romans.shx
  4
extfont.shx
  0
STYLE
  2
ACISOTS
 70
     0
 40
1.0
 41
1.0
 50
0.0
 71
     0
 42
3.0
  3
amgdt.shx
  4
extfont.shx
  0
STYLE
  2
ACISOGDT
 70
     0
 40
0.0
 41
1.0
 50
0.0
 71
     0
 42
3.0
  3
amgdt.shx
  4
extfont.shx
  0
STYLE
  2
ACJISTS
 70
     0
 40
1.0
 41
1.0
 50
0.0
 71
     0
 42
3.0
  3
amgdt.shx
  4
extfont.shx
  0
STYLE
  2
ACJISGDT
 70
     0
 40
0.0
 41
1.0
 50
0.0
 71
     0
 42
3.0
  3
amgdt.shx
  4
extfont.shx
  0
STYLE
  2
YOKO
 70
     0
 40
0.0
 41
1.0
 50
0.0
 71
     0
 42
3.0
  3
romans.shx
  4
extfont.shx
  0
STYLE
  2
ACANSGDT
 70
     0
 40
0.0
 41
1.0
 50
0.0
 71
     0
 42
3.0
  3
amgdt.shx
  4

  0
ENDTAB
  0
TABLE
  2
VIEW
 70
     0
  0
ENDTAB
  0
TABLE
  2
UCS
 70
     0
  0
ENDTAB
  0
TABLE
  2
APPID
 70
    38
  0
APPID
  2
ACAD
 70
     0
  0
APPID
  2
GLOBAL
 70
     0
  0
APPID
  2
DETAIL
 70
     0
  0
APPID
  2
GRPNAME
 70
     0
  0
APPID
  2
GPARA
 70
     0
  0
APPID
  2
MCAD_NO_VIS
 70
     0
  0
APPID
  2
ACAD_TEMP_GRAPHIC
 70
     0
  0
APPID
  2
ACATTRIBSERVICES
 70
     0
  0
APPID
  2
GENIUS_GENSCREG_15
 70
     0
  0
APPID
  2
GENIUS_GENODEF_13
 70
     0
  0
APPID
  2
GENIUS_GENOBJ-N-SDF_13
 70
     0
  0
APPID
  2
GENIUS_GENREC_14
 70
     0
  0
APPID
  2
GENIUS_GENOBJ-N-REC_13
 70
     0
  0
APPID
  2
GENIUS_GENDIMSH_14
 70
     0
  0
APPID
  2
GENIUS_GENOBJ-N-DIM_13
 70
     0
  0
APPID
  2
GENIUS_GENDIM_13
 70
     0
  0
APPID
  2
GENIUS_GENDTOL_13
 70
     0
  0
APPID
  2
GENIUS_GENOLIS_13
 70
     0
  0
APPID
  2
GENIUS_GENOENT_13
 70
     0
  0
APPID
  2
GENIUS_GENOBJ-F-FEM_13
 70
     0
  0
APPID
  2
GENIUS_GENOREF_13
 70
     0
  0
APPID
  2
GENIUS_GEFFEM_13
 70
     0
  0
APPID
  2
GENIUS_GEFFEMP_13
 70
     0
  0
APPID
  2
AD_DRAW
 70
     0
  0
APPID
  2
DESIGNERASSEMBLIES
 70
     0
  0
APPID
  2
ACADM_DIM_EDIT
 70
     0
  0
APPID
  2
AMDT_DM_ADJ
 70
     0
  0
APPID
  2
ACAD_NAV_VCDISPLAY
 70
     0
  0
APPID
  2
ITEMNAME
 70
     0
  0
APPID
  2
GENIUS_GENOBJ-N-FIL_13
 70
     0
  0
APPID
  2
ACAECLAYERSTANDARD
 70
     0
  0
APPID
  2
ACAD_EXEMPT_FROM_CAD_STANDARDS
 70
     0
  0
APPID
  2
ACAD_PSEXT
 70
     0
  0
APPID
  2
ACAD_DSTYLE_DIMJAG
 70
     0
  0
APPID
  2
ACAD_DSTYLE_DIMBREAK
 70
     0
  0
APPID
  2
ACAD_DSTYLE_DIMINSPECT
 70
     0
  0
APPID
  2
ACADANNOMONITORALERTICONDI
 70
     0
  0
APPID
  2
ACAD_MLEADERVER
 70
     0
  0
ENDTAB
  0
TABLE
  2
DIMSTYLE
 70
    29
  0
DIMSTYLE
  2
BIGT
 70
     0
  3

  4

  5
OPEN
  6

  7

 40
1.0
 41
2.2299999999999991
 42
0.5
 43
7.0
 44
1.0
 45
0.0
 46
0.0
 47
0.0
 48
0.01
140
2.7999999999999989
141
0.0
142
0.0
143
25.3999999999999986
144
1.0
145
0.0
146
1.0
147
1.0
 71
     0
 72
     0
 73
     0
 74
     0
 75
     0
 76
     0
 77
     3
 78
     9
170
     0
171
     2
172
     1
173
     0
174
     1
175
     0
176
   256
177
   256
178
    40
  0
DIMSTYLE
  2
AM_ISO
 70
     0
  3

  4
"
  5

  6

  7

 40
1.0
 41
2.5
 42
1.0
 43
10.0
 44
1.0
 45
0.0
 46
0.0
 47
0.1
 48
0.1
140
3.5
141
0.0
142
0.0
143
0.0393701
144
1.0
145
0.0
146
0.71
147
1.5
 71
     0
 72
     0
 73
     0
 74
     0
 75
     0
 76
     0
 77
     1
 78
     8
170
     0
171
     2
172
     1
173
     0
174
     0
175
     0
176
   256
177
   256
178
     2
  0
DIMSTYLE
  2
AM_ISO$3
 70
     0
  3

  4
"
  5

  6

  7

 40
1.0
 41
2.5
 42
1.0
 43
10.0
 44
1.0
 45
0.0
 46
0.0
 47
0.1
 48
0.1
140
3.5
141
0.0
142
0.0
143
0.0393701
144
1.0
145
0.0
146
0.71
147
1.5
 71
     0
 72
     0
 73
     0
 74
     1
 75
     0
 76
     0
 77
     1
 78
     8
170
     0
171
     2
172
     0
173
     0
174
     0
175
     0
176
   256
177
   256
178
     2
  0
DIMSTYLE
  2
AM_ISO$4
 70
     0
  3

  4
"
  5

  6

  7

 40
1.0
 41
2.5
 42
1.0
 43
10.0
 44
1.0
 45
0.0
 46
0.0
 47
0.1
 48
0.1
140
3.5
141
0.0
142
0.0
143
0.0393701
144
1.0
145
0.0
146
0.71
147
1.5
 71
     0
 72
     0
 73
     0
 74
     1
 75
     0
 76
     0
 77
     1
 78
     8
170
     0
171
     2
172
     0
173
     0
174
     0
175
     0
176
   256
177
   256
178
     2
  0
DIMSTYLE
  2
AM_ISO$6
 70
     0
  3

  4
"
  5

  6

  7

 40
1.0
 41
2.5
 42
1.0
 43
10.0
 44
1.0
 45
0.0
 46
0.0
 47
0.1
 48
0.1
140
3.5
141
0.0
142
0.0
143
0.0393701
144
1.0
145
0.0
146
0.71
147
1.5
 71
     0
 72
     0
 73
     0
 74
     0
 75
     0
 76
     0
 77
     0
 78
     8
170
     0
171
     2
172
     1
173
     0
174
     0
175
     0
176
   256
177
   256
178
     2
  0
DIMSTYLE
  2
AM_ISO$7
 70
     0
  3

  4
"
  5

  6

  7

 40
1.0
 41
2.5
 42
1.0
 43
10.0
 44
1.0
 45
0.0
 46
0.0
 47
0.1
 48
0.1
140
5.0
141
0.0
142
0.0
143
0.0393701
144
1.0
145
0.0
146
0.71
147
1.5
 71
     0
 72
     0
 73
     0
 74
     0
 75
     0
 76
     0
 77
     1
 78
     8
170
     0
171
     2
172
     1
173
     0
174
     0
175
     0
176
   256
177
   256
178
     2
  0
DIMSTYLE
  2
AM_ISO$SF
 70
     0
  3

  4
"
  5

  6

  7

 40
1.0
 41
2.5
 42
1.0
 43
10.0
 44
1.0
 45
0.0
 46
0.0
 47
0.1
 48
0.1
140
3.5
141
0.0
142
0.0
143
0.0393701
144
1.0
145
0.0
146
0.71
147
1.5
 71
     0
 72
     0
 73
     0
 74
     0
 75
     1
 76
     1
 77
     1
 78
     8
170
     0
171
     2
172
     1
173
     0
174
     0
175
     0
176
   256
177
   256
178
     2
  0
DIMSTYLE
  2
AM_ISO$SH
 70
     0
  3

  4
"
  5

  6
GENAXEH
  7

 40
1.0
 41
2.5
 42
1.0
 43
10.0
 44
1.0
 45
0.0
 46
0.0
 47
0.1
 48
0.1
140
3.5
141
0.0
142
0.0
143
0.0393701
144
2.0
145
0.0
146
0.71
147
1.5
 71
     0
 72
     0
 73
     0
 74
     0
 75
     1
 76
     1
 77
     1
 78
     8
170
     0
171
     2
172
     1
173
     1
174
     0
175
     0
176
   256
177
   256
178
     2
  0
DIMSTYLE
  2
BIGT$2
 70
     0
  3

  4

  5
OPEN
  6

  7

 40
1.0
 41
2.2299999999999991
 42
0.5
 43
7.0
 44
1.0
 45
0.0
 46
0.0
 47
0.0
 48
0.01
140
2.7999999999999989
141
0.0
142
0.0
143
25.3999999999999986
144
1.0
145
0.0
146
1.0
147
1.0
 71
     0
 72
     0
 73
     0
 74
     0
 75
     0
 76
     0
 77
     3
 78
     9
170
     0
171
     2
172
     1
173
     0
174
     0
175
     0
176
   256
177
   256
178
    40
  0
DIMSTYLE
  2
BIGT$3
 70
     0
  3

  4

  5
OPEN
  6

  7

 40
1.0
 41
2.2299999999999991
 42
0.5
 43
2.5
 44
1.0
 45
0.0
 46
0.0
 47
0.0
 48
0.01
140
2.7999999999999989
141
0.0
142
0.0
143
25.3999999999999986
144
1.0
145
0.0
146
1.0
147
1.0
 71
     0
 72
     0
 73
     0
 74
     0
 75
     0
 76
     0
 77
     3
 78
     9
170
     0
171
     2
172
     1
173
     0
174
     0
175
     0
176
   256
177
   256
178
    40
  0
DIMSTYLE
  2
BIGT$7
 70
     0
  3

  4

  5
OPEN
  6

  7

 40
0.0
 41
2.2299999999999991
 42
0.5
 43
7.0
 44
1.0
 45
0.0
 46
0.0
 47
0.0
 48
0.01
140
2.7999999999999989
141
0.0
142
0.0
143
25.3999999999999986
144
1.0
145
0.0
146
1.0
147
1.0
 71
     0
 72
     0
 73
     0
 74
     0
 75
     0
 76
     0
 77
     3
 78
     9
170
     0
171
     2
172
     0
173
     0
174
     0
175
     0
176
   256
177
   256
178
    40
  0
DIMSTYLE
  2
BIGT$6
 70
     0
  3

  4

  5
OPEN
  6

  7

 40
1.0
 41
2.2299999999999991
 42
0.5
 43
2.5
 44
1.0
 45
0.0
 46
0.0
 47
0.0
 48
0.01
140
2.7999999999999989
141
0.0
142
0.0
143
25.3999999999999986
144
1.0
145
0.0
146
1.0
147
1.0
 71
     0
 72
     0
 73
     0
 74
     0
 75
     0
 76
     0
 77
     3
 78
     9
170
     0
171
     2
172
     1
173
     0
174
     0
175
     0
176
   256
177
   256
178
    40
  0
DIMSTYLE
  2
BIGT$0
 70
     0
  3

  4

  5
OPEN
  6

  7

 40
1.0
 41
2.2299999999999991
 42
0.5
 43
7.0
 44
1.0
 45
0.0
 46
0.0
 47
0.0
 48
0.01
140
2.7999999999999989
141
0.0
142
0.0
143
25.3999999999999986
144
1.0
145
0.0
146
1.0
147
1.0
 71
     0
 72
     0
 73
     0
 74
     0
 75
     0
 76
     0
 77
     3
 78
     9
170
     0
171
     2
172
     1
173
     0
174
     0
175
     0
176
   256
177
   256
178
    40
  0
DIMSTYLE
  2
BIGT$4
 70
     0
  3

  4

  5
OPEN
  6

  7

 40
1.0
 41
2.2299999999999991
 42
0.5
 43
2.5
 44
1.0
 45
0.0
 46
0.0
 47
0.0
 48
0.01
140
2.7999999999999989
141
0.0
142
0.0
143
25.3999999999999986
144
1.0
145
0.0
146
1.0
147
1.0
 71
     0
 72
     0
 73
     0
 74
     0
 75
     0
 76
     0
 77
     3
 78
     9
170
     0
171
     2
172
     1
173
     0
174
     0
175
     0
176
   256
177
   256
178
    40
  0
DIMSTYLE
  2
BIGT$SH
 70
     0
  3

  4

  5
OPEN
  6

  7

 40
1.0
 41
2.2299999999999991
 42
0.5
 43
7.0
 44
1.0
 45
0.0
 46
0.0
 47
0.0
 48
0.0
140
2.7999999999999989
141
0.0
142
0.0
143
25.3999999999999986
144
1.0
145
0.0
146
1.0
147
1.0
 71
     0
 72
     0
 73
     0
 74
     0
 75
     0
 76
     0
 77
     3
 78
     9
170
     0
171
     2
172
     1
173
     0
174
     0
175
     0
176
   256
177
   256
178
    40
  0
DIMSTYLE
  2
BIGT$SF
 70
     0
  3

  4

  5
OPEN
  6

  7

 40
1.0
 41
2.2299999999999991
 42
0.5
 43
7.0
 44
1.0
 45
0.0
 46
0.0
 47
0.0
 48
0.0
140
2.7999999999999989
141
0.0
142
0.0
143
25.3999999999999986
144
1.0
145
0.0
146
1.0
147
1.0
 71
     0
 72
     0
 73
     0
 74
     0
 75
     0
 76
     0
 77
     3
 78
     9
170
     0
171
     2
172
     1
173
     0
174
     0
175
     0
176
   256
177
   256
178
    40
  0
DIMSTYLE
  2
TECHNICAL_OSAKA
 70
     0
  3

  4
"
  5
OPEN30
  6

  7

 40
1.0
 41
2.5
 42
1.0
 43
10.0
 44
1.0
 45
0.0
 46
0.0
 47
0.1
 48
0.1
140
2.7999999999999989
141
0.0
142
0.0
143
0.0393701
144
1.0
145
0.0
146
0.71
147
1.5
 71
     0
 72
     0
 73
     0
 74
     0
 75
     0
 76
     0
 77
     3
 78
     8
170
     0
171
     2
172
     1
173
     0
174
     0
175
     0
176
   256
177
   256
178
    40
  0
DIMSTYLE
  2
TECHNICAL_OSAKA$3
 70
     0
  3

  4
"
  5
OPEN30
  6

  7

 40
1.0
 41
2.5
 42
1.0
 43
10.0
 44
1.0
 45
0.0
 46
0.0
 47
0.1
 48
0.1
140
2.7999999999999989
141
0.0
142
0.0
143
0.0393701
144
1.0
145
0.0
146
0.71
147
1.5
 71
     0
 72
     0
 73
     0
 74
     1
 75
     0
 76
     0
 77
     3
 78
     8
170
     0
171
     2
172
     0
173
     0
174
     0
175
     0
176
   256
177
   256
178
    40
  0
DIMSTYLE
  2
TECHNICAL_OSAKA$4
 70
     0
  3

  4
"
  5
OPEN30
  6

  7

 40
1.0
 41
2.5
 42
1.0
 43
10.0
 44
1.0
 45
0.0
 46
0.0
 47
0.1
 48
0.1
140
2.7999999999999989
141
0.0
142
0.0
143
0.0393701
144
1.0
145
0.0
146
0.71
147
1.5
 71
     0
 72
     0
 73
     0
 74
     1
 75
     0
 76
     0
 77
     3
 78
     8
170
     0
171
     2
172
     0
173
     0
174
     0
175
     0
176
   256
177
   256
178
    40
  0
DIMSTYLE
  2
TECHNICAL_OSAKA$6
 70
     0
  3

  4
"
  5
OPEN30
  6

  7

 40
1.0
 41
2.5
 42
1.0
 43
10.0
 44
1.0
 45
0.0
 46
0.0
 47
0.1
 48
0.1
140
2.7999999999999989
141
0.0
142
0.0
143
0.0393701
144
1.0
145
0.0
146
0.71
147
1.5
 71
     0
 72
     0
 73
     0
 74
     0
 75
     0
 76
     0
 77
     0
 78
     8
170
     0
171
     2
172
     1
173
     0
174
     0
175
     0
176
   256
177
   256
178
    40
  0
DIMSTYLE
  2
TECHNICAL_OSAKA$7
 70
     0
  3

  4
"
  5
OPEN30
  6

  7

 40
1.0
 41
2.5
 42
1.0
 43
10.0
 44
1.0
 45
0.0
 46
0.0
 47
0.1
 48
0.1
140
2.7999999999999989
141
0.0
142
0.0
143
0.0393701
144
1.0
145
0.0
146
0.71
147
1.5
 71
     0
 72
     0
 73
     0
 74
     0
 75
     0
 76
     0
 77
     3
 78
     8
170
     0
171
     2
172
     1
173
     0
174
     0
175
     0
176
   256
177
   256
178
    40
  0
DIMSTYLE
  2
TECHNICAL_OSAKA$SF
 70
     0
  3

  4
"
  5
OPEN30
  6
OPEN30
  7
OPEN30
 40
1.0
 41
2.5
 42
1.0
 43
10.0
 44
1.0
 45
0.0
 46
0.0
 47
0.1
 48
0.1
140
3.5
141
0.0
142
0.0
143
0.0393701
144
1.0
145
0.0
146
0.71
147
1.5
 71
     0
 72
     0
 73
     0
 74
     0
 75
     1
 76
     1
 77
     3
 78
     8
170
     0
171
     2
172
     1
173
     0
174
     0
175
     0
176
   256
177
   256
178
    40
  0
DIMSTYLE
  2
TECHNICAL_OSAKA$SH
 70
     0
  3

  4
"
  5
OPEN30
  6
GENAXEH
  7
OPEN30
 40
1.0
 41
2.5
 42
1.0
 43
10.0
 44
1.0
 45
0.0
 46
0.0
 47
0.1
 48
0.1
140
3.5
141
0.0
142
0.0
143
0.0393701
144
2.0
145
0.0
146
0.71
147
1.5
 71
     0
 72
     0
 73
     0
 74
     0
 75
     1
 76
     1
 77
     3
 78
     8
170
     0
171
     2
172
     1
173
     1
174
     0
175
     0
176
   256
177
   256
178
    40
  0
DIMSTYLE
  2
AM_ANSI
 70
     0
  3

  4
mm
  5

  6

  7

 40
1.0
 41
0.12
 42
0.05
 43
0.5
 44
0.1
 45
0.0
 46
0.0
 47
0.1
 48
0.1
140
0.12
141
0.0
142
0.0
143
25.3999999999999986
144
1.0
145
0.0
146
0.71
147
0.06
 71
     0
 72
     0
 73
     1
 74
     1
 75
     0
 76
     0
 77
     0
 78
     7
170
     0
171
     2
172
     0
173
     0
174
     0
175
     0
176
   256
177
   256
178
     2
  0
DIMSTYLE
  2
AM_ANSI$3
 70
     0
  3

  4
mm
  5

  6

  7

 40
1.0
 41
0.12
 42
0.05
 43
0.5
 44
0.1
 45
0.0
 46
0.0
 47
0.1
 48
0.1
140
0.12
141
0.0
142
0.0
143
25.3999999999999986
144
1.0
145
0.0
146
0.71
147
0.06
 71
     0
 72
     0
 73
     1
 74
     1
 75
     0
 76
     0
 77
     0
 78
     7
170
     0
171
     2
172
     0
173
     0
174
     0
175
     0
176
   256
177
   256
178
     2
  0
DIMSTYLE
  2
AM_ANSI$4
 70
     0
  3

  4
mm
  5

  6

  7

 40
1.0
 41
0.12
 42
0.05
 43
0.5
 44
0.1
 45
0.0
 46
0.0
 47
0.1
 48
0.1
140
0.12
141
0.0
142
0.0
143
25.3999999999999986
144
1.0
145
0.0
146
0.71
147
0.06
 71
     0
 72
     0
 73
     1
 74
     1
 75
     0
 76
     0
 77
     0
 78
     7
170
     0
171
     2
172
     0
173
     0
174
     0
175
     0
176
   256
177
   256
178
     2
  0
DIMSTYLE
  2
AM_ANSI$7
 70
     0
  3

  4
mm
  5

  6

  7

 40
1.0
 41
0.12
 42
0.05
 43
0.5
 44
0.1
 45
0.0
 46
0.0
 47
0.1
 48
0.1
140
0.12
141
0.0
142
0.0
143
25.3999999999999986
144
1.0
145
0.0
146
0.71
147
0.06
 71
     0
 72
     0
 73
     1
 74
     1
 75
     0
 76
     0
 77
     0
 78
     7
170
     0
171
     2
172
     0
173
     0
174
     0
175
     0
176
   256
177
   256
178
     2
  0
DIMSTYLE
  2
AM_ANSI$SF
 70
     0
  3

  4
mm
  5

  6

  7

 40
1.0
 41
0.12
 42
0.05
 43
0.5
 44
0.1
 45
0.0
 46
0.0
 47
0.1
 48
0.1
140
0.12
141
0.0
142
0.0
143
25.3999999999999986
144
1.0
145
0.0
146
0.71
147
0.06
 71
     0
 72
     0
 73
     1
 74
     1
 75
     1
 76
     1
 77
     0
 78
     7
170
     0
171
     2
172
     0
173
     0
174
     0
175
     0
176
   256
177
   256
178
     2
  0
DIMSTYLE
  2
AM_ANSI$SH
 70
     0
  3

  4
mm
  5

  6

  7

 40
1.0
 41
0.12
 42
0.05
 43
0.5
 44
0.1
 45
0.0
 46
0.0
 47
0.1
 48
0.1
140
0.12
141
0.0
142
0.0
143
25.3999999999999986
144
1.0
145
0.0
146
0.71
147
0.06
 71
     0
 72
     0
 73
     1
 74
     1
 75
     1
 76
     1
 77
     0
 78
     7
170
     0
171
     2
172
     0
173
     1
174
     0
175
     0
176
   256
177
   256
178
     2
  0
ENDTAB
  0
ENDSEC
  0
SECTION
  2
BLOCKS
  0
BLOCK
  8
0
  2
$MODEL_SPACE
 70
     0
 10
0.0
 20
0.0
 30
0.0
  3
$MODEL_SPACE
  1

  0
ENDBLK
  5
1C
  8
0
  0
BLOCK
 67
     1
  8
0
  2
$PAPER_SPACE
 70
     0
 10
0.0
 20
0.0
 30
0.0
  3
$PAPER_SPACE
  1

  0
ENDBLK
  5
19
 67
     1
  8
0
  0
BLOCK
  8
0
  2
_OPEN
 70
     0
 10
0.0
 20
0.0
 30
0.0
  3
_OPEN
  1

  0
LINE
  5
595
  8
0
  6
BYBLOCK
 62
     0
 10
-1.0
 20
0.1666666666666666
 30
0.0
 11
0.0
 21
0.0
 31
0.0
  0
LINE
  5
596
  8
0
  6
BYBLOCK
 62
     0
 10
-1.0
 20
-0.1666666666666666
 30
0.0
 11
0.0
 21
0.0
 31
0.0
  0
LINE
  5
597
  8
0
  6
BYBLOCK
 62
     0
 10
0.0
 20
0.0
 30
0.0
 11
-1.0
 21
0.0
 31
0.0
  0
ENDBLK
  5
599
  8
0
  0
BLOCK
  8
0
  2
GENAXEH
 70
     0
 10
0.0
 20
0.0
 30
0.0
  3
GENAXEH
  1

  0
LINE
  5
6E8
  8
0
 10
-1.0
 20
0.0
 30
0.0
 11
1.0
 21
0.0
 31
0.0
  0
ENDBLK
  5
6EA
  8
0
  0
BLOCK
  8
0
  2
_OPEN30
 70
     0
 10
0.0
 20
0.0
 30
0.0
  3
_OPEN30
  1

  0
LINE
  5
E8F
  8
0
  6
BYBLOCK
 62
     0
 10
-1.0
 20
0.26794919
 30
0.0
 11
0.0
 21
0.0
 31
0.0
  0
LINE
  5
E90
  8
0
  6
BYBLOCK
 62
     0
 10
0.0
 20
0.0
 30
0.0
 11
-1.0
 21
-0.26794919
 31
0.0
  0
LINE
  5
E91
  8
0
  6
BYBLOCK
 62
     0
 10
0.0
 20
0.0
 30
0.0
 11
-1.0
 21
0.0
 31
0.0
  0
ENDBLK
  5
E93
  8
0
  0
BLOCK
  8
0
  2
_ACMOPEN15
 70
     0
 10
0.0
 20
0.0
 30
0.0
  3
_ACMOPEN15
  1

  0
LINE
  5
1359
  8
245
 62
     0
 10
-1.0
 20
0.0
 30
0.0
 11
0.0
 21
0.0
 31
0.0
  0
LINE
  5
135A
  8
245
 62
     0
 10
-1.0
 20
-0.131652497
 30
0.0
 11
0.0
 21
0.0
 31
0.0
  0
LINE
  5
135B
  8
245
 62
     0
 10
0.0
 20
0.0
 30
0.0
 11
-1.0
 21
0.131652497
 31
0.0
  0
ENDBLK
  5
1358
  8
0
  0
ENDSEC
  0
SECTION
  2
ENTITIES
  0
LINE
  5
1436
  8
240
  6
CONTINUOUS
 10
17.5999999999999908
 20
23.0
 30
0.0
 11
21.6535898384885712
 21
23.0
 31
0.0
  0
LINE
  5
1437
  8
243
  6
HIDDEN2
 10
19.0
 20
16.3000000000000114
 30
0.0
 11
1.0
 21
16.3000000000000114
 31
0.0
  0
LINE
  5
1438
  8
240
  6
CONTINUOUS
 10
17.5999999999999908
 20
-23.0
 30
0.0
 11
21.6535898384885712
 21
-23.0
 31
0.0
  0
LINE
  5
1439
  8
243
  6
HIDDEN2
 10
19.0
 20
-16.3000000000000114
 30
0.0
 11
1.0
 21
-16.3000000000000114
 31
0.0
  0
LINE
  5
143A
  8
245
  6
CENTER2
 10
-49.4000000000000128
 20
0.0
 30
0.0
 11
91.1538574225183993
 21
0.0
 31
0.0
  0
LINE
  5
143B
  8
240
  6
CONTINUOUS
 10
-48.3999999999999773
 20
-8.8165000019866966
 30
0.0
 11
0.0
 21
-15.875
 31
0.0
  0
LINE
  5
143C
  8
240
  6
CONTINUOUS
 10
-48.3999999999999773
 20
-8.8165000019866966
 30
0.0
 11
-48.3999999999999773
 21
8.8165000019866966
 31
0.0
  0
LINE
  5
143D
  8
240
  6
CONTINUOUS
 10
15.2905989200000096
 20
-19.0
 30
0.0
 11
17.5999999999999908
 21
-23.0
 31
0.0
  0
LINE
  5
143E
  8
240
  6
CONTINUOUS
 10
11.9094010800000092
 20
-19.0
 30
0.0
 11
9.5999999999999943
 21
-23.0
 31
0.0
  0
LINE
  5
143F
  8
240
  6
CONTINUOUS
 10
1.0
 20
-15.875
 30
0.0
 11
1.0
 21
-23.0
 31
0.0
  0
LINE
  5
1440
  8
241
  6
CONTINUOUS
 10
17.5999999999999801
 20
23.0000000000000604
 30
0.0
 11
17.5999999999999908
 21
-23.0
 31
0.0
  0
LINE
  5
1441
  8
241
  6
CONTINUOUS
 10
9.5999999999999943
 20
-23.0
 30
0.0
 11
9.5999999999999943
 21
23.0
 31
0.0
  0
LINE
  5
1442
  8
240
  6
CONTINUOUS
 10
9.5999999999999943
 20
-23.0
 30
0.0
 11
1.0
 21
-23.0
 31
0.0
  0
LINE
  5
1443
  8
241
  6
CONTINUOUS
 10
15.2905989200000096
 20
-19.0
 30
0.0
 11
15.2905989199999901
 21
19.0
 31
0.0
  0
LINE
  5
1444
  8
241
  6
CONTINUOUS
 10
11.9094010800000092
 20
-19.0
 30
0.0
 11
11.9094010799999808
 21
19.0
 31
0.0
  0
LINE
  5
1445
  8
241
  6
CONTINUOUS
 10
0.0
 20
-15.875
 30
0.0
 11
0.0
 21
15.875
 31
0.0
  0
LINE
  5
1446
  8
241
  6
CONTINUOUS
 10
1.0
 20
15.875
 30
0.0
 11
1.0
 21
-15.875
 31
0.0
  0
LINE
  5
1447
  8
240
  6
CONTINUOUS
 10
0.0
 20
-15.875
 30
0.0
 11
1.0
 21
-15.875
 31
0.0
  0
LINE
  5
1448
  8
240
  6
CONTINUOUS
 10
11.9094010800000092
 20
-19.0
 30
0.0
 11
15.2905989200000096
 21
-19.0
 31
0.0
  0
LINE
  5
1449
  8
240
  6
CONTINUOUS
 10
-48.3999999999999773
 20
8.8165000019866966
 30
0.0
 11
0.0
 21
15.875
 31
0.0
  0
LINE
  5
144A
  8
240
  6
CONTINUOUS
 10
15.2905989200000096
 20
19.0
 30
0.0
 11
17.5999999999999908
 21
23.0
 31
0.0
  0
LINE
  5
144B
  8
240
  6
CONTINUOUS
 10
11.9094010800000092
 20
19.0
 30
0.0
 11
9.5999999999999943
 21
23.0
 31
0.0
  0
LINE
  5
144C
  8
240
  6
CONTINUOUS
 10
1.0
 20
15.875
 30
0.0
 11
1.0
 21
23.0
 31
0.0
  0
LINE
  5
144D
  8
240
  6
CONTINUOUS
 10
0.0
 20
15.875
 30
0.0
 11
1.0
 21
15.875
 31
0.0
  0
LINE
  5
144E
  8
240
  6
CONTINUOUS
 10
11.9094010800000092
 20
19.0
 30
0.0
 11
15.2905989200000096
 21
19.0
 31
0.0
  0
LINE
  5
144F
  8
240
  6
CONTINUOUS
 10
9.5999999999999943
 20
23.0
 30
0.0
 11
1.0
 21
23.0
 31
0.0
  0
LINE
  5
1450
  8
241
  6
CONTINUOUS
 10
22.0
 20
-22.8000000000005194
 30
0.0
 11
22.0
 21
22.7999999999996703
 31
0.0
  0
LINE
  5
1451
  8
243
  6
HIDDEN2
 10
19.0
 20
-16.3000000000000114
 30
0.0
 11
19.0
 21
-23.0
 31
0.0
  0
LINE
  5
1452
  8
243
  6
HIDDEN2
 10
19.0
 20
16.3000000000000114
 30
0.0
 11
19.0
 21
23.0
 31
0.0
  0
LINE
  5
1453
  8
247
  6
CONTINUOUS
 10
6.4999999999999432
 20
-13.75
 30
0.0
 11
6.5
 21
-9.1153846156699974
 31
0.0
  0
LINE
  5
1454
  8
247
  6
CONTINUOUS
 10
4.0
 20
-12.9548934999879197
 30
0.0
 11
6.0999999999160082
 21
-13.5570588100573506
 31
0.0
  0
LINE
  5
1455
  8
247
  6
CONTINUOUS
 10
4.996153846113998
 20
-12.3251514035190404
 30
0.0
 11
4.996153846113998
 21
-13.2405360188670294
 31
0.0
  0
ARC
  5
1456
  8
247
  6
CONTINUOUS
 10
4.3847190672940961
 20
-12.0872634019467498
 30
0.0
 40
0.3876715809326743
 50
72.9978896752930098
 51
172.9241662185135056
  0
ARC
  5
1457
  8
247
  6
CONTINUOUS
 10
4.305223131028014
 20
-12.3824775568040693
 30
0.0
 40
0.6933047965358772
 50
4.7429368522022122
 51
73.8492262732667513
1001
GENIUS_GENOBJ-N-FIL_13
1002
{
1000
OWNER
1000
GEN
1002
}
1001
GENIUS_GENODEF_13
1002
{
1000
HIER
1070
     0
1002
}
1002
{
1000
MANEDIT
1070
     0
1002
}
1002
{
1000
NOSEL
1070
     0
1002
}
1002
{
1000
BEHIND
1070
     0
1002
}
1002
{
1000
OTHER
1070
     0
1002
}
1002
{
1000
REACTOR
1002
}
  0
LINE
  5
1458
  8
247
  6
CONTINUOUS
 10
6.0999999999160082
 20
-12.6416741947093598
 30
0.0
 11
6.0999999999160082
 21
-13.5570588100573506
 31
0.0
  0
LINE
  5
1459
  8
247
  6
CONTINUOUS
 10
4.0
 20
-12.9548934999879197
 30
0.0
 11
4.0
 21
-12.0395088846399307
 31
0.0
  0
ARC
  5
145A
  8
247
  6
CONTINUOUS
 10
5.3874169627678707
 20
-12.3783064762668005
 30
0.0
 40
0.394857301075386
 50
65.990941652528889
 51
172.2634434590690944
  0
ARC
  5
145B
  8
247
  6
CONTINUOUS
 10
5.391200327332565
 20
-12.7124466104269196
 30
0.0
 40
0.7123241612361686
 50
5.701985164256504
 51
77.2773384368220064
1001
GENIUS_GENOBJ-N-FIL_13
1002
{
1000
OWNER
1000
GEN
1002
}
1001
GENIUS_GENODEF_13
1002
{
1000
HIER
1070
     0
1002
}
1002
{
1000
MANEDIT
1070
     0
1002
}
1002
{
1000
NOSEL
1070
     0
1002
}
1002
{
1000
BEHIND
1070
     0
1002
}
1002
{
1000
OTHER
1070
     0
1002
}
1002
{
1000
REACTOR
1002
}
  0
LINE
  5
145C
  8
247
  6
CONTINUOUS
 10
6.0999999999160082
 20
-11.6839818870633394
 30
0.0
 11
4.0
 21
-11.0818165769939601
 31
0.0
  0
LINE
  5
145D
  8
247
  6
CONTINUOUS
 10
4.0
 20
-9.5856627309079272
 30
0.0
 11
4.0
 21
-9.9816783643035496
 31
0.0
  0
LINE
  5
145E
  8
247
  6
CONTINUOUS
 10
6.0999999999160082
 20
-10.60873965394393
 30
0.0
 11
6.0999999999160082
 21
-10.1779704231919297
 31
0.0
  0
ARC
  5
145F
  8
247
  6
CONTINUOUS
 10
5.4582995950833562
 20
-9.3818165770699125
 30
0.0
 40
1.576855057639547
 50
202.3594881415293969
 51
254.9932485428469136
  0
ARC
  5
1460
  8
247
  6
CONTINUOUS
 10
4.5658188585381341
 20
-9.8475113661331761
 30
0.0
 40
0.6234706797009447
 50
94.9945893190753168
 51
155.1663289573041027
1001
GENIUS_GENOBJ-N-FIL_13
1002
{
1000
OWNER
1000
GEN
1002
}
1001
GENIUS_GENODEF_13
1002
{
1000
HIER
1070
     0
1002
}
1002
{
1000
MANEDIT
1070
     0
1002
}
1002
{
1000
NOSEL
1070
     0
1002
}
1002
{
1000
BEHIND
1070
     0
1002
}
1002
{
1000
OTHER
1070
     0
1002
}
1002
{
1000
REACTOR
1002
}
  0
ARC
  5
1461
  8
247
  6
CONTINUOUS
 10
5.1621021219694381
 20
-10.4441839510327501
 30
0.0
 40
0.9749472149106982
 50
15.8460965557806794
 51
82.325137004169278
  0
ARC
  5
1462
  8
247
  6
CONTINUOUS
 10
5.3714704019710631
 20
-10.0352116387721804
 30
0.0
 40
0.9271945638692008
 50
249.7136016704968995
 51
321.7887456564109243
1001
GENIUS_GENOBJ-N-FIL_13
1002
{
1000
OWNER
1000
GEN
1002
}
1001
GENIUS_GENODEF_13
1002
{
1000
HIER
1070
     0
1002
}
1002
{
1000
MANEDIT
1070
     0
1002
}
1002
{
1000
NOSEL
1070
     0
1002
}
1002
{
1000
BEHIND
1070
     0
1002
}
1002
{
1000
OTHER
1070
     0
1002
}
1002
{
1000
REACTOR
1002
}
  0
LINE
  5
1463
  8
247
  6
CONTINUOUS
 10
5.2923076922559744
 20
-9.9625858078159126
 30
0.0
 11
5.2923076922559744
 21
-9.4779704232199702
 31
0.0
  0
ARC
  5
1464
  8
247
  6
CONTINUOUS
 10
5.25
 20
-13.75
 30
0.0
 40
1.25
 50
180.0
 51
0.0
  0
LINE
  5
1465
  8
247
  6
CONTINUOUS
 10
4.0
 20
-13.75
 30
0.0
 11
4.0
 21
-13.3038461539139803
 31
0.0
  0
ARC
  5
1466
  8
247
  6
CONTINUOUS
 10
5.25
 20
-9.1153846156699974
 30
0.0
 40
1.25
 50
0.0
 51
180.0
  0
LINE
  5
1467
  8
250
  6
CONTINUOUS
 10
-29.1926459999999715
 20
-20.9932665409933215
 30
0.0
 11
-46.9259793299999615
 21
-20.9932665409933215
 31
0.0
1001
ITEMNAME
1000
LNSP2
  0
TEXT
  5
1468
  8
250
  6
CONTINUOUS
 10
-44.6593126633333029
 20
-19.9932665409933215
 30
0.0
 40
2.799999999999998
  1
BBT30
  7
YOKO
1001
ITEMNAME
1000
LNSP3
1001
ACAD
1000
MTEXTBEGIN
1070
    73
1070
     1
1070
    44
1040
1.0
1070
    74
1070
     0
1000
MTEXTEND
1000
MTEXTBEGIN
1070
    73
1070
     1
1070
    44
1040
1.0
1070
    74
1070
     0
1000
MTEXTEND
1000
MTEXTBEGIN
1070
    73
1070
     1
1070
    44
1040
1.0
1070
    74
1070
     0
1000
MTEXTEND
1000
MTEXTBEGIN
1070
    73
1070
     1
1070
    44
1040
1.0
1070
    74
1070
     0
1000
MTEXTEND
  0
LINE
  5
1469
  8
250
  6
CONTINUOUS
 10
-25.3149999996330486
 20
-14.2769866516444992
 30
0.0
 11
-29.1926459999999715
 21
-20.9932665409933215
 31
0.0
1001
ACAD
1000
DSTYLE
1002
{
1070
     6
1000
OPEN
1070
   343
1005
0
1002
}
  0
LINE
  5
146A
  8
250
  6
CONTINUOUS
 10
-25.6368727747415583
 20
-14.0911533183723297
 30
0.0
 11
-24.1999999999999886
 21
-12.3457500009933501
 31
0.0
  0
LINE
  5
146B
  8
250
  6
CONTINUOUS
 10
-24.9931272245245317
 20
-14.4628199849166794
 30
0.0
 11
-24.1999999999999886
 21
-12.3457500009933501
 31
0.0
  0
LINE
  5
146C
  8
250
  6
CONTINUOUS
 10
-24.1999999999999886
 20
-12.3457500009933501
 30
0.0
 11
-25.3149999996330486
 21
-14.2769866516444992
 31
0.0
  0
LINE
  5
146D
  8
240
  6
CONTINUOUS
 10
79.0000000000003126
 20
18.89999999999959
 30
0.0
 11
78.9999999999997442
 21
-18.8999999999999417
 31
0.0
  0
LINE
  5
146E
  8
240
  6
CONTINUOUS
 10
57.0001575694041875
 20
23.0
 30
0.0
 11
57.0001575694043581
 21
20.4999999999910898
 31
0.0
  0
LINE
  5
1470
  8
240
  6
CONTINUOUS
 10
77.0947441116733927
 20
-20.0000000000000711
 30
0.0
 11
63.7310976770700393
 21
-20.0000000000000107
 31
0.0
  0
LINE
  5
1471
  8
240
  6
CONTINUOUS
 10
57.0001575694042231
 20
-20.4999999999910791
 30
0.0
 11
63.2114824348009918
 21
-20.5000000000011688
 31
0.0
  0
LINE
  5
1472
  8
241
  6
CONTINUOUS
 10
62.5001575694045926
 20
-20.5000000000000107
 30
0.0
 11
62.5001575694071789
 21
20.5000000000000284
 31
0.0
1001
GRPNAME
1000
PASTMD0T
  0
LINE
  5
1473
  8
241
  6
CONTINUOUS
 10
61.4001575694046409
 20
-20.4999999999982307
 30
0.0
 11
61.4001575694074617
 21
20.4999999999982414
 31
0.0
1001
GRPNAME
1000
PASTMD0T
  0
LINE
  5
1474
  8
242
  6
CONTINUOUS
 10
65.5001575694034841
 20
-19.9999999999999112
 30
0.0
 11
65.5001575694058431
 21
20.0000000000000284
 31
0.0
  0
LINE
  5
1475
  8
240
  6
CONTINUOUS
 10
63.3846875155562302
 20
-20.1999999999999602
 30
0.0
 11
63.2114824348009918
 21
-20.5000000000011688
 31
0.0
  0
ARC
  5
1476
  8
240
  6
CONTINUOUS
 10
63.7310976770700393
 20
-20.3999999999999915
 30
0.0
 40
0.4
 50
90.0
 51
149.9999999999994031
  0
LINE
  5
1477
  8
241
  6
CONTINUOUS
 10
63.5001575693942897
 20
-20.0734013676288612
 30
0.0
 11
63.5001575693942897
 21
20.0734013676304315
 31
0.0
  0
LINE
  5
1478
  8
241
  6
CONTINUOUS
 10
63.2114824347991728
 20
-20.5000000000011688
 30
0.0
 11
63.2114824348000113
 21
20.5000000000011795
 31
0.0
  0
LINE
  5
1479
  8
242
  6
CONTINUOUS
 10
65.5001575694011819
 20
-19.2499999999999609
 30
0.0
 11
78.3937822173519692
 21
-19.249999999999801
 31
0.0
  0
LINE
  5
147A
  8
240
  6
CONTINUOUS
 10
78.9999999999995737
 20
-18.9000000000000412
 30
0.0
 11
77.0947441116733927
 21
-20.0000000000000711
 31
0.0
  0
LINE
  5
147B
  8
241
  6
CONTINUOUS
 10
77.0947441116742311
 20
-20.000000000000199
 30
0.0
 11
77.0947441116744301
 21
20.0000000000000604
 31
0.0
  0
LINE
  5
147C
  8
241
  6
CONTINUOUS
 10
57.0001575694042231
 20
-20.4999999999910791
 30
0.0
 11
57.0001575694042231
 21
20.4999999999910898
 31
0.0
  0
LINE
  5
147D
  8
240
  6
CONTINUOUS
 10
77.0947441116733927
 20
20.0000000000000711
 30
0.0
 11
63.7310976770700393
 21
20.0000000000000284
 31
0.0
  0
LINE
  5
147E
  8
240
  6
CONTINUOUS
 10
57.0001575694043581
 20
20.4999999999910898
 30
0.0
 11
63.2114824348009918
 21
20.5000000000011795
 31
0.0
  0
LINE
  5
147F
  8
240
  6
CONTINUOUS
 10
63.3846875155562302
 20
20.1999999999999709
 30
0.0
 11
63.2114824348009918
 21
20.5000000000011795
 31
0.0
  0
ARC
  5
1480
  8
240
  6
CONTINUOUS
 10
63.7310976770700393
 20
20.3999999999999986
 30
0.0
 40
0.4
 50
210.0000000000003979
 51
270.0
  0
LINE
  5
1481
  8
242
  6
CONTINUOUS
 10
65.5001575694011819
 20
19.2499999999999716
 30
0.0
 11
78.3937822173519692
 21
19.2499999999998117
 31
0.0
  0
LINE
  5
1482
  8
240
  6
CONTINUOUS
 10
79.0000000000001137
 20
18.8999999999997215
 30
0.0
 11
77.0947441116733927
 21
20.0000000000000711
 31
0.0
  0
LINE
  5
1483
  8
246
  6
PHANTOM2
 10
90.0
 20
-25.0000000000000107
 30
0.0
 11
90.0
 21
25.0000000000000107
 31
0.0
1001
GRPNAME
1000
PASTMD01
  0
LINE
  5
1484
  8
246
  6
PHANTOM2
 10
90.0
 20
25.0000000000000107
 30
0.0
 11
59.7999999999999972
 21
25.0000000000000107
 31
0.0
  0
LINE
  5
1485
  8
250
  6
CONTINUOUS
 10
90.5
 20
-25.0000000000000107
 30
0.0
 11
105.0
 21
-25.0000000000000107
 31
0.0
  0
LINE
  5
1486
  8
250
  6
CONTINUOUS
 10
90.5
 20
25.0000000000000107
 30
0.0
 11
105.0
 21
25.0000000000000107
 31
0.0
  0
LINE
  5
1487
  8
250
  6
CONTINUOUS
 10
104.0
 20
-22.9999999999999893
 30
0.0
 11
104.0
 21
23.0000000000000107
 31
0.0
  0
INSERT
  5
1488
  8
250
  6
CONTINUOUS
  2
_OPEN
 10
104.0
 20
-25.0000000000000107
 30
0.0
 41
2.0
 42
2.0
 43
2.0
 50
270.0
  0
INSERT
  5
1489
  8
250
  6
CONTINUOUS
  2
_OPEN
 10
104.0
 20
25.0000000000000107
 30
0.0
 41
2.0
 42
2.0
 43
2.0
 50
90.0
  0
LINE
  5
148A
  8
246
  6
PHANTOM2
 10
90.0
 20
-25.0000000000000107
 30
0.0
 11
59.7999999999999972
 21
-25.0000000000000107
 31
0.0
  0
LINE
  5
148B
  8
243
  6
HIDDEN2
 10
50.0000000000000284
 20
12.1743379385660795
 30
0.0
 11
79.0000000000000284
 21
16.2500221449355386
 31
0.0
  0
LINE
  5
148C
  8
243
  6
HIDDEN2
 10
50.0000000000000284
 20
-12.1743379385660706
 30
0.0
 11
79.0000000000000284
 21
-16.2500221449355315
 31
0.0
  0
LINE
  5
148D
  8
240
  6
CONTINUOUS
 10
57.0001575694042018
 20
-23.0000000000000284
 30
0.0
 11
57.0001575694043865
 21
-20.4999999999911289
 31
0.0
  0
TEXT
  5
148E
  8
250
  6
CONTINUOUS
 10
103.0
 20
-7.4309340242434621
 30
0.0
 40
2.799999999999998
  1
\U+2205
 50
90.0
  0
TEXT
  5
148F
  8
250
  6
CONTINUOUS
 10
103.0
 20
-4.897600690910128
 30
0.0
 40
2.799999999999998
  1
1.969
 50
90.0
  0
LINE
  5
1490
  8
240
  6
CONTINUOUS
 10
22.0000000000000284
 20
-22.8000000000002387
 30
0.0
 11
21.6535898384885712
 21
-23.0
 31
0.0
  0
LINE
  5
1493
  8
240
  6
CONTINUOUS
 10
21.9999999999840909
 20
22.7999999999996703
 30
0.0
 11
21.6535898384885712
 21
23.0
 31
0.0
  0
TEXT
  5
1494
  8
241
  6
CONTINUOUS
 10
-49.0
 20
56.0
 30
0.0
 40
5.0
  1
BBT30-MEGAER32-90NL
  7
YOKO
 11
-49.0
 21
56.0
 31
0.0
 73
     1
  0
LINE
  5
1502
  8
241
  6
CONTINUOUS
 10
24.0000000000000284
 20
22.8000000000000114
 30
0.0
 11
24.0000000000000284
 21
-22.8000000000000185
 31
0.0
  0
LINE
  5
1503
  8
240
  6
CONTINUOUS
 10
57.0001575694042018
 20
-23.0000000000000284
 30
0.0
 11
24.3464101615138304
 21
-23.0000000000000284
 31
0.0
  0
LINE
  5
1504
  8
240
  6
CONTINUOUS
 10
22.0000000000001386
 20
-22.8000000000000185
 30
0.0
 11
24.0000000000000604
 21
-22.8000000000000185
 31
0.0
  0
LINE
  5
1505
  8
240
  6
CONTINUOUS
 10
24.3464101615138304
 20
-23.0000000000000284
 30
0.0
 11
24.0000000000000604
 21
-22.8000000000000185
 31
0.0
  0
LINE
  5
1506
  8
240
  6
CONTINUOUS
 10
22.0000000000001386
 20
22.8000000000000114
 30
0.0
 11
24.0000000000000604
 21
22.8000000000000114
 31
0.0
  0
LINE
  5
1507
  8
240
  6
CONTINUOUS
 10
57.0001575694041875
 20
23.0
 30
0.0
 11
24.3464101615138304
 21
23.0
 31
0.0
  0
LINE
  5
1508
  8
240
  6
CONTINUOUS
 10
24.3464101615138304
 20
23.0
 30
0.0
 11
24.0000000000000604
 21
22.8000000000000114
 31
0.0
  0
LINE
  5
1583
  8
250
  6
CONTINUOUS
 10
90.0
 20
25.5000000000000107
 30
0.0
 11
90.0
 21
43.0
 31
0.0
  0
LINE
  5
1584
  8
250
  6
CONTINUOUS
 10
-2.9999999999997149
 20
10.6499999999996593
 30
0.0
 11
-2.9999999999997131
 21
43.0
 31
0.0
  0
LINE
  5
1585
  8
250
  6
CONTINUOUS
 10
87.769999999999996
 20
42.0
 30
0.0
 11
-0.7699999999997141
 21
42.0
 31
0.0
  0
LINE
  5
1589
  8
250
  6
CONTINUOUS
 10
90.0
 20
25.5000000000000107
 30
0.0
 11
90.0
 21
36.0
 31
0.0
  0
LINE
  5
158A
  8
250
  6
CONTINUOUS
 10
0.0
 20
16.375
 30
0.0
 11
0.0000000000000012
 21
36.0
 31
0.0
  0
LINE
  5
158B
  8
250
  6
CONTINUOUS
 10
87.769999999999996
 20
35.0
 30
0.0
 11
2.2300000000000009
 21
35.0
 31
0.0
  0
LINE
  5
158F
  8
250
  6
CONTINUOUS
 10
87.769999999999996
 20
35.3716666666666697
 30
0.0
 11
90.0
 21
35.0
 31
0.0
  0
LINE
  5
1590
  8
250
  6
CONTINUOUS
 10
87.769999999999996
 20
34.6283333333333303
 30
0.0
 11
90.0
 21
35.0
 31
0.0
  0
LINE
  5
1591
  8
250
  6
CONTINUOUS
 10
90.0
 20
35.0
 30
0.0
 11
87.769999999999996
 21
35.0
 31
0.0
  0
LINE
  5
1592
  8
250
  6
CONTINUOUS
 10
87.769999999999996
 20
42.3716666666666626
 30
0.0
 11
90.0
 21
42.0
 31
0.0
  0
LINE
  5
1593
  8
250
  6
CONTINUOUS
 10
87.769999999999996
 20
41.6283333333333303
 30
0.0
 11
90.0
 21
42.0
 31
0.0
  0
LINE
  5
1594
  8
250
  6
CONTINUOUS
 10
90.0
 20
42.0
 30
0.0
 11
87.769999999999996
 21
42.0
 31
0.0
  0
LINE
  5
1595
  8
250
  6
CONTINUOUS
 10
-0.7699999999997141
 20
41.6283333333333303
 30
0.0
 11
-2.999999999999714
 21
42.0
 31
0.0
  0
LINE
  5
1596
  8
250
  6
CONTINUOUS
 10
-0.7699999999997141
 20
42.3716666666666626
 30
0.0
 11
-2.999999999999714
 21
42.0
 31
0.0
  0
LINE
  5
1597
  8
250
  6
CONTINUOUS
 10
-2.999999999999714
 20
42.0
 30
0.0
 11
-0.7699999999997141
 21
42.0
 31
0.0
  0
LINE
  5
1598
  8
250
  6
CONTINUOUS
 10
2.2300000000000009
 20
34.6283333333333303
 30
0.0
 11
0.0000000000000012
 21
35.0
 31
0.0
  0
LINE
  5
1599
  8
250
  6
CONTINUOUS
 10
2.2300000000000009
 20
35.3716666666666697
 30
0.0
 11
0.0000000000000012
 21
35.0
 31
0.0
  0
LINE
  5
159A
  8
250
  6
CONTINUOUS
 10
0.0000000000000012
 20
35.0
 30
0.0
 11
2.2300000000000009
 21
35.0
 31
0.0
  0
TEXT
  5
159B
  8
250
  6
CONTINUOUS
 10
42.3333333333333286
 20
36.0
 30
0.0
 40
2.7999999999999989
  1
3.543
  0
TEXT
  5
159C
  8
250
  6
CONTINUOUS
 10
40.8333333333334778
 20
43.0
 30
0.0
 40
2.7999999999999989
  1
(max.3.66)
  0
VIEWPORT
  5
22
 67
     1
  8
0
 10
261.517699115044195
 20
148.5
 30
0.0
 40
523.0353982300885036
 41
297.0
 68
     1
 69
     1
1001
ACAD
1000
MVIEW
1002
{
1070
    16
1010
0.0
1020
0.0
1030
0.0
1010
0.0
1020
0.0
1030
1.0
1040
0.0
1040
297.0
1040
261.517699115044195
1040
148.5
1040
50.0
1040
0.0
1040
0.0
1070
     0
1070
   100
1070
     1
1070
     1
1070
     0
1070
     0
1070
     0
1070
     0
1040
0.0
1040
0.0
1040
0.0
1040
1.0
1040
1.0
1040
10.0
1040
10.0
1070
     0
1002
{
1002
}
1002
}
1001
GENIUS_GENODEF_13
1002
{
1000
HIER
1070
     0
1002
}
1002
{
1000
MANEDIT
1070
     0
1002
}
1002
{
1000
NOSEL
1070
     0
1002
}
1002
{
1000
BEHIND
1070
     0
1002
}
1002
{
1000
OTHER
1070
     0
1002
}
1002
{
1000
REACTOR
1002
}
1001
GENIUS_GENOBJ-N-SDF_13
1002
{
1000
OWNER
1000
GEN
1002
}
1001
GENIUS_GENSCREG_15
1000
PF
1040
1.0
1000
DF
1040
1.0
1000
MIN
1011
0.0
1021
0.0
1031
0.0
1021
0.0
1031
0.0
1000
MAX
1011
523.0353982300885036
1021
0.0
1031
0.0
1021
297.0
1031
0.0
1000
FLAGS
1070
     4
  0
ENDSEC
  0
EOF
