  0
SECTION
  2
HEADER
  9
$ACADVER
  1
AC1009
  9
$INSBASE
 10
0.0
 20
0.0
 30
0.0
  9
$EXTMIN
 10
-50.399999999999991
 20
-25.350000000000261
 30
0.0
  9
$EXTMAX
 10
90.499999999999972
 20
61.000000000000007
 30
0.0
  9
$LIMMIN
 10
0.0
 20
0.0
  9
$LIMMAX
 10
297.0
 20
210.0
  9
$ORTHOMODE
 70
     1
  9
$REGENMODE
 70
     1
  9
$FILLMODE
 70
     1
  9
$QTEXTMODE
 70
     0
  9
$MIRRTEXT
 70
     1
  9
$DRAGMODE
 70
     2
  9
$LTSCALE
 40
10.0
  9
$OSMODE
 70
    37
  9
$ATTMODE
 70
     1
  9
$TEXTSIZE
 40
3.0
  9
$TRACEWID
 40
1.0
  9
$TEXTSTYLE
  7
YOKO
  9
$CLAYER
  8
240
  9
$CELTYPE
  6
BYLAYER
  9
$CECOLOR
 62
   256
  9
$DIMSCALE
 40
1.0
  9
$DIMASZ
 40
2.2299999999999991
  9
$DIMEXO
 40
0.5
  9
$DIMDLI
 40
7.0
  9
$DIMRND
 40
0.0
  9
$DIMDLE
 40
0.0
  9
$DIMEXE
 40
1.0
  9
$DIMTP
 40
0.0
  9
$DIMTM
 40
0.01
  9
$DIMTXT
 40
2.7999999999999989
  9
$DIMCEN
 40
0.0
  9
$DIMTSZ
 40
0.0
  9
$DIMTOL
 70
     0
  9
$DIMLIM
 70
     0
  9
$DIMTIH
 70
     0
  9
$DIMTOH
 70
     0
  9
$DIMSE1
 70
     0
  9
$DIMSE2
 70
     0
  9
$DIMTAD
 70
     3
  9
$DIMZIN
 70
     9
  9
$DIMBLK
  1
OPEN
  9
$DIMASO
 70
     1
  9
$DIMSHO
 70
     1
  9
$DIMPOST
  1

  9
$DIMAPOST
  1

  9
$DIMALT
 70
     0
  9
$DIMALTD
 70
     2
  9
$DIMALTF
 40
25.399999999999999
  9
$DIMLFAC
 40
1.0
  9
$DIMTOFL
 70
     1
  9
$DIMTVP
 40
0.0
  9
$DIMTIX
 70
     1
  9
$DIMSOXD
 70
     0
  9
$DIMSAH
 70
     0
  9
$DIMBLK1
  1

  9
$DIMBLK2
  1

  9
$DIMSTYLE
  2
BIGT
  9
$DIMCLRD
 70
   256
  9
$DIMCLRE
 70
   256
  9
$DIMCLRT
 70
    40
  9
$DIMTFAC
 40
1.0
  9
$DIMGAP
 40
1.0
  9
$LUNITS
 70
     2
  9
$LUPREC
 70
     6
  9
$SKETCHINC
 40
1.0
  9
$FILLETRAD
 40
0.0
  9
$AUNITS
 70
     0
  9
$AUPREC
 70
     6
  9
$MENU
  1
.
  9
$ELEVATION
 40
0.0
  9
$PELEVATION
 40
0.0
  9
$THICKNESS
 40
0.0
  9
$LIMCHECK
 70
     0
  9
$BLIPMODE
 70
     0
  9
$CHAMFERA
 40
0.2
  9
$CHAMFERB
 40
0.2
  9
$SKPOLY
 70
     0
  9
$TDCREATE
 40
2458136.6348984842
  9
$TDUPDATE
 40
2458138.5955586
  9
$TDINDWG
 40
0.007058912
  9
$TDUSRTIMER
 40
0.0070588889
  9
$USRTIMER
 70
     1
  9
$ANGBASE
 50
0.0
  9
$ANGDIR
 70
     0
  9
$PDMODE
 70
     1
  9
$PDSIZE
 40
0.0
  9
$PLINEWID
 40
0.0
  9
$COORDS
 70
     1
  9
$SPLFRAME
 70
     0
  9
$SPLINETYPE
 70
     6
  9
$SPLINESEGS
 70
     4
  9
$ATTDIA
 70
     1
  9
$ATTREQ
 70
     1
  9
$HANDLING
 70
     1
  9
$HANDSEED
  5
45D5
  9
$SURFTAB1
 70
     6
  9
$SURFTAB2
 70
     6
  9
$SURFTYPE
 70
     6
  9
$SURFU
 70
     6
  9
$SURFV
 70
     6
  9
$UCSNAME
  2

  9
$UCSORG
 10
0.0
 20
0.0
 30
0.0
  9
$UCSXDIR
 10
1.0
 20
0.0
 30
0.0
  9
$UCSYDIR
 10
0.0
 20
1.0
 30
0.0
  9
$PUCSNAME
  2

  9
$PUCSORG
 10
0.0
 20
0.0
 30
0.0
  9
$PUCSXDIR
 10
1.0
 20
0.0
 30
0.0
  9
$PUCSYDIR
 10
0.0
 20
1.0
 30
0.0
  9
$USERI1
 70
     1
  9
$USERI2
 70
     0
  9
$USERI3
 70
     0
  9
$USERI4
 70
     0
  9
$USERI5
 70
     0
  9
$USERR1
 40
0.0
  9
$USERR2
 40
0.0
  9
$USERR3
 40
0.0
  9
$USERR4
 40
0.0
  9
$USERR5
 40
0.0
  9
$WORLDVIEW
 70
     1
  9
$SHADEDGE
 70
     3
  9
$SHADEDIF
 70
    70
  9
$TILEMODE
 70
     1
  9
$MAXACTVP
 70
    16
  9
$PLIMCHECK
 70
     0
  9
$PEXTMIN
 10
1.0000000000000000E+020
 20
1.0000000000000000E+020
 30
1.0000000000000000E+020
  9
$PEXTMAX
 10
-1.0000000000000000E+020
 20
-1.0000000000000000E+020
 30
-1.0000000000000000E+020
  9
$PLIMMIN
 10
0.0
 20
0.0
  9
$PLIMMAX
 10
420.0
 20
297.0
  9
$UNITMODE
 70
     0
  9
$VISRETAIN
 70
     1
  9
$PLINEGEN
 70
     0
  9
$PSLTSCALE
 70
     1
  0
ENDSEC
  0
SECTION
  2
TABLES
  0
TABLE
  2
VPORT
 70
     1
  0
VPORT
  2
*ACTIVE
 70
     0
 10
0.0
 20
0.0
 11
1.0
 21
1.0
 12
34.991776955712822
 22
13.076329443677141
 13
0.0
 23
0.0
 14
7.0
 24
7.0
 15
7.0
 25
7.0
 16
0.0
 26
0.0
 36
1.0
 17
0.0
 27
0.0
 37
0.0
 40
146.11307577635239
 41
1.4533622559652919
 42
50.0
 43
0.0
 44
0.0
 50
0.0
 51
0.0
 71
     0
 72
  2000
 73
     1
 74
     0
 75
     0
 76
     1
 77
     0
 78
     0
  0
ENDTAB
  0
TABLE
  2
LTYPE
 70
    21
  0
LTYPE
  2
CONTINUOUS
 70
     0
  3
Solid line
 72
    65
 73
     0
 40
0.0
  0
LTYPE
  2
CENTER2
 70
     0
  3
___ _ ___ _ ___ _ ___ _ ___ _ ___ _ ___ _ ___ _
 72
    65
 73
     4
 40
1.125
 49
0.75
 49
-0.125
 49
0.125
 49
-0.125
  0
LTYPE
  2
HIDDEN2
 70
     0
  3
_ _ _ _ _ _ _ _ _ _ _ _ _ _ _ _ _ _ _ _ _ _ _ _
 72
    65
 73
     2
 40
0.1875
 49
0.125
 49
-0.0625
  0
LTYPE
  2
AM_ISO02W050
 70
     0
  3
__ __ __ __ __ __ __ __ __ __ __ __ __ __ __
 72
    65
 73
     2
 40
7.5
 49
6.0
 49
-1.5
  0
LTYPE
  2
AMCONSTR
 70
     0
  3
_______________________
 72
    65
 73
     2
 40
9999.0
 49
9999.0
 49
0.0
  0
LTYPE
  2
ACISOWELD
 70
     0
  3
_ _ _ _ _
 72
    65
 73
     2
 40
2.0
 49
2.0
 49
-1.0
  0
LTYPE
  2
ACISOTGB
 70
     0
  3
__ . . __ . .
 72
    65
 73
     6
 40
9.0
 49
4.0
 49
-1.0
 49
1.0
 49
-1.0
 49
1.0
 49
-1.0
  0
LTYPE
  2
ACISOTGL
 70
     0
  3
_ _ _ _ _
 72
    65
 73
     2
 40
3.0
 49
2.0
 49
-1.0
  0
LTYPE
  2
AM_ISO08W050
 70
     0
  3
____ . ____ . ____ . ____ . ____ . ____ . ____
 72
    65
 73
     4
 40
18.0
 49
12.0
 49
-1.5
 49
3.0
 49
-1.5
  0
LTYPE
  2
AM_ISO09W050
 70
     0
  3
_____ . . _____ . . _____ . . ____ .. ____
 72
    65
 73
     6
 40
22.5
 49
12.0
 49
-1.5
 49
3.0
 49
-1.5
 49
3.0
 49
-1.5
  0
LTYPE
  2
AM_ISO08W050X2
 70
     0
  3
__ . __ . __ . __ . __ . __
 72
    65
 73
     4
 40
9.0
 49
6.0
 49
-0.75
 49
1.5
 49
-0.75
  0
LTYPE
  2
AM_ISO02W050X2
 70
     0
  3
 _ _ _ _ _ _ _ _ _ _ _ _
 72
    65
 73
     2
 40
3.75
 49
3.0
 49
-0.75
  0
LTYPE
  2
AMZIGZAG
 70
     0
  3
/\/-/\/-/\/-/\/-/\/-/\/
 72
    65
 73
     2
 40
11.0001
 49
0.0001
 49
-11.0
  0
ENDTAB
  0
TABLE
  2
LAYER
 70
     8
  0
LAYER
  2
0
 70
     0
 62
     7
  6
CONTINUOUS
  0
LAYER
  2
DEFPOINTS
 70
     0
 62
     7
  6
CONTINUOUS
  0
LAYER
  2
245
 70
     0
 62
     2
  6
CENTER2
  0
LAYER
  2
240
 70
     0
 62
     4
  6
CONTINUOUS
  0
LAYER
  2
241
 70
     0
 62
   211
  6
CONTINUOUS
  0
LAYER
  2
243
 70
     0
 62
   211
  6
HIDDEN2
  0
LAYER
  2
247
 70
     0
 62
    60
  6
CONTINUOUS
  0
LAYER
  2
250
 70
     0
 62
     3
  6
CONTINUOUS
  0
ENDTAB
  0
TABLE
  2
STYLE
 70
     8
  0
STYLE
  2
STANDARD
 70
     0
 40
0.0
 41
1.0
 50
0.0
 71
     0
 42
3.0
  3
romans.shx
  4
extfont.shx
  0
STYLE
  2
ACISOGDT
 70
     0
 40
0.0
 41
1.0
 50
0.0
 71
     0
 42
3.0
  3
amgdt.shx
  4
extfont.shx
  0
STYLE
  2
YOKO
 70
     0
 40
0.0
 41
1.0
 50
0.0
 71
     0
 42
3.0
  3
romans.shx
  4
extfont.shx
  0
STYLE
  2

 70
     1
 40
0.0
 41
1.0
 50
0.0
 71
     0
 42
3.0
  3
genltshp.shx
  4

  0
ENDTAB
  0
TABLE
  2
VIEW
 70
     0
  0
ENDTAB
  0
TABLE
  2
UCS
 70
     0
  0
ENDTAB
  0
TABLE
  2
APPID
 70
    42
  0
APPID
  2
ACAD
 70
     0
  0
APPID
  2
GLOBAL
 70
     0
  0
APPID
  2
DETAIL
 70
     0
  0
APPID
  2
GRPNAME
 70
     0
  0
APPID
  2
GPARA
 70
     0
  0
APPID
  2
MCAD_NO_VIS
 70
     0
  0
APPID
  2
ACAD_TEMP_GRAPHIC
 70
     0
  0
APPID
  2
ACATTRIBSERVICES
 70
     0
  0
APPID
  2
GENIUS_GENSCREG_15
 70
     0
  0
APPID
  2
GENIUS_GENODEF_13
 70
     0
  0
APPID
  2
GENIUS_GENOBJ-N-SDF_13
 70
     0
  0
APPID
  2
GENIUS_GENREC_14
 70
     0
  0
APPID
  2
GENIUS_GENOBJ-N-REC_13
 70
     0
  0
APPID
  2
GENIUS_GENDIMSH_14
 70
     0
  0
APPID
  2
GENIUS_GENOBJ-N-DIM_13
 70
     0
  0
APPID
  2
GENIUS_GENDIM_13
 70
     0
  0
APPID
  2
GENIUS_GENDTOL_13
 70
     0
  0
APPID
  2
GENIUS_GENOLIS_13
 70
     0
  0
APPID
  2
GENIUS_GENOENT_13
 70
     0
  0
APPID
  2
GENIUS_GENOBJ-F-FEM_13
 70
     0
  0
APPID
  2
GENIUS_GENOREF_13
 70
     0
  0
APPID
  2
GENIUS_GEFFEM_13
 70
     0
  0
APPID
  2
GENIUS_GEFFEMP_13
 70
     0
  0
APPID
  2
AD_DRAW
 70
     0
  0
APPID
  2
DESIGNERASSEMBLIES
 70
     0
  0
APPID
  2
ACADM_DIM_EDIT
 70
     0
  0
APPID
  2
AMDT_DM_ADJ
 70
     0
  0
APPID
  2
ITEMNAME
 70
     0
  0
APPID
  2
GENIUS_GENOBJ-N-FIL_13
 70
     0
  0
APPID
  2
GENIUS_GENFIL_13
 70
     0
  0
APPID
  2
GENIUS_GENOBJ-N-CHA_13
 70
     0
  0
APPID
  2
ACAECLAYERSTANDARD
 70
     0
  0
APPID
  2
ACAD_NAV_VCDISPLAY
 70
     0
  0
APPID
  2
ACAD_DSTYLE_DIMJAG
 70
     0
  0
APPID
  2
ACAD_DSTYLE_DIMBREAK
 70
     0
  0
APPID
  2
ACAD_EXEMPT_FROM_CAD_STANDARDS
 70
     0
  0
APPID
  2
ACAD_DSTYLE_DIMINSPECT
 70
     0
  0
APPID
  2
ACAD_MLEADERVER
 70
     0
  0
APPID
  2
ACAD_DSTYLE_DIMARC_LENGTH_
 70
     0
  0
APPID
  2
ACAD_DSTYLE_DIM_LINETYPE
 70
     0
  0
APPID
  2
ACAD_DSTYLE_DIM_EXT1_LINETYPE
 70
     0
  0
APPID
  2
ACAD_DSTYLE_DIM_EXT2_LINETYPE
 70
     0
  0
ENDTAB
  0
TABLE
  2
DIMSTYLE
 70
    29
  0
DIMSTYLE
  2
BIGT
 70
     0
  3

  4

  5
OPEN
  6

  7

 40
1.0
 41
2.2299999999999991
 42
0.5
 43
7.0
 44
1.0
 45
0.0
 46
0.0
 47
0.0
 48
0.01
140
2.7999999999999989
141
0.0
142
0.0
143
25.399999999999999
144
1.0
145
0.0
146
1.0
147
1.0
 71
     0
 72
     0
 73
     0
 74
     0
 75
     0
 76
     0
 77
     3
 78
     9
170
     0
171
     2
172
     1
173
     0
174
     1
175
     0
176
   256
177
   256
178
    40
  0
DIMSTYLE
  2
AM_ISO
 70
     0
  3

  4
"
  5

  6

  7

 40
1.0
 41
2.5
 42
1.0
 43
10.0
 44
1.0
 45
0.0
 46
0.0
 47
0.1
 48
0.1
140
3.5
141
0.0
142
0.0
143
0.0393701
144
1.0
145
0.0
146
0.71
147
1.5
 71
     0
 72
     0
 73
     0
 74
     0
 75
     0
 76
     0
 77
     1
 78
     8
170
     0
171
     2
172
     1
173
     0
174
     0
175
     0
176
   256
177
   256
178
     2
  0
DIMSTYLE
  2
AM_ISO$3
 70
     0
  3

  4
"
  5

  6

  7

 40
1.0
 41
2.5
 42
1.0
 43
10.0
 44
1.0
 45
0.0
 46
0.0
 47
0.1
 48
0.1
140
3.5
141
0.0
142
0.0
143
0.0393701
144
1.0
145
0.0
146
0.71
147
1.5
 71
     0
 72
     0
 73
     0
 74
     1
 75
     0
 76
     0
 77
     1
 78
     8
170
     0
171
     2
172
     0
173
     0
174
     0
175
     0
176
   256
177
   256
178
     2
  0
DIMSTYLE
  2
AM_ISO$4
 70
     0
  3

  4
"
  5

  6

  7

 40
1.0
 41
2.5
 42
1.0
 43
10.0
 44
1.0
 45
0.0
 46
0.0
 47
0.1
 48
0.1
140
3.5
141
0.0
142
0.0
143
0.0393701
144
1.0
145
0.0
146
0.71
147
1.5
 71
     0
 72
     0
 73
     0
 74
     1
 75
     0
 76
     0
 77
     1
 78
     8
170
     0
171
     2
172
     0
173
     0
174
     0
175
     0
176
   256
177
   256
178
     2
  0
DIMSTYLE
  2
AM_ISO$6
 70
     0
  3

  4
"
  5

  6

  7

 40
1.0
 41
2.5
 42
1.0
 43
10.0
 44
1.0
 45
0.0
 46
0.0
 47
0.1
 48
0.1
140
3.5
141
0.0
142
0.0
143
0.0393701
144
1.0
145
0.0
146
0.71
147
1.5
 71
     0
 72
     0
 73
     0
 74
     0
 75
     0
 76
     0
 77
     0
 78
     8
170
     0
171
     2
172
     1
173
     0
174
     0
175
     0
176
   256
177
   256
178
     2
  0
DIMSTYLE
  2
AM_ISO$7
 70
     0
  3

  4
"
  5

  6

  7

 40
1.0
 41
2.5
 42
1.0
 43
10.0
 44
1.0
 45
0.0
 46
0.0
 47
0.1
 48
0.1
140
5.0
141
0.0
142
0.0
143
0.0393701
144
1.0
145
0.0
146
0.71
147
1.5
 71
     0
 72
     0
 73
     0
 74
     0
 75
     0
 76
     0
 77
     1
 78
     8
170
     0
171
     2
172
     1
173
     0
174
     0
175
     0
176
   256
177
   256
178
     2
  0
DIMSTYLE
  2
AM_ISO$SF
 70
     0
  3

  4
"
  5

  6

  7

 40
1.0
 41
2.5
 42
1.0
 43
10.0
 44
1.0
 45
0.0
 46
0.0
 47
0.1
 48
0.1
140
3.5
141
0.0
142
0.0
143
0.0393701
144
1.0
145
0.0
146
0.71
147
1.5
 71
     0
 72
     0
 73
     0
 74
     0
 75
     1
 76
     1
 77
     1
 78
     8
170
     0
171
     2
172
     1
173
     0
174
     0
175
     0
176
   256
177
   256
178
     2
  0
DIMSTYLE
  2
AM_ISO$SH
 70
     0
  3

  4
"
  5

  6
GENAXEH
  7

 40
1.0
 41
2.5
 42
1.0
 43
10.0
 44
1.0
 45
0.0
 46
0.0
 47
0.1
 48
0.1
140
3.5
141
0.0
142
0.0
143
0.0393701
144
2.0
145
0.0
146
0.71
147
1.5
 71
     0
 72
     0
 73
     0
 74
     0
 75
     1
 76
     1
 77
     1
 78
     8
170
     0
171
     2
172
     1
173
     1
174
     0
175
     0
176
   256
177
   256
178
     2
  0
ENDTAB
  0
ENDSEC
  0
SECTION
  2
BLOCKS
  0
BLOCK
  8
0
  2
$MODEL_SPACE
 70
     0
 10
0.0
 20
0.0
 30
0.0
  3
$MODEL_SPACE
  1

  0
ENDBLK
  5
1C
  8
0
  0
BLOCK
 67
     1
  8
0
  2
$PAPER_SPACE
 70
     0
 10
0.0
 20
0.0
 30
0.0
  3
$PAPER_SPACE
  1

  0
ENDBLK
  5
19
 67
     1
  8
0
  0
BLOCK
  8
0
  2
_OPEN
 70
     0
 10
0.0
 20
0.0
 30
0.0
  3
_OPEN
  1

  0
LINE
  5
3E1A
  8
0
  6
BYBLOCK
 62
     0
 10
-1.0
 20
0.1666666666666666
 30
0.0
 11
0.0
 21
0.0
 31
0.0
  0
LINE
  5
3E1B
  8
0
  6
BYBLOCK
 62
     0
 10
-1.0
 20
-0.1666666666666666
 30
0.0
 11
0.0
 21
0.0
 31
0.0
  0
LINE
  5
3E1C
  8
0
  6
BYBLOCK
 62
     0
 10
0.0
 20
0.0
 30
0.0
 11
-1.0
 21
0.0
 31
0.0
  0
ENDBLK
  5
3E1D
  8
0
  0
BLOCK
  8
0
  2
GENAXEH
 70
     0
 10
0.0
 20
0.0
 30
0.0
  3
GENAXEH
  1

  0
LINE
  5
3E45
  8
0
 10
-1.0
 20
0.0
 30
0.0
 11
1.0
 21
0.0
 31
0.0
  0
ENDBLK
  5
3E46
  8
0
  0
ENDSEC
  0
SECTION
  2
ENTITIES
  0
LINE
  5
42FB
  8
245
  6
CENTER2
 10
-50.399999999999991
 20
0.0
 30
0.0
 11
69.935512056072525
 21
0.0000000000000284
 31
0.0
  0
LINE
  5
42FC
  8
243
  6
HIDDEN2
 10
65.899999999999963
 20
9.5250000000000323
 30
0.0
 11
12.366025403784731
 21
9.524999999999876
 31
0.0
1001
GRPNAME
1000
PASTMD0S
  0
LINE
  5
42FD
  8
241
  6
CONTINUOUS
 10
24.499999999999542
 20
-22.899999999999789
 30
0.0
 11
24.499999999999901
 21
22.899999999999839
 31
0.0
  0
LINE
  5
42FF
  8
240
  6
CONTINUOUS
 10
22.000000000000028
 20
-22.89999999999992
 30
0.0
 11
21.899999999997789
 21
-23.000000000000171
 31
0.0
  0
LINE
  5
4300
  8
240
  6
CONTINUOUS
 10
22.000000000000028
 20
22.899999999999981
 30
0.0
 11
21.899999999975648
 21
23.000000000000679
 31
0.0
  0
LINE
  5
4301
  8
240
  6
CONTINUOUS
 10
65.900000000000006
 20
0.0000000000000274
 30
0.0
 11
65.899999999999935
 21
-17.979871331303681
 31
0.0
  0
LINE
  5
4302
  8
240
  6
CONTINUOUS
 10
63.499999999998423
 20
-17.979871331303681
 30
0.0
 11
65.899999999999935
 21
-17.979871331303681
 31
0.0
  0
LINE
  5
4303
  8
240
  6
CONTINUOUS
 10
65.899999999999935
 20
17.979871331303741
 30
0.0
 11
65.900000000000006
 21
0.0000000000000292
 31
0.0
1001
GRPNAME
1000
PASTMD1C
  0
LINE
  5
4304
  8
240
  6
CONTINUOUS
 10
63.499999999999737
 20
17.979871331303741
 30
0.0
 11
65.899999999999935
 21
17.979871331303741
 31
0.0
1001
GRPNAME
1000
PASTMD1C
  0
LINE
  5
4305
  8
240
  6
CONTINUOUS
 10
53.499999999997222
 20
-25.00000000000027
 30
0.0
 11
31.849999999992349
 21
-25.0
 31
0.0
  0
LINE
  5
4306
  8
241
  6
CONTINUOUS
 10
31.499999999999769
 20
-25.349999999999952
 30
0.0
 11
31.499999999999769
 21
25.3500000000003
 31
0.0
  0
LINE
  5
4307
  8
240
  6
CONTINUOUS
 10
53.499999999999403
 20
24.999999999999929
 30
0.0
 11
31.849999999992392
 21
25.0
 31
0.0
1001
GRPNAME
1000
PASTMD15
  0
LINE
  5
4308
  8
240
  6
CONTINUOUS
 10
63.499999999998423
 20
-17.979871331303681
 30
0.0
 11
63.499999999998323
 21
-20.719431299383729
 31
0.0
  0
LINE
  5
4309
  8
241
  6
CONTINUOUS
 10
53.49999999999951
 20
24.999999999999929
 30
0.0
 11
53.49999999999951
 21
-24.9808275762026
 31
0.0
  0
LINE
  5
430A
  8
240
  6
CONTINUOUS
 10
61.020944533000502
 20
23.67385455841999
 30
0.0
 11
53.499999999999403
 21
24.999999999999929
 31
0.0
  0
LINE
  5
430B
  8
240
  6
CONTINUOUS
 10
61.020944532999081
 20
-23.673854558420238
 30
0.0
 11
53.499999999997222
 21
-25.00000000000027
 31
0.0
  0
ARC
  5
430C
  8
240
  6
CONTINUOUS
 10
60.499999999999737
 20
20.71943129938338
 30
0.0
 40
3.0
 50
359.99999999999841
 51
79.999999999999815
  0
ARC
  5
430D
  8
240
  6
CONTINUOUS
 10
60.499999999998323
 20
-20.719431299383629
 30
0.0
 40
3.0
 50
280.00000000000028
 51
359.99999999999841
  0
LINE
  5
430E
  8
240
  6
CONTINUOUS
 10
22.000000000000171
 20
22.899999999999839
 30
0.0
 11
27.732673012021049
 21
22.899999999999771
 31
0.0
  0
ARC
  5
430F
  8
240
  6
CONTINUOUS
 10
27.732673012021021
 20
23.899999999999771
 30
0.0
 40
1.0
 50
270.0
 51
345.0000000000004
  0
LINE
  5
4310
  8
240
  6
CONTINUOUS
 10
28.957876683146189
 20
24.608819045102639
 30
0.0
 11
28.698598838310101
 21
23.641180954897251
 31
0.0
  0
ARC
  5
4311
  8
240
  6
CONTINUOUS
 10
29.923802509435291
 20
24.350000000000129
 30
0.0
 40
1.0
 50
90.000000000006537
 51
165.0000000000004
  0
LINE
  5
4312
  8
240
  6
CONTINUOUS
 10
31.849999999992392
 20
25.0
 30
0.0
 11
31.500000000006139
 21
25.3500000000003
 31
0.0
1001
GRPNAME
1000
PASTMD1P
  0
LINE
  5
4313
  8
240
  6
CONTINUOUS
 10
29.92380250943518
 20
25.350000000000129
 30
0.0
 11
31.500000000006139
 21
25.3500000000003
 31
0.0
  0
LINE
  5
4314
  8
240
  6
CONTINUOUS
 10
28.957876683146189
 20
-24.60881904510261
 30
0.0
 11
28.698598838310101
 21
-23.641180954897209
 31
0.0
  0
ARC
  5
4315
  8
240
  6
CONTINUOUS
 10
27.732673012021021
 20
-23.899999999999729
 30
0.0
 40
1.0
 50
14.9999999999996
 51
90.0
  0
LINE
  5
4316
  8
240
  6
CONTINUOUS
 10
29.92380250943518
 20
-25.35000000000009
 30
0.0
 11
31.500000000006139
 21
-25.350000000000261
 31
0.0
  0
LINE
  5
4317
  8
240
  6
CONTINUOUS
 10
31.849999999992349
 20
-25.0
 30
0.0
 11
31.500000000006139
 21
-25.350000000000261
 31
0.0
1001
GRPNAME
1000
PASTMD1P
  0
ARC
  5
4318
  8
240
  6
CONTINUOUS
 10
29.923802509435291
 20
-24.35000000000009
 30
0.0
 40
1.0
 50
194.9999999999994
 51
269.99999999999352
  0
LINE
  5
4319
  8
241
  6
CONTINUOUS
 10
28.499999999999751
 20
-22.899999999999881
 30
0.0
 11
28.500000000002199
 21
23.258743971945659
 31
0.0
  0
LINE
  5
431A
  8
241
  6
CONTINUOUS
 10
29.156475521456262
 20
-24.991256028057521
 30
0.0
 11
29.15647552146217
 21
24.99125602806388
 31
0.0
  0
LINE
  5
431B
  8
240
  6
CONTINUOUS
 10
63.499999999999737
 20
20.719431299383292
 30
0.0
 11
63.499999999999737
 21
17.979871331303741
 31
0.0
  0
LINE
  5
431C
  8
241
  6
CONTINUOUS
 10
63.499999999999737
 20
17.979871331303741
 30
0.0
 11
63.499999999998423
 21
-17.979871331303681
 31
0.0
  0
LINE
  5
431D
  8
243
  6
HIDDEN2
 10
65.899999999999963
 20
-9.5249999999999773
 30
0.0
 11
12.366025403784731
 21
-9.5249999999998494
 31
0.0
1001
GRPNAME
1000
PASTMD0S
  0
LINE
  5
431E
  8
240
  6
CONTINUOUS
 10
17.599999999999991
 20
23.000000000000021
 30
0.0
 11
21.899999999976309
 21
23.000000000000011
 31
0.0
  0
LINE
  5
431F
  8
243
  6
HIDDEN2
 10
19.0
 20
16.300000000000011
 30
0.0
 11
1.0
 21
16.300000000000011
 31
0.0
  0
LINE
  5
4320
  8
240
  6
CONTINUOUS
 10
17.599999999999991
 20
-22.999999999999979
 30
0.0
 11
21.89999999999797
 21
-22.999999999999989
 31
0.0
  0
LINE
  5
4321
  8
243
  6
HIDDEN2
 10
19.0
 20
-16.300000000000001
 30
0.0
 11
1.0
 21
-16.300000000000001
 31
0.0
  0
LINE
  5
4322
  8
240
  6
CONTINUOUS
 10
-48.399999999999977
 20
-8.8165000019866842
 30
0.0
 11
0.0
 21
-15.874999999999989
 31
0.0
  0
LINE
  5
4323
  8
240
  6
CONTINUOUS
 10
-48.399999999999977
 20
-8.8165000019866842
 30
0.0
 11
-48.399999999999977
 21
8.816500001986709
 31
0.0
  0
LINE
  5
4324
  8
240
  6
CONTINUOUS
 10
15.29059892000001
 20
-18.999999999999972
 30
0.0
 11
17.599999999999991
 21
-22.999999999999979
 31
0.0
  0
LINE
  5
4325
  8
240
  6
CONTINUOUS
 10
11.909401080000009
 20
-18.999999999999972
 30
0.0
 11
9.5999999999999943
 21
-22.999999999999979
 31
0.0
  0
LINE
  5
4326
  8
240
  6
CONTINUOUS
 10
1.0
 20
-15.874999999999989
 30
0.0
 11
1.0
 21
-22.999999999999979
 31
0.0
  0
LINE
  5
4327
  8
241
  6
CONTINUOUS
 10
17.59999999999998
 20
23.000000000000071
 30
0.0
 11
17.599999999999991
 21
-22.999999999999979
 31
0.0
  0
LINE
  5
4328
  8
241
  6
CONTINUOUS
 10
9.5999999999999943
 20
-22.999999999999979
 30
0.0
 11
9.5999999999999943
 21
23.000000000000021
 31
0.0
  0
LINE
  5
4329
  8
240
  6
CONTINUOUS
 10
9.5999999999999943
 20
-22.999999999999979
 30
0.0
 11
1.0
 21
-22.999999999999979
 31
0.0
  0
LINE
  5
432A
  8
241
  6
CONTINUOUS
 10
15.29059892000001
 20
-18.999999999999972
 30
0.0
 11
15.29059891999999
 21
19.000000000000011
 31
0.0
  0
LINE
  5
432B
  8
241
  6
CONTINUOUS
 10
11.909401080000009
 20
-18.999999999999972
 30
0.0
 11
11.909401079999981
 21
19.000000000000011
 31
0.0
  0
LINE
  5
432C
  8
241
  6
CONTINUOUS
 10
0.0
 20
-15.874999999999989
 30
0.0
 11
0.0
 21
15.875000000000011
 31
0.0
  0
LINE
  5
432D
  8
241
  6
CONTINUOUS
 10
1.0
 20
15.875000000000011
 30
0.0
 11
1.0
 21
-15.874999999999989
 31
0.0
  0
LINE
  5
432E
  8
240
  6
CONTINUOUS
 10
0.0
 20
-15.874999999999989
 30
0.0
 11
1.0
 21
-15.874999999999989
 31
0.0
  0
LINE
  5
432F
  8
240
  6
CONTINUOUS
 10
11.909401080000009
 20
-18.999999999999972
 30
0.0
 11
15.29059892000001
 21
-18.999999999999972
 31
0.0
  0
LINE
  5
4330
  8
240
  6
CONTINUOUS
 10
-48.399999999999977
 20
8.816500001986709
 30
0.0
 11
0.0
 21
15.875000000000011
 31
0.0
  0
LINE
  5
4331
  8
240
  6
CONTINUOUS
 10
15.29059892000001
 20
19.000000000000011
 30
0.0
 11
17.599999999999991
 21
23.000000000000021
 31
0.0
  0
LINE
  5
4332
  8
240
  6
CONTINUOUS
 10
11.909401080000009
 20
19.000000000000011
 30
0.0
 11
9.5999999999999943
 21
23.000000000000021
 31
0.0
  0
LINE
  5
4333
  8
240
  6
CONTINUOUS
 10
1.0
 20
15.875000000000011
 30
0.0
 11
1.0
 21
23.000000000000021
 31
0.0
  0
LINE
  5
4334
  8
240
  6
CONTINUOUS
 10
0.0
 20
15.875000000000011
 30
0.0
 11
1.0
 21
15.875000000000011
 31
0.0
  0
LINE
  5
4335
  8
240
  6
CONTINUOUS
 10
11.909401080000009
 20
19.000000000000011
 30
0.0
 11
15.29059892000001
 21
19.000000000000011
 31
0.0
  0
LINE
  5
4336
  8
240
  6
CONTINUOUS
 10
9.5999999999999943
 20
23.000000000000021
 30
0.0
 11
1.0
 21
23.000000000000021
 31
0.0
  0
LINE
  5
4337
  8
241
  6
CONTINUOUS
 10
22.0
 20
-22.899999999999949
 30
0.0
 11
22.0
 21
22.899999999999999
 31
0.0
  0
LINE
  5
4338
  8
243
  6
HIDDEN2
 10
19.0
 20
-16.300000000000001
 30
0.0
 11
19.0
 21
-22.999999999999979
 31
0.0
  0
LINE
  5
4339
  8
243
  6
HIDDEN2
 10
19.0
 20
16.300000000000011
 30
0.0
 11
19.0
 21
23.000000000000021
 31
0.0
  0
LINE
  5
433A
  8
247
  6
CONTINUOUS
 10
6.4999999999999432
 20
-13.749999999999989
 30
0.0
 11
6.5
 21
-9.1153846156699831
 31
0.0
  0
LINE
  5
433B
  8
247
  6
CONTINUOUS
 10
4.0
 20
-12.9548934999879
 30
0.0
 11
6.0999999999160082
 21
-13.55705881005734
 31
0.0
  0
LINE
  5
433C
  8
247
  6
CONTINUOUS
 10
4.996153846113998
 20
-12.32515140351903
 30
0.0
 11
4.996153846113998
 21
-13.24053601886701
 31
0.0
  0
ARC
  5
433D
  8
247
  6
CONTINUOUS
 10
4.3847190672940961
 20
-12.08726340194673
 30
0.0
 40
0.3876715809326743
 50
72.99788967529301
 51
172.92416621851351
  0
ARC
  5
433E
  8
247
  6
CONTINUOUS
 10
4.305223131028014
 20
-12.38247755680405
 30
0.0
 40
0.6933047965358772
 50
4.7429368522022122
 51
73.849226273266751
1001
GENIUS_GENOBJ-N-FIL_13
1002
{
1000
OWNER
1000
GEN
1002
}
1001
GENIUS_GENODEF_13
1002
{
1000
HIER
1070
     0
1002
}
1002
{
1000
MANEDIT
1070
     0
1002
}
1002
{
1000
NOSEL
1070
     0
1002
}
1002
{
1000
BEHIND
1070
     0
1002
}
1002
{
1000
OTHER
1070
     0
1002
}
1002
{
1000
REACTOR
1002
}
  0
LINE
  5
433F
  8
247
  6
CONTINUOUS
 10
6.0999999999160082
 20
-12.64167419470934
 30
0.0
 11
6.0999999999160082
 21
-13.55705881005734
 31
0.0
  0
LINE
  5
4340
  8
247
  6
CONTINUOUS
 10
4.0
 20
-12.9548934999879
 30
0.0
 11
4.0
 21
-12.03950888463992
 31
0.0
  0
ARC
  5
4341
  8
247
  6
CONTINUOUS
 10
5.3874169627678707
 20
-12.37830647626679
 30
0.0
 40
0.394857301075386
 50
65.990941652528889
 51
172.26344345906909
  0
ARC
  5
4342
  8
247
  6
CONTINUOUS
 10
5.391200327332565
 20
-12.712446610426911
 30
0.0
 40
0.7123241612361686
 50
5.701985164256504
 51
77.277338436822006
1001
GENIUS_GENOBJ-N-FIL_13
1002
{
1000
OWNER
1000
GEN
1002
}
1001
GENIUS_GENODEF_13
1002
{
1000
HIER
1070
     0
1002
}
1002
{
1000
MANEDIT
1070
     0
1002
}
1002
{
1000
NOSEL
1070
     0
1002
}
1002
{
1000
BEHIND
1070
     0
1002
}
1002
{
1000
OTHER
1070
     0
1002
}
1002
{
1000
REACTOR
1002
}
  0
LINE
  5
4343
  8
247
  6
CONTINUOUS
 10
6.0999999999160082
 20
-11.683981887063331
 30
0.0
 11
4.0
 21
-11.081816576993949
 31
0.0
  0
LINE
  5
4344
  8
247
  6
CONTINUOUS
 10
4.0
 20
-9.5856627309079112
 30
0.0
 11
4.0
 21
-9.9816783643035354
 31
0.0
  0
LINE
  5
4345
  8
247
  6
CONTINUOUS
 10
6.0999999999160082
 20
-10.60873965394391
 30
0.0
 11
6.0999999999160082
 21
-10.17797042319191
 31
0.0
  0
ARC
  5
4346
  8
247
  6
CONTINUOUS
 10
5.4582995950833562
 20
-9.3818165770699
 30
0.0
 40
1.576855057639547
 50
202.3594881415294
 51
254.99324854284691
  0
ARC
  5
4347
  8
247
  6
CONTINUOUS
 10
4.5658188585381341
 20
-9.8475113661331655
 30
0.0
 40
0.6234706797009447
 50
94.994589319075317
 51
155.1663289573041
1001
GENIUS_GENOBJ-N-FIL_13
1002
{
1000
OWNER
1000
GEN
1002
}
1001
GENIUS_GENODEF_13
1002
{
1000
HIER
1070
     0
1002
}
1002
{
1000
MANEDIT
1070
     0
1002
}
1002
{
1000
NOSEL
1070
     0
1002
}
1002
{
1000
BEHIND
1070
     0
1002
}
1002
{
1000
OTHER
1070
     0
1002
}
1002
{
1000
REACTOR
1002
}
  0
ARC
  5
4348
  8
247
  6
CONTINUOUS
 10
5.1621021219694381
 20
-10.444183951032731
 30
0.0
 40
0.9749472149106983
 50
15.846096555780679
 51
82.325137004169278
  0
ARC
  5
4349
  8
247
  6
CONTINUOUS
 10
5.3714704019710631
 20
-10.03521163877217
 30
0.0
 40
0.9271945638692009
 50
249.7136016704969
 51
321.78874565641092
1001
GENIUS_GENOBJ-N-FIL_13
1002
{
1000
OWNER
1000
GEN
1002
}
1001
GENIUS_GENODEF_13
1002
{
1000
HIER
1070
     0
1002
}
1002
{
1000
MANEDIT
1070
     0
1002
}
1002
{
1000
NOSEL
1070
     0
1002
}
1002
{
1000
BEHIND
1070
     0
1002
}
1002
{
1000
OTHER
1070
     0
1002
}
1002
{
1000
REACTOR
1002
}
  0
LINE
  5
434A
  8
247
  6
CONTINUOUS
 10
5.2923076922559744
 20
-9.9625858078159002
 30
0.0
 11
5.2923076922559744
 21
-9.4779704232199542
 31
0.0
  0
ARC
  5
434B
  8
247
  6
CONTINUOUS
 10
5.25
 20
-13.749999999999989
 30
0.0
 40
1.25
 50
180.0
 51
0.0
  0
LINE
  5
434C
  8
247
  6
CONTINUOUS
 10
4.0
 20
-13.749999999999989
 30
0.0
 11
4.0
 21
-13.30384615391397
 31
0.0
  0
ARC
  5
434D
  8
247
  6
CONTINUOUS
 10
5.25
 20
-9.1153846156699831
 30
0.0
 40
1.25
 50
0.0
 51
180.0
  0
LINE
  5
434E
  8
250
  6
CONTINUOUS
 10
-29.192645999999971
 20
-20.993266540993311
 30
0.0
 11
-46.925979329999961
 21
-20.993266540993311
 31
0.0
1001
ITEMNAME
1000
LNSP2
  0
TEXT
  5
434F
  8
250
  6
CONTINUOUS
 10
-44.659312663333303
 20
-19.993266540993311
 30
0.0
 40
2.799999999999998
  1
BBT30
  7
YOKO
1001
ITEMNAME
1000
LNSP3
1001
ACAD
1000
MTEXTBEGIN
1070
    73
1070
     1
1070
    44
1040
1.0
1070
    74
1070
     0
1000
MTEXTEND
1000
MTEXTBEGIN
1070
    73
1070
     1
1070
    44
1040
1.0
1070
    74
1070
     0
1000
MTEXTEND
1000
MTEXTBEGIN
1070
    73
1070
     1
1070
    44
1040
1.0
1070
    74
1070
     0
1000
MTEXTEND
1000
MTEXTBEGIN
1070
    73
1070
     1
1070
    44
1040
1.0
1070
    74
1070
     0
1000
MTEXTEND
  0
LINE
  5
4350
  8
250
  6
CONTINUOUS
 10
-25.314999999633049
 20
-14.27698665164449
 30
0.0
 11
-29.192645999999971
 21
-20.993266540993311
 31
0.0
1001
ACAD
1000
DSTYLE
1002
{
1070
     6
1000
OPEN
1070
   343
1005
0
1002
}
  0
LINE
  5
4351
  8
250
  6
CONTINUOUS
 10
-25.636872774741558
 20
-14.091153318372321
 30
0.0
 11
-24.199999999999989
 21
-12.345750000993339
 31
0.0
  0
LINE
  5
4352
  8
250
  6
CONTINUOUS
 10
-24.993127224524532
 20
-14.462819984916671
 30
0.0
 11
-24.199999999999989
 21
-12.345750000993339
 31
0.0
  0
LINE
  5
4353
  8
250
  6
CONTINUOUS
 10
-24.199999999999989
 20
-12.345750000993339
 30
0.0
 11
-25.314999999633049
 21
-14.27698665164449
 31
0.0
  0
TEXT
  5
4354
  8
241
  6
CONTINUOUS
 10
-48.399999999999991
 20
56.000000000000007
 30
0.0
 40
5.0
  1
BBT30-MEGA.750DS-2.5
  7
YOKO
 11
-48.399999999999991
 21
56.000000000000007
 31
0.0
 73
     1
  0
LINE
  5
4355
  8
250
  6
CONTINUOUS
 10
83.899999999999906
 20
-9.5250000000000181
 30
0.0
 11
66.400000000000119
 21
-9.5250000000000092
 31
0.0
  0
LINE
  5
4356
  8
250
  6
CONTINUOUS
 10
83.899999999999906
 20
9.5250000000000323
 30
0.0
 11
66.399999999999821
 21
9.5250000000000572
 31
0.0
  0
LINE
  5
4357
  8
250
  6
CONTINUOUS
 10
82.899999999999906
 20
-8.0000000000000124
 30
0.0
 11
82.899999999999906
 21
8.0000000000000355
 31
0.0
  0
INSERT
  5
4358
  8
250
  6
CONTINUOUS
  2
_OPEN
 10
82.899999999999906
 20
-9.5250000000000181
 30
0.0
 41
2.0
 42
2.0
 43
2.0
 50
270.0
  0
INSERT
  5
4359
  8
250
  6
CONTINUOUS
  2
_OPEN
 10
82.899999999999906
 20
9.5250000000000323
 30
0.0
 41
2.0
 42
2.0
 43
2.0
 50
90.0
  0
TEXT
  5
435B
  8
250
  6
CONTINUOUS
 10
68.649271175934942
 20
13.613517841677639
 30
0.0
 40
2.799999999999998
  1
Coolant
  7
YOKO
 11
68.649271175934942
 21
13.613517841677639
 31
0.0
 73
     1
  0
LINE
  5
435C
  8
250
  6
CONTINUOUS
 10
82.178562284154594
 20
12.37166666666676
 30
0.0
 11
84.408562284154598
 21
12.000000000000091
 31
0.0
  0
LINE
  5
435D
  8
250
  6
CONTINUOUS
 10
82.178562284154594
 20
11.628333333333419
 30
0.0
 11
84.408562284154598
 21
12.000000000000091
 31
0.0
  0
LINE
  5
435E
  8
250
  6
CONTINUOUS
 10
84.408562284154598
 20
12.000000000000091
 30
0.0
 11
82.178562284154594
 21
12.000000000000091
 31
0.0
  0
LINE
  5
435F
  8
250
  6
CONTINUOUS
 10
82.178562284154594
 20
12.000000000000091
 30
0.0
 11
68.899999999998926
 21
12.000000000000091
 31
0.0
  0
LINE
  5
4360
  8
250
  6
CONTINUOUS
 10
82.178562284155404
 20
-11.628333333333281
 30
0.0
 11
84.408562284155394
 21
-11.999999999999959
 31
0.0
  0
LINE
  5
4361
  8
250
  6
CONTINUOUS
 10
82.178562284155404
 20
-12.371666666666631
 30
0.0
 11
84.408562284155394
 21
-11.999999999999959
 31
0.0
  0
LINE
  5
4362
  8
250
  6
CONTINUOUS
 10
84.408562284155394
 20
-11.999999999999959
 30
0.0
 11
82.178562284155404
 21
-11.999999999999959
 31
0.0
  0
LINE
  5
4363
  8
250
  6
CONTINUOUS
 10
82.178562284155404
 20
-11.999999999999959
 30
0.0
 11
68.899999999999707
 21
-11.999999999999959
 31
0.0
  0
TEXT
  5
4364
  8
250
  6
CONTINUOUS
 10
68.486900841792306
 20
-16.815545675999338
 30
0.0
 40
2.799999999999998
  1
Coolant
  7
YOKO
 11
68.486900841792306
 21
-16.815545675999338
 31
0.0
 73
     1
  0
LINE
  5
4365
  8
250
  6
CONTINUOUS
 10
53.999999999999517
 20
24.999999999999929
 30
0.0
 11
90.499999999999972
 21
24.999999999999929
 31
0.0
  0
LINE
  5
4366
  8
250
  6
CONTINUOUS
 10
53.999999999997222
 20
-25.00000000000027
 30
0.0
 11
90.499999999999972
 21
-25.000000000000291
 31
0.0
  0
LINE
  5
4367
  8
250
  6
CONTINUOUS
 10
89.499999999999972
 20
22.769999999999929
 30
0.0
 11
89.499999999999972
 21
-22.770000000000291
 31
0.0
  0
TEXT
  5
437C
  8
250
  6
CONTINUOUS
 10
88.499999999999957
 20
-6.4059360111174266
 30
0.0
 40
2.799999999999998
  1
\U+22051.969
 50
90.0
  0
LINE
  5
437D
  8
250
  6
CONTINUOUS
 10
89.871666666666655
 20
-22.770000000000291
 30
0.0
 11
89.499999999999972
 21
-25.000000000000291
 31
0.0
  0
LINE
  5
437E
  8
250
  6
CONTINUOUS
 10
89.128333333333288
 20
-22.770000000000291
 30
0.0
 11
89.499999999999972
 21
-25.000000000000291
 31
0.0
  0
LINE
  5
437F
  8
250
  6
CONTINUOUS
 10
89.499999999999972
 20
-25.000000000000291
 30
0.0
 11
89.499999999999972
 21
-22.770000000000291
 31
0.0
  0
LINE
  5
4380
  8
250
  6
CONTINUOUS
 10
89.128333333333288
 20
22.769999999999929
 30
0.0
 11
89.499999999999972
 21
24.999999999999929
 31
0.0
  0
LINE
  5
4381
  8
250
  6
CONTINUOUS
 10
89.871666666666655
 20
22.769999999999929
 30
0.0
 11
89.499999999999972
 21
24.999999999999929
 31
0.0
  0
LINE
  5
4382
  8
250
  6
CONTINUOUS
 10
89.499999999999972
 20
24.999999999999929
 30
0.0
 11
89.499999999999972
 21
22.769999999999929
 31
0.0
  0
LINE
  5
43CD
  8
240
  6
CONTINUOUS
 10
22.000000000000028
 20
-22.899999999999849
 30
0.0
 11
27.732673012021049
 21
-22.899999999999729
 31
0.0
  0
TEXT
  5
446B
  8
250
 10
81.811713893647749
 20
-6.4059360111171664
 30
0.0
 40
2.799999999999998
  1
\U+2205
 50
90.0
  0
TEXT
  5
446C
  8
250
 10
81.811713893647749
 20
-3.872602677783834
 30
0.0
 40
2.799999999999998
  1
.750
 50
90.0
  0
LINE
  5
44B5
  8
250
  6
CONTINUOUS
 10
65.900000000000006
 20
18.479871331303741
 30
0.0
 11
65.900000000000006
 21
36.0
 31
0.0
  0
LINE
  5
44B6
  8
250
  6
CONTINUOUS
 10
5.0000000000001981
 20
11.48299316185595
 30
0.0
 11
5.0000000000001998
 21
36.0
 31
0.0
  0
LINE
  5
44B7
  8
250
  6
CONTINUOUS
 10
63.670000000000002
 20
35.0
 30
0.0
 11
7.2300000000002012
 21
35.0
 31
0.0
  0
LINE
  5
44BB
  8
250
  6
CONTINUOUS
 10
0.0
 20
16.375000000000011
 30
0.0
 11
0.0000000000000017
 21
43.0
 31
0.0
  0
LINE
  5
44BC
  8
250
  6
CONTINUOUS
 10
65.900000000000006
 20
18.479871331303741
 30
0.0
 11
65.900000000000006
 21
43.0
 31
0.0
  0
LINE
  5
44BD
  8
250
  6
CONTINUOUS
 10
2.2300000000000009
 20
42.0
 30
0.0
 11
63.670000000000002
 21
42.0
 31
0.0
  0
TEXT
  5
44C1
  8
250
  6
CONTINUOUS
 10
23.850000000000101
 20
37.200000000000003
 30
0.0
 40
2.7999999999999989
  1
(max.2.39)
  0
LINE
  5
44C2
  8
250
  6
CONTINUOUS
 10
7.2300000000002012
 20
34.62833333333333
 30
0.0
 11
5.0000000000001998
 21
35.0
 31
0.0
  0
LINE
  5
44C3
  8
250
  6
CONTINUOUS
 10
7.2300000000002012
 20
35.37166666666667
 30
0.0
 11
5.0000000000001998
 21
35.0
 31
0.0
  0
LINE
  5
44C4
  8
250
  6
CONTINUOUS
 10
5.0000000000001998
 20
35.0
 30
0.0
 11
7.2300000000002012
 21
35.0
 31
0.0
  0
LINE
  5
44C5
  8
250
  6
CONTINUOUS
 10
63.670000000000002
 20
35.37166666666667
 30
0.0
 11
65.900000000000006
 21
35.0
 31
0.0
  0
LINE
  5
44C6
  8
250
  6
CONTINUOUS
 10
63.670000000000002
 20
34.62833333333333
 30
0.0
 11
65.900000000000006
 21
35.0
 31
0.0
  0
LINE
  5
44C7
  8
250
  6
CONTINUOUS
 10
65.900000000000006
 20
35.0
 30
0.0
 11
63.670000000000002
 21
35.0
 31
0.0
  0
TEXT
  5
44C8
  8
250
  6
CONTINUOUS
 10
26.88333333333334
 20
43.0
 30
0.0
 40
2.7999999999999989
  1
2.594
  0
LINE
  5
44C9
  8
250
  6
CONTINUOUS
 10
63.670000000000002
 20
42.371666666666663
 30
0.0
 11
65.900000000000006
 21
42.0
 31
0.0
  0
LINE
  5
44CA
  8
250
  6
CONTINUOUS
 10
63.670000000000002
 20
41.62833333333333
 30
0.0
 11
65.900000000000006
 21
42.0
 31
0.0
  0
LINE
  5
44CB
  8
250
  6
CONTINUOUS
 10
65.900000000000006
 20
42.0
 30
0.0
 11
63.670000000000002
 21
42.0
 31
0.0
  0
LINE
  5
44CC
  8
250
  6
CONTINUOUS
 10
2.2300000000000009
 20
41.62833333333333
 30
0.0
 11
0.0000000000000016
 21
42.0
 31
0.0
  0
LINE
  5
44CD
  8
250
  6
CONTINUOUS
 10
2.2300000000000009
 20
42.371666666666663
 30
0.0
 11
0.0000000000000016
 21
42.0
 31
0.0
  0
LINE
  5
44CE
  8
250
  6
CONTINUOUS
 10
0.0000000000000016
 20
42.0
 30
0.0
 11
2.2300000000000009
 21
42.0
 31
0.0
  0
VIEWPORT
  5
22
 67
     1
  8
0
 10
261.51769911504419
 20
148.5
 30
0.0
 40
523.0353982300885
 41
297.0
 68
     1
 69
     1
1001
ACAD
1000
MVIEW
1002
{
1070
    16
1010
0.0
1020
0.0
1030
0.0
1010
0.0
1020
0.0
1030
1.0
1040
0.0
1040
297.0
1040
261.51769911504419
1040
148.5
1040
50.0
1040
0.0
1040
0.0
1070
     0
1070
   100
1070
     1
1070
     1
1070
     0
1070
     0
1070
     0
1070
     0
1040
0.0
1040
0.0
1040
0.0
1040
1.0
1040
1.0
1040
10.0
1040
10.0
1070
     0
1002
{
1002
}
1002
}
1001
GENIUS_GENODEF_13
1002
{
1000
HIER
1070
     0
1002
}
1002
{
1000
MANEDIT
1070
     0
1002
}
1002
{
1000
NOSEL
1070
     0
1002
}
1002
{
1000
BEHIND
1070
     0
1002
}
1002
{
1000
OTHER
1070
     0
1002
}
1002
{
1000
REACTOR
1002
}
1001
GENIUS_GENOBJ-N-SDF_13
1002
{
1000
OWNER
1000
GEN
1002
}
1001
GENIUS_GENSCREG_15
1000
PF
1040
1.0
1000
DF
1040
1.0
1000
MIN
1011
0.0
1021
0.0
1031
0.0
1021
0.0
1031
0.0
1000
MAX
1011
523.0353982300885
1021
0.0
1031
0.0
1021
297.0
1031
0.0
1000
FLAGS
1070
     4
  0
ENDSEC
  0
EOF
