  0
SECTION
  2
HEADER
  9
$ACADVER
  1
AC1009
  9
$DWGCODEPAGE
  3
ansi_1252
  9
$INSBASE
 10
0.0
 20
0.0
 30
0.0
  9
$EXTMIN
 10
-49.40000000000001
 20
-25.35000000000077
 30
0.0
  9
$EXTMAX
 10
94.70020253999779
 20
61.0
 30
0.0
  9
$LIMMIN
 10
0.0
 20
0.0
  9
$LIMMAX
 10
297.0
 20
210.0
  9
$ORTHOMODE
 70
     0
  9
$REGENMODE
 70
     1
  9
$FILLMODE
 70
     1
  9
$QTEXTMODE
 70
     0
  9
$MIRRTEXT
 70
     1
  9
$DRAGMODE
 70
     2
  9
$LTSCALE
 40
10.0
  9
$OSMODE
 70
   511
  9
$ATTMODE
 70
     1
  9
$TEXTSIZE
 40
3.0
  9
$TRACEWID
 40
1.0
  9
$TEXTSTYLE
  7
YOKO
  9
$CLAYER
  8
240
  9
$CELTYPE
  6
BYLAYER
  9
$CECOLOR
 62
   256
  9
$DIMSCALE
 40
1.0
  9
$DIMASZ
 40
2.229999999999999
  9
$DIMEXO
 40
0.5
  9
$DIMDLI
 40
7.0
  9
$DIMRND
 40
0.0
  9
$DIMDLE
 40
0.0
  9
$DIMEXE
 40
1.0
  9
$DIMTP
 40
0.0
  9
$DIMTM
 40
0.01
  9
$DIMTXT
 40
2.799999999999999
  9
$DIMCEN
 40
0.0
  9
$DIMTSZ
 40
0.0
  9
$DIMTOL
 70
     0
  9
$DIMLIM
 70
     0
  9
$DIMTIH
 70
     0
  9
$DIMTOH
 70
     0
  9
$DIMSE1
 70
     0
  9
$DIMSE2
 70
     0
  9
$DIMTAD
 70
     3
  9
$DIMZIN
 70
     9
  9
$DIMBLK
  1
OPEN
  9
$DIMASO
 70
     1
  9
$DIMSHO
 70
     1
  9
$DIMPOST
  1

  9
$DIMAPOST
  1

  9
$DIMALT
 70
     0
  9
$DIMALTD
 70
     2
  9
$DIMALTF
 40
25.4
  9
$DIMLFAC
 40
1.0
  9
$DIMTOFL
 70
     1
  9
$DIMTVP
 40
0.0
  9
$DIMTIX
 70
     1
  9
$DIMSOXD
 70
     0
  9
$DIMSAH
 70
     0
  9
$DIMBLK1
  1

  9
$DIMBLK2
  1

  9
$DIMSTYLE
  2
BIGT
  9
$DIMCLRD
 70
   256
  9
$DIMCLRE
 70
   256
  9
$DIMCLRT
 70
    40
  9
$DIMTFAC
 40
1.0
  9
$DIMGAP
 40
1.0
  9
$LUNITS
 70
     2
  9
$LUPREC
 70
     6
  9
$SKETCHINC
 40
1.0
  9
$FILLETRAD
 40
0.0
  9
$AUNITS
 70
     0
  9
$AUPREC
 70
     6
  9
$MENU
  1
.
  9
$ELEVATION
 40
0.0
  9
$PELEVATION
 40
0.0
  9
$THICKNESS
 40
0.0
  9
$LIMCHECK
 70
     0
  9
$CHAMFERA
 40
0.2
  9
$CHAMFERB
 40
0.2
  9
$SKPOLY
 70
     0
  9
$TDCREATE
 40
2458136.717211748
  9
$TDUPDATE
 40
2458138.594885648
  9
$TDINDWG
 40
0.0056771991
  9
$TDUSRTIMER
 40
2458339.797011632
  9
$USRTIMER
 70
     1
  9
$ANGBASE
 50
0.0
  9
$ANGDIR
 70
     0
  9
$PDMODE
 70
     1
  9
$PDSIZE
 40
0.0
  9
$PLINEWID
 40
0.0
  9
$COORDS
 70
     1
  9
$SPLFRAME
 70
     0
  9
$SPLINETYPE
 70
     6
  9
$SPLINESEGS
 70
     4
  9
$ATTDIA
 70
     0
  9
$ATTREQ
 70
     1
  9
$HANDLING
 70
     1
  9
$HANDSEED
  5
4EAD
  9
$SURFTAB1
 70
     6
  9
$SURFTAB2
 70
     6
  9
$SURFTYPE
 70
     6
  9
$SURFU
 70
     6
  9
$SURFV
 70
     6
  9
$UCSNAME
  2

  9
$UCSORG
 10
0.0
 20
0.0
 30
0.0
  9
$UCSXDIR
 10
1.0
 20
0.0
 30
0.0
  9
$UCSYDIR
 10
0.0
 20
1.0
 30
0.0
  9
$PUCSNAME
  2

  9
$PUCSORG
 10
0.0
 20
0.0
 30
0.0
  9
$PUCSXDIR
 10
1.0
 20
0.0
 30
0.0
  9
$PUCSYDIR
 10
0.0
 20
1.0
 30
0.0
  9
$USERI1
 70
     1
  9
$USERI2
 70
     0
  9
$USERI3
 70
     0
  9
$USERI4
 70
     0
  9
$USERI5
 70
     0
  9
$USERR1
 40
0.0
  9
$USERR2
 40
0.0
  9
$USERR3
 40
0.0
  9
$USERR4
 40
0.0
  9
$USERR5
 40
0.0
  9
$WORLDVIEW
 70
     1
  9
$SHADEDGE
 70
     3
  9
$SHADEDIF
 70
    70
  9
$TILEMODE
 70
     1
  9
$MAXACTVP
 70
    16
  9
$PLIMCHECK
 70
     0
  9
$PEXTMIN
 10
1.000000000000000E+20
 20
1.000000000000000E+20
 30
1.000000000000000E+20
  9
$PEXTMAX
 10
-1.000000000000000E+20
 20
-1.000000000000000E+20
 30
-1.000000000000000E+20
  9
$PLIMMIN
 10
0.0
 20
0.0
  9
$PLIMMAX
 10
420.0
 20
297.0
  9
$UNITMODE
 70
     0
  9
$VISRETAIN
 70
     1
  9
$PLINEGEN
 70
     0
  9
$PSLTSCALE
 70
     1
  0
ENDSEC
  0
SECTION
  2
TABLES
  0
TABLE
  2
VPORT
 70
     1
  0
VPORT
  2
*ACTIVE
 70
     0
 10
0.0
 20
0.0
 11
1.0
 21
1.0
 12
33.38441951519889
 22
19.75549260983348
 13
0.0
 23
0.0
 14
7.0
 24
7.0
 15
7.0
 25
7.0
 16
0.0
 26
0.0
 36
1.0
 17
0.0
 27
0.0
 37
0.0
 40
182.5974363201194
 41
1.453362255965292
 42
50.0
 43
0.0
 44
0.0
 50
0.0
 51
0.0
 71
     0
 72
  2000
 73
     1
 74
     0
 75
     0
 76
     0
 77
     0
 78
     0
  0
ENDTAB
  0
TABLE
  2
LTYPE
 70
     3
  0
LTYPE
  2
CONTINUOUS
 70
     0
  3
Solid line
 72
    65
 73
     0
 40
0.0
  0
LTYPE
  2
CENTER2
 70
     0
  3
___ _ ___ _ ___ _ ___ _ ___ _ ___ _ ___ _ ___ _
 72
    65
 73
     4
 40
1.125
 49
0.75
 49
-0.125
 49
0.125
 49
-0.125
  0
LTYPE
  2
HIDDEN2
 70
     0
  3
_ _ _ _ _ _ _ _ _ _ _ _ _ _ _ _ _ _ _ _ _ _ _ _
 72
    65
 73
     2
 40
0.1875
 49
0.125
 49
-0.0625
  0
ENDTAB
  0
TABLE
  2
LAYER
 70
     7
  0
LAYER
  2
0
 70
     0
 62
     7
  6
CONTINUOUS
  0
LAYER
  2
245
 70
     0
 62
     2
  6
CENTER2
  0
LAYER
  2
240
 70
     0
 62
     4
  6
CONTINUOUS
  0
LAYER
  2
241
 70
     0
 62
   211
  6
CONTINUOUS
  0
LAYER
  2
243
 70
     0
 62
   211
  6
HIDDEN2
  0
LAYER
  2
247
 70
     0
 62
    60
  6
CONTINUOUS
  0
LAYER
  2
250
 70
     0
 62
     3
  6
CONTINUOUS
  0
ENDTAB
  0
TABLE
  2
STYLE
 70
     2
  0
STYLE
  2
STANDARD
 70
     0
 40
0.0
 41
1.0
 50
0.0
 71
     0
 42
3.0
  3
romans.shx
  4
extfont.shx
  0
STYLE
  2
YOKO
 70
     0
 40
0.0
 41
1.0
 50
0.0
 71
     0
 42
3.0
  3
romans.shx
  4
extfont.shx
  0
ENDTAB
  0
TABLE
  2
VIEW
 70
     0
  0
ENDTAB
  0
TABLE
  2
UCS
 70
     0
  0
ENDTAB
  0
TABLE
  2
APPID
 70
    40
  0
APPID
  2
ACAD
 70
     0
  0
APPID
  2
GLOBAL
 70
     0
  0
APPID
  2
DETAIL
 70
     0
  0
APPID
  2
GRPNAME
 70
     0
  0
APPID
  2
GPARA
 70
     0
  0
APPID
  2
MCAD_NO_VIS
 70
     0
  0
APPID
  2
ACAD_TEMP_GRAPHIC
 70
     0
  0
APPID
  2
ACATTRIBSERVICES
 70
     0
  0
APPID
  2
GENIUS_GENSCREG_15
 70
     0
  0
APPID
  2
GENIUS_GENODEF_13
 70
     0
  0
APPID
  2
GENIUS_GENOBJ-N-SDF_13
 70
     0
  0
APPID
  2
GENIUS_GENREC_14
 70
     0
  0
APPID
  2
GENIUS_GENOBJ-N-REC_13
 70
     0
  0
APPID
  2
GENIUS_GENDIMSH_14
 70
     0
  0
APPID
  2
GENIUS_GENOBJ-N-DIM_13
 70
     0
  0
APPID
  2
GENIUS_GENDIM_13
 70
     0
  0
APPID
  2
GENIUS_GENDTOL_13
 70
     0
  0
APPID
  2
GENIUS_GENOLIS_13
 70
     0
  0
APPID
  2
GENIUS_GENOENT_13
 70
     0
  0
APPID
  2
GENIUS_GENOBJ-F-FEM_13
 70
     0
  0
APPID
  2
GENIUS_GENOREF_13
 70
     0
  0
APPID
  2
GENIUS_GEFFEM_13
 70
     0
  0
APPID
  2
GENIUS_GEFFEMP_13
 70
     0
  0
APPID
  2
AD_DRAW
 70
     0
  0
APPID
  2
DESIGNERASSEMBLIES
 70
     0
  0
APPID
  2
ACADM_DIM_EDIT
 70
     0
  0
APPID
  2
AMDT_DM_ADJ
 70
     0
  0
APPID
  2
ITEMNAME
 70
     0
  0
APPID
  2
GENIUS_GENOBJ-N-FIL_13
 70
     0
  0
APPID
  2
GENIUS_GENFIL_13
 70
     0
  0
APPID
  2
GENIUS_GENOBJ-N-CHA_13
 70
     0
  0
APPID
  2
ACAECLAYERSTANDARD
 70
     0
  0
APPID
  2
ACAD_NAV_VCDISPLAY
 70
     0
  0
APPID
  2
ASK_MEN_XD
 70
     0
  0
APPID
  2
ACAD_PSEXT
 70
     0
  0
APPID
  2
ACAD_DSTYLE_DIMJAG
 70
     0
  0
APPID
  2
ACAD_DSTYLE_DIMBREAK
 70
     0
  0
APPID
  2
ACAD_DSTYLE_DIMINSPECT
 70
     0
  0
APPID
  2
ACAD_EXEMPT_FROM_CAD_STAND
 70
     0
  0
APPID
  2
ACAD_MLEADERVER
 70
     0
  0
ENDTAB
  0
TABLE
  2
DIMSTYLE
 70
     1
  0
DIMSTYLE
  2
BIGT
 70
     0
  3

  4

  5
OPEN
  6

  7

 40
1.0
 41
2.229999999999999
 42
0.5
 43
7.0
 44
1.0
 45
0.0
 46
0.0
 47
0.0
 48
0.01
140
2.799999999999999
141
0.0
142
0.0
143
25.4
144
1.0
145
0.0
146
1.0
147
1.0
 71
     0
 72
     0
 73
     0
 74
     0
 75
     0
 76
     0
 77
     3
 78
     9
170
     0
171
     2
172
     1
173
     0
174
     1
175
     0
176
   256
177
   256
178
    40
  0
ENDTAB
  0
ENDSEC
  0
SECTION
  2
BLOCKS
  0
BLOCK
  8
0
  2
$MODEL_SPACE
 70
     0
 10
0.0
 20
0.0
 30
0.0
  3
$MODEL_SPACE
  1

  0
ENDBLK
  5
1C
  8
0
  0
BLOCK
 67
     1
  8
0
  2
$PAPER_SPACE
 70
     0
 10
0.0
 20
0.0
 30
0.0
  3
$PAPER_SPACE
  1

  0
ENDBLK
  5
19
 67
     1
  8
0
  0
BLOCK
  8
0
  2
_OPEN
 70
     0
 10
0.0
 20
0.0
 30
0.0
  3
_OPEN
  1

  0
LINE
  5
3E1A
  8
0
  6
BYBLOCK
 62
     0
 10
-1.0
 20
0.1666666666666666
 30
0.0
 11
0.0
 21
0.0
 31
0.0
  0
LINE
  5
3E1B
  8
0
  6
BYBLOCK
 62
     0
 10
-1.0
 20
-0.1666666666666666
 30
0.0
 11
0.0
 21
0.0
 31
0.0
  0
LINE
  5
3E1C
  8
0
  6
BYBLOCK
 62
     0
 10
0.0
 20
0.0
 30
0.0
 11
-1.0
 21
0.0
 31
0.0
  0
ENDBLK
  5
3E1D
  8
0
  0
ENDSEC
  0
SECTION
  2
ENTITIES
  0
LINE
  5
4714
  8
240
  6
CONTINUOUS
 10
17.59999999999999
 20
23.0
 30
0.0
 11
21.90000000000125
 21
23.0
 31
0.0
  0
LINE
  5
4715
  8
243
  6
HIDDEN2
 10
19.0
 20
16.30000000000001
 30
0.0
 11
1.0
 21
16.30000000000001
 31
0.0
  0
LINE
  5
4716
  8
240
  6
CONTINUOUS
 10
17.59999999999999
 20
-23.0
 30
0.0
 11
21.90000000000125
 21
-23.0
 31
0.0
  0
LINE
  5
4717
  8
243
  6
HIDDEN2
 10
19.0
 20
-16.30000000000001
 30
0.0
 11
1.0
 21
-16.30000000000001
 31
0.0
  0
LINE
  5
4718
  8
245
  6
CENTER2
 10
-49.40000000000001
 20
0.0
 30
0.0
 11
77.01496006110654
 21
0.0
 31
0.0
  0
LINE
  5
4719
  8
240
  6
CONTINUOUS
 10
-48.39999999999998
 20
-8.816500001986697
 30
0.0
 11
0.0
 21
-15.875
 31
0.0
  0
LINE
  5
471A
  8
240
  6
CONTINUOUS
 10
-48.39999999999998
 20
-8.816500001986697
 30
0.0
 11
-48.39999999999998
 21
8.816500001986697
 31
0.0
  0
LINE
  5
471B
  8
240
  6
CONTINUOUS
 10
15.29059892000001
 20
-19.0
 30
0.0
 11
17.59999999999999
 21
-23.0
 31
0.0
  0
LINE
  5
471C
  8
240
  6
CONTINUOUS
 10
11.90940108000001
 20
-19.0
 30
0.0
 11
9.599999999999994
 21
-23.0
 31
0.0
  0
LINE
  5
471D
  8
240
  6
CONTINUOUS
 10
1.0
 20
-15.875
 30
0.0
 11
1.0
 21
-23.0
 31
0.0
  0
LINE
  5
471E
  8
241
  6
CONTINUOUS
 10
17.59999999999998
 20
23.00000000000006
 30
0.0
 11
17.59999999999999
 21
-23.0
 31
0.0
  0
LINE
  5
471F
  8
241
  6
CONTINUOUS
 10
9.599999999999994
 20
-23.0
 30
0.0
 11
9.599999999999994
 21
23.0
 31
0.0
  0
LINE
  5
4720
  8
240
  6
CONTINUOUS
 10
9.599999999999994
 20
-23.0
 30
0.0
 11
1.0
 21
-23.0
 31
0.0
  0
LINE
  5
4721
  8
241
  6
CONTINUOUS
 10
15.29059892000001
 20
-19.0
 30
0.0
 11
15.29059891999999
 21
19.0
 31
0.0
  0
LINE
  5
4722
  8
241
  6
CONTINUOUS
 10
11.90940108000001
 20
-19.0
 30
0.0
 11
11.90940107999998
 21
19.0
 31
0.0
  0
LINE
  5
4723
  8
241
  6
CONTINUOUS
 10
0.0
 20
-15.875
 30
0.0
 11
0.0
 21
15.875
 31
0.0
  0
LINE
  5
4724
  8
241
  6
CONTINUOUS
 10
1.0
 20
15.875
 30
0.0
 11
1.0
 21
-15.875
 31
0.0
  0
LINE
  5
4725
  8
240
  6
CONTINUOUS
 10
0.0
 20
-15.875
 30
0.0
 11
1.0
 21
-15.875
 31
0.0
  0
LINE
  5
4726
  8
240
  6
CONTINUOUS
 10
11.90940108000001
 20
-19.0
 30
0.0
 11
15.29059892000001
 21
-19.0
 31
0.0
  0
LINE
  5
4727
  8
240
  6
CONTINUOUS
 10
-48.39999999999998
 20
8.816500001986697
 30
0.0
 11
0.0
 21
15.875
 31
0.0
  0
LINE
  5
4728
  8
240
  6
CONTINUOUS
 10
15.29059892000001
 20
19.0
 30
0.0
 11
17.59999999999999
 21
23.0
 31
0.0
  0
LINE
  5
4729
  8
240
  6
CONTINUOUS
 10
11.90940108000001
 20
19.0
 30
0.0
 11
9.599999999999994
 21
23.0
 31
0.0
  0
LINE
  5
472A
  8
240
  6
CONTINUOUS
 10
1.0
 20
15.875
 30
0.0
 11
1.0
 21
23.0
 31
0.0
  0
LINE
  5
472B
  8
240
  6
CONTINUOUS
 10
0.0
 20
15.875
 30
0.0
 11
1.0
 21
15.875
 31
0.0
  0
LINE
  5
472C
  8
240
  6
CONTINUOUS
 10
11.90940108000001
 20
19.0
 30
0.0
 11
15.29059892000001
 21
19.0
 31
0.0
  0
LINE
  5
472D
  8
240
  6
CONTINUOUS
 10
9.599999999999994
 20
23.0
 30
0.0
 11
1.0
 21
23.0
 31
0.0
  0
LINE
  5
472E
  8
241
  6
CONTINUOUS
 10
22.0
 20
-22.89999999998681
 30
0.0
 11
22.0
 21
22.89999999999986
 31
0.0
  0
LINE
  5
472F
  8
243
  6
HIDDEN2
 10
19.0
 20
-16.30000000000001
 30
0.0
 11
19.0
 21
-23.0
 31
0.0
  0
LINE
  5
4730
  8
243
  6
HIDDEN2
 10
19.0
 20
16.30000000000001
 30
0.0
 11
19.0
 21
23.0
 31
0.0
  0
LINE
  5
4731
  8
247
  6
CONTINUOUS
 10
6.499999999999943
 20
-13.75
 30
0.0
 11
6.5
 21
-9.115384615669997
 31
0.0
  0
LINE
  5
4732
  8
247
  6
CONTINUOUS
 10
4.0
 20
-12.95489349998792
 30
0.0
 11
6.099999999916008
 21
-13.55705881005735
 31
0.0
  0
LINE
  5
4733
  8
247
  6
CONTINUOUS
 10
4.996153846113998
 20
-12.32515140351904
 30
0.0
 11
4.996153846113998
 21
-13.24053601886703
 31
0.0
  0
ARC
  5
4734
  8
247
  6
CONTINUOUS
 10
4.384719067294096
 20
-12.08726340194675
 30
0.0
 40
0.3876715809326743
 50
72.99788967529301
 51
172.9241662185135
  0
ARC
  5
4735
  8
247
  6
CONTINUOUS
 10
4.305223131028014
 20
-12.38247755680407
 30
0.0
 40
0.6933047965358772
 50
4.742936852202212
 51
73.84922627326675
1001
GENIUS_GENOBJ-N-FIL_13
1002
{
1000
OWNER
1000
GEN
1002
}
1001
GENIUS_GENODEF_13
1002
{
1000
HIER
1070
     0
1002
}
1002
{
1000
MANEDIT
1070
     0
1002
}
1002
{
1000
NOSEL
1070
     0
1002
}
1002
{
1000
BEHIND
1070
     0
1002
}
1002
{
1000
OTHER
1070
     0
1002
}
1002
{
1000
REACTOR
1002
}
  0
LINE
  5
4736
  8
247
  6
CONTINUOUS
 10
6.099999999916008
 20
-12.64167419470936
 30
0.0
 11
6.099999999916008
 21
-13.55705881005735
 31
0.0
  0
LINE
  5
4737
  8
247
  6
CONTINUOUS
 10
4.0
 20
-12.95489349998792
 30
0.0
 11
4.0
 21
-12.03950888463993
 31
0.0
  0
ARC
  5
4738
  8
247
  6
CONTINUOUS
 10
5.387416962767871
 20
-12.3783064762668
 30
0.0
 40
0.394857301075386
 50
65.99094165252889
 51
172.2634434590691
  0
ARC
  5
4739
  8
247
  6
CONTINUOUS
 10
5.391200327332565
 20
-12.71244661042692
 30
0.0
 40
0.7123241612361686
 50
5.701985164256504
 51
77.277338436822
1001
GENIUS_GENOBJ-N-FIL_13
1002
{
1000
OWNER
1000
GEN
1002
}
1001
GENIUS_GENODEF_13
1002
{
1000
HIER
1070
     0
1002
}
1002
{
1000
MANEDIT
1070
     0
1002
}
1002
{
1000
NOSEL
1070
     0
1002
}
1002
{
1000
BEHIND
1070
     0
1002
}
1002
{
1000
OTHER
1070
     0
1002
}
1002
{
1000
REACTOR
1002
}
  0
LINE
  5
473A
  8
247
  6
CONTINUOUS
 10
6.099999999916008
 20
-11.68398188706334
 30
0.0
 11
4.0
 21
-11.08181657699396
 31
0.0
  0
LINE
  5
473B
  8
247
  6
CONTINUOUS
 10
4.0
 20
-9.585662730907927
 30
0.0
 11
4.0
 21
-9.98167836430355
 31
0.0
  0
LINE
  5
473C
  8
247
  6
CONTINUOUS
 10
6.099999999916008
 20
-10.60873965394393
 30
0.0
 11
6.099999999916008
 21
-10.17797042319193
 31
0.0
  0
ARC
  5
473D
  8
247
  6
CONTINUOUS
 10
5.458299595083356
 20
-9.381816577069912
 30
0.0
 40
1.576855057639547
 50
202.3594881415294
 51
254.9932485428469
  0
ARC
  5
473E
  8
247
  6
CONTINUOUS
 10
4.565818858538134
 20
-9.847511366133176
 30
0.0
 40
0.6234706797009447
 50
94.99458931907532
 51
155.1663289573041
1001
GENIUS_GENOBJ-N-FIL_13
1002
{
1000
OWNER
1000
GEN
1002
}
1001
GENIUS_GENODEF_13
1002
{
1000
HIER
1070
     0
1002
}
1002
{
1000
MANEDIT
1070
     0
1002
}
1002
{
1000
NOSEL
1070
     0
1002
}
1002
{
1000
BEHIND
1070
     0
1002
}
1002
{
1000
OTHER
1070
     0
1002
}
1002
{
1000
REACTOR
1002
}
  0
ARC
  5
473F
  8
247
  6
CONTINUOUS
 10
5.162102121969438
 20
-10.44418395103275
 30
0.0
 40
0.9749472149106982
 50
15.84609655578068
 51
82.32513700416929
  0
ARC
  5
4740
  8
247
  6
CONTINUOUS
 10
5.371470401971063
 20
-10.03521163877218
 30
0.0
 40
0.9271945638692008
 50
249.7136016704969
 51
321.7887456564109
1001
GENIUS_GENOBJ-N-FIL_13
1002
{
1000
OWNER
1000
GEN
1002
}
1001
GENIUS_GENODEF_13
1002
{
1000
HIER
1070
     0
1002
}
1002
{
1000
MANEDIT
1070
     0
1002
}
1002
{
1000
NOSEL
1070
     0
1002
}
1002
{
1000
BEHIND
1070
     0
1002
}
1002
{
1000
OTHER
1070
     0
1002
}
1002
{
1000
REACTOR
1002
}
  0
LINE
  5
4741
  8
247
  6
CONTINUOUS
 10
5.292307692255974
 20
-9.962585807815913
 30
0.0
 11
5.292307692255974
 21
-9.47797042321997
 31
0.0
  0
ARC
  5
4742
  8
247
  6
CONTINUOUS
 10
5.25
 20
-13.75
 30
0.0
 40
1.25
 50
180.0
 51
0.0
  0
LINE
  5
4743
  8
247
  6
CONTINUOUS
 10
4.0
 20
-13.75
 30
0.0
 11
4.0
 21
-13.30384615391398
 31
0.0
  0
ARC
  5
4744
  8
247
  6
CONTINUOUS
 10
5.25
 20
-9.115384615669997
 30
0.0
 40
1.25
 50
0.0
 51
180.0
  0
LINE
  5
4745
  8
250
  6
CONTINUOUS
 10
-29.19264599999997
 20
-20.99326654099332
 30
0.0
 11
-46.92597932999996
 21
-20.99326654099332
 31
0.0
1001
ITEMNAME
1000
LNSP2
  0
TEXT
  5
4746
  8
250
  6
CONTINUOUS
 10
-44.6593126633333
 20
-19.99326654099332
 30
0.0
 40
2.799999999999998
  1
BBT30
  7
YOKO
1001
ITEMNAME
1000
LNSP3
1001
ACAD
1000
MTEXTBEGIN
1070
    73
1070
     1
1070
    44
1040
1.0
1070
    74
1070
     0
1000
MTEXTEND
1000
MTEXTBEGIN
1070
    73
1070
     1
1070
    44
1040
1.0
1070
    74
1070
     0
1000
MTEXTEND
1000
MTEXTBEGIN
1070
    73
1070
     1
1070
    44
1040
1.0
1070
    74
1070
     0
1000
MTEXTEND
1000
MTEXTBEGIN
1070
    73
1070
     1
1070
    44
1040
1.0
1070
    74
1070
     0
1000
MTEXTEND
  0
LINE
  5
4747
  8
250
  6
CONTINUOUS
 10
-25.31499999963305
 20
-14.2769866516445
 30
0.0
 11
-29.19264599999997
 21
-20.99326654099332
 31
0.0
1001
ACAD
1000
DSTYLE
1002
{
1070
     6
1000
OPEN
1070
   343
1005
0
1002
}
  0
LINE
  5
4748
  8
250
  6
CONTINUOUS
 10
-25.63687277474156
 20
-14.09115331837233
 30
0.0
 11
-24.19999999999999
 21
-12.34575000099335
 31
0.0
  0
LINE
  5
4749
  8
250
  6
CONTINUOUS
 10
-24.99312722452453
 20
-14.46281998491668
 30
0.0
 11
-24.19999999999999
 21
-12.34575000099335
 31
0.0
  0
LINE
  5
474A
  8
250
  6
CONTINUOUS
 10
-24.19999999999999
 20
-12.34575000099335
 30
0.0
 11
-25.31499999963305
 21
-14.2769866516445
 31
0.0
  0
LINE
  5
474C
  8
240
  6
CONTINUOUS
 10
21.99999999998695
 20
-22.89999999999986
 30
0.0
 11
21.90000000000123
 21
-23.00000000000003
 31
0.0
  0
LINE
  5
474E
  8
240
  6
CONTINUOUS
 10
21.99999999998694
 20
22.89999999999986
 30
0.0
 11
21.90000000000122
 21
23.00000000000003
 31
0.0
  0
LINE
  5
474F
  8
250
  6
CONTINUOUS
 10
50.89999999999782
 20
-25.0
 30
0.0
 11
94.70020253999779
 21
-25.0
 31
0.0
  0
LINE
  5
4750
  8
250
  6
CONTINUOUS
 10
50.89999999999782
 20
25.0
 30
0.0
 11
94.70020253999779
 21
25.0
 31
0.0
  0
LINE
  5
4751
  8
250
  6
CONTINUOUS
 10
93.70020253999779
 20
-22.77
 30
0.0
 11
93.70020253999779
 21
22.77
 31
0.0
  0
LINE
  5
4752
  8
250
  6
CONTINUOUS
 10
94.07186920666449
 20
-22.77
 30
0.0
 11
93.70020253999779
 21
-25.0
 31
0.0
  0
LINE
  5
4753
  8
250
  6
CONTINUOUS
 10
93.32853587333115
 20
-22.77
 30
0.0
 11
93.70020253999779
 21
-25.0
 31
0.0
  0
LINE
  5
4754
  8
250
  6
CONTINUOUS
 10
93.70020253999779
 20
-25.0
 30
0.0
 11
93.70020253999779
 21
-22.77
 31
0.0
  0
LINE
  5
4755
  8
250
  6
CONTINUOUS
 10
93.32853587333115
 20
22.77
 30
0.0
 11
93.70020253999779
 21
25.0
 31
0.0
  0
LINE
  5
4756
  8
250
  6
CONTINUOUS
 10
94.07186920666449
 20
22.77
 30
0.0
 11
93.70020253999779
 21
25.0
 31
0.0
  0
LINE
  5
4757
  8
250
  6
CONTINUOUS
 10
93.70020253999779
 20
25.0
 30
0.0
 11
93.70020253999779
 21
22.77
 31
0.0
  0
TEXT
  5
4758
  8
250
  6
CONTINUOUS
 10
92.19829128514559
 20
-6.16238718447863
 30
0.0
 40
2.799999999999998
  1
\U+22051.969
 50
90.0
1001
ACAD
1000
MTEXTBEGIN
1070
    73
1070
     1
1070
    44
1040
1.0
1070
    74
1070
     0
1000
MTEXTEND
  0
LINE
  5
4759
  8
250
  6
CONTINUOUS
 10
76.69999999999781
 20
9.525000000000013
 30
0.0
 11
87.7002025399978
 21
9.525000000000013
 31
0.0
  0
LINE
  5
475A
  8
250
  6
CONTINUOUS
 10
86.70020253999782
 20
-7.769999999999996
 30
0.0
 11
86.70020253999782
 21
7.769999999999996
 31
0.0
  0
LINE
  5
475B
  8
250
  6
CONTINUOUS
 10
86.32853587333113
 20
7.295000000000008
 30
0.0
 11
86.70020253999782
 21
9.525000000000013
 31
0.0
  0
LINE
  5
475C
  8
250
  6
CONTINUOUS
 10
87.07186920666449
 20
7.295000000000008
 30
0.0
 11
86.70020253999782
 21
9.525000000000013
 31
0.0
  0
LINE
  5
475D
  8
250
  6
CONTINUOUS
 10
86.70020253999782
 20
9.525000000000013
 30
0.0
 11
86.70020253999782
 21
7.295000000000008
 31
0.0
  0
TEXT
  5
475E
  8
250
  6
CONTINUOUS
 10
85.19829128514559
 20
-6.16238718447863
 30
0.0
 40
2.799999999999998
  1
\U+2205.750
 50
90.0
1001
ACAD
1000
MTEXTBEGIN
1070
    73
1070
     1
1070
    44
1040
1.0
1070
    74
1070
     0
1000
MTEXTEND
  0
LINE
  5
475F
  8
250
  6
CONTINUOUS
 10
76.69999999999781
 20
-9.525000000000006
 30
0.0
 11
87.7002025399978
 21
-9.525000000000006
 31
0.0
  0
LINE
  5
4760
  8
250
  6
CONTINUOUS
 10
86.32853587333113
 20
-7.295000000000001
 30
0.0
 11
86.70020253999782
 21
-9.525000000000006
 31
0.0
  0
LINE
  5
4761
  8
250
  6
CONTINUOUS
 10
87.07186920666449
 20
-7.295000000000001
 30
0.0
 11
86.70020253999782
 21
-9.525000000000006
 31
0.0
  0
LINE
  5
4762
  8
250
  6
CONTINUOUS
 10
86.70020253999782
 20
-9.525000000000006
 30
0.0
 11
86.70020253999782
 21
-7.295000000000001
 31
0.0
  0
LINE
  5
4763
  8
243
  6
HIDDEN2
 10
12.06602540378222
 20
9.525000000000025
 30
0.0
 11
76.1999999999979
 21
9.524999999999938
 31
0.0
1001
GRPNAME
1000
PASTMD1D
  0
LINE
  5
4764
  8
240
  6
CONTINUOUS
 10
32.40000000000272
 20
-25.34999999999843
 30
0.0
 11
36.39999999999869
 21
-25.35000000000011
 31
0.0
  0
LINE
  5
4765
  8
240
  6
CONTINUOUS
 10
69.65832863227745
 20
-23.89927124950598
 30
0.0
 11
62.96602540378954
 21
-24.24999999999934
 31
0.0
  0
POLYLINE
  5
4766
  8
241
  6
CONTINUOUS
 10
0.0
 20
0.0
 30
0.0
 66
     1
 70
     8
  0
VERTEX
  5
4767
  8
241
 10
60.50000000000226
 20
-14.47119999999998
 30
0.0
 70
    32
  0
VERTEX
  5
4768
  8
241
 10
60.56140000000226
 20
-14.47049999999998
 30
0.0
 70
    32
  0
VERTEX
  5
4769
  8
241
 10
60.62270000000226
 20
-14.46859999999998
 30
0.0
 70
    32
  0
VERTEX
  5
476A
  8
241
 10
60.68390000000226
 20
-14.46529999999998
 30
0.0
 70
    32
  0
VERTEX
  5
476B
  8
241
 10
60.74500000000226
 20
-14.46069999999998
 30
0.0
 70
    32
  0
VERTEX
  5
476C
  8
241
 10
60.80600000000226
 20
-14.45489999999998
 30
0.0
 70
    32
  0
VERTEX
  5
476D
  8
241
 10
60.86680000000226
 20
-14.44769999999998
 30
0.0
 70
    32
  0
VERTEX
  5
476E
  8
241
 10
60.92740000000226
 20
-14.43929999999998
 30
0.0
 70
    32
  0
VERTEX
  5
476F
  8
241
 10
60.98770000000226
 20
-14.42959999999998
 30
0.0
 70
    32
  0
VERTEX
  5
4770
  8
241
 10
61.04780000000226
 20
-14.41859999999998
 30
0.0
 70
    32
  0
VERTEX
  5
4771
  8
241
 10
61.10750000000225
 20
-14.40629999999998
 30
0.0
 70
    32
  0
VERTEX
  5
4772
  8
241
 10
61.16680000000226
 20
-14.39269999999998
 30
0.0
 70
    32
  0
VERTEX
  5
4773
  8
241
 10
61.22570000000226
 20
-14.37789999999998
 30
0.0
 70
    32
  0
VERTEX
  5
4774
  8
241
 10
61.28420000000226
 20
-14.36189999999998
 30
0.0
 70
    32
  0
VERTEX
  5
4775
  8
241
 10
61.34220000000226
 20
-14.34459999999998
 30
0.0
 70
    32
  0
VERTEX
  5
4776
  8
241
 10
61.39970000000226
 20
-14.32609999999998
 30
0.0
 70
    32
  0
VERTEX
  5
4777
  8
241
 10
61.45670000000226
 20
-14.30639999999998
 30
0.0
 70
    32
  0
VERTEX
  5
4778
  8
241
 10
61.51310000000226
 20
-14.28539999999998
 30
0.0
 70
    32
  0
VERTEX
  5
4779
  8
241
 10
61.56890000000227
 20
-14.26329999999998
 30
0.0
 70
    32
  0
VERTEX
  5
477A
  8
241
 10
61.62400000000226
 20
-14.23999999999998
 30
0.0
 70
    32
  0
VERTEX
  5
477B
  8
241
 10
61.67850000000225
 20
-14.21549999999998
 30
0.0
 70
    32
  0
VERTEX
  5
477C
  8
241
 10
61.73220000000227
 20
-14.18989999999998
 30
0.0
 70
    32
  0
VERTEX
  5
477D
  8
241
 10
61.78530000000225
 20
-14.16309999999998
 30
0.0
 70
    32
  0
VERTEX
  5
477E
  8
241
 10
61.83750000000227
 20
-14.13529999999998
 30
0.0
 70
    32
  0
VERTEX
  5
477F
  8
241
 10
61.88890000000227
 20
-14.10629999999998
 30
0.0
 70
    32
  0
VERTEX
  5
4780
  8
241
 10
61.93950000000226
 20
-14.07619999999998
 30
0.0
 70
    32
  0
VERTEX
  5
4781
  8
241
 10
61.98920000000226
 20
-14.04509999999998
 30
0.0
 70
    32
  0
VERTEX
  5
4782
  8
241
 10
62.03810000000226
 20
-14.01289999999998
 30
0.0
 70
    32
  0
VERTEX
  5
4783
  8
241
 10
62.08600000000227
 20
-13.97969999999998
 30
0.0
 70
    32
  0
VERTEX
  5
4784
  8
241
 10
62.13290000000227
 20
-13.94549999999998
 30
0.0
 70
    32
  0
VERTEX
  5
4785
  8
241
 10
62.17890000000227
 20
-13.91029999999998
 30
0.0
 70
    32
  0
VERTEX
  5
4786
  8
241
 10
62.22390000000226
 20
-13.87419999999998
 30
0.0
 70
    32
  0
VERTEX
  5
4787
  8
241
 10
62.26780000000226
 20
-13.83699999999998
 30
0.0
 70
    32
  0
VERTEX
  5
4788
  8
241
 10
62.31060000000225
 20
-13.79899999999998
 30
0.0
 70
    32
  0
VERTEX
  5
4789
  8
241
 10
62.35240000000226
 20
-13.76009999999998
 30
0.0
 70
    32
  0
VERTEX
  5
478A
  8
241
 10
62.39300000000226
 20
-13.72029999999998
 30
0.0
 70
    32
  0
VERTEX
  5
478B
  8
241
 10
62.43250000000227
 20
-13.67959999999998
 30
0.0
 70
    32
  0
VERTEX
  5
478C
  8
241
 10
62.47090000000226
 20
-13.63809999999998
 30
0.0
 70
    32
  0
VERTEX
  5
478D
  8
241
 10
62.50800000000226
 20
-13.59579999999998
 30
0.0
 70
    32
  0
VERTEX
  5
478E
  8
241
 10
62.54400000000226
 20
-13.55279999999998
 30
0.0
 70
    32
  0
VERTEX
  5
478F
  8
241
 10
62.57870000000226
 20
-13.50899999999998
 30
0.0
 70
    32
  0
VERTEX
  5
4790
  8
241
 10
62.61210000000226
 20
-13.46439999999998
 30
0.0
 70
    32
  0
VERTEX
  5
4791
  8
241
 10
62.64430000000226
 20
-13.41919999999998
 30
0.0
 70
    32
  0
VERTEX
  5
4792
  8
241
 10
62.67520000000226
 20
-13.37329999999998
 30
0.0
 70
    32
  0
VERTEX
  5
4793
  8
241
 10
62.70480000000226
 20
-13.32669999999998
 30
0.0
 70
    32
  0
VERTEX
  5
4794
  8
241
 10
62.73310000000225
 20
-13.27949999999998
 30
0.0
 70
    32
  0
VERTEX
  5
4795
  8
241
 10
62.76000000000227
 20
-13.23179999999998
 30
0.0
 70
    32
  0
VERTEX
  5
4796
  8
241
 10
62.78550000000226
 20
-13.18349999999998
 30
0.0
 70
    32
  0
VERTEX
  5
4797
  8
241
 10
62.80970000000227
 20
-13.13459999999998
 30
0.0
 70
    32
  0
VERTEX
  5
4798
  8
241
 10
62.83250000000226
 20
-13.08529999999998
 30
0.0
 70
    32
  0
VERTEX
  5
4799
  8
241
 10
62.85390000000226
 20
-13.03549999999998
 30
0.0
 70
    32
  0
VERTEX
  5
479A
  8
241
 10
62.87380000000226
 20
-12.98529999999998
 30
0.0
 70
    32
  0
VERTEX
  5
479B
  8
241
 10
62.89240000000225
 20
-12.93459999999998
 30
0.0
 70
    32
  0
VERTEX
  5
479C
  8
241
 10
62.90940000000226
 20
-12.88359999999998
 30
0.0
 70
    32
  0
VERTEX
  5
479D
  8
241
 10
62.92510000000226
 20
-12.83219999999998
 30
0.0
 70
    32
  0
VERTEX
  5
479E
  8
241
 10
62.93930000000226
 20
-12.78049999999998
 30
0.0
 70
    32
  0
VERTEX
  5
479F
  8
241
 10
62.95200000000226
 20
-12.72849999999998
 30
0.0
 70
    32
  0
VERTEX
  5
47A0
  8
241
 10
62.96320000000226
 20
-12.67629999999998
 30
0.0
 70
    32
  0
VERTEX
  5
47A1
  8
241
 10
62.97290000000226
 20
-12.62379999999998
 30
0.0
 70
    32
  0
VERTEX
  5
47A2
  8
241
 10
62.98120000000226
 20
-12.57109999999998
 30
0.0
 70
    32
  0
VERTEX
  5
47A3
  8
241
 10
62.98800000000227
 20
-12.51829999999998
 30
0.0
 70
    32
  0
VERTEX
  5
47A4
  8
241
 10
62.99320000000226
 20
-12.46539999999998
 30
0.0
 70
    32
  0
VERTEX
  5
47A5
  8
241
 10
62.99700000000227
 20
-12.41229999999998
 30
0.0
 70
    32
  0
VERTEX
  5
47A6
  8
241
 10
62.99920000000226
 20
-12.35919999999998
 30
0.0
 70
    32
  0
VERTEX
  5
47A7
  8
241
 10
63.00000000000226
 20
-12.30609999999998
 30
0.0
 70
    32
  0
VERTEX
  5
47A8
  8
241
 10
62.99920000000226
 20
-12.25299999999998
 30
0.0
 70
    32
  0
VERTEX
  5
47A9
  8
241
 10
62.99700000000227
 20
-12.19989999999998
 30
0.0
 70
    32
  0
VERTEX
  5
47AA
  8
241
 10
62.99320000000226
 20
-12.14679999999998
 30
0.0
 70
    32
  0
VERTEX
  5
47AB
  8
241
 10
62.98800000000227
 20
-12.09389999999998
 30
0.0
 70
    32
  0
VERTEX
  5
47AC
  8
241
 10
62.98120000000226
 20
-12.04109999999998
 30
0.0
 70
    32
  0
VERTEX
  5
47AD
  8
241
 10
62.97290000000226
 20
-11.98839999999998
 30
0.0
 70
    32
  0
VERTEX
  5
47AE
  8
241
 10
62.96320000000226
 20
-11.93599999999998
 30
0.0
 70
    32
  0
VERTEX
  5
47AF
  8
241
 10
62.95200000000226
 20
-11.88369999999998
 30
0.0
 70
    32
  0
VERTEX
  5
47B0
  8
241
 10
62.93930000000226
 20
-11.83169999999998
 30
0.0
 70
    32
  0
VERTEX
  5
47B1
  8
241
 10
62.92510000000226
 20
-11.77999999999998
 30
0.0
 70
    32
  0
VERTEX
  5
47B2
  8
241
 10
62.90940000000226
 20
-11.72869999999998
 30
0.0
 70
    32
  0
VERTEX
  5
47B3
  8
241
 10
62.89240000000225
 20
-11.67759999999998
 30
0.0
 70
    32
  0
VERTEX
  5
47B4
  8
241
 10
62.87380000000226
 20
-11.62699999999998
 30
0.0
 70
    32
  0
VERTEX
  5
47B5
  8
241
 10
62.85390000000226
 20
-11.57669999999998
 30
0.0
 70
    32
  0
VERTEX
  5
47B6
  8
241
 10
62.83250000000226
 20
-11.52689999999998
 30
0.0
 70
    32
  0
VERTEX
  5
47B7
  8
241
 10
62.80970000000227
 20
-11.47759999999998
 30
0.0
 70
    32
  0
VERTEX
  5
47B8
  8
241
 10
62.78550000000226
 20
-11.42869999999998
 30
0.0
 70
    32
  0
VERTEX
  5
47B9
  8
241
 10
62.76000000000227
 20
-11.38039999999998
 30
0.0
 70
    32
  0
VERTEX
  5
47BA
  8
241
 10
62.73310000000225
 20
-11.33269999999998
 30
0.0
 70
    32
  0
VERTEX
  5
47BB
  8
241
 10
62.70480000000226
 20
-11.28549999999998
 30
0.0
 70
    32
  0
VERTEX
  5
47BC
  8
241
 10
62.67520000000226
 20
-11.23899999999998
 30
0.0
 70
    32
  0
VERTEX
  5
47BD
  8
241
 10
62.64430000000226
 20
-11.19299999999998
 30
0.0
 70
    32
  0
VERTEX
  5
47BE
  8
241
 10
62.61210000000226
 20
-11.14779999999998
 30
0.0
 70
    32
  0
VERTEX
  5
47BF
  8
241
 10
62.57870000000226
 20
-11.10329999999998
 30
0.0
 70
    32
  0
VERTEX
  5
47C0
  8
241
 10
62.54400000000226
 20
-11.05939999999998
 30
0.0
 70
    32
  0
VERTEX
  5
47C1
  8
241
 10
62.50800000000226
 20
-11.01639999999998
 30
0.0
 70
    32
  0
VERTEX
  5
47C2
  8
241
 10
62.47090000000226
 20
-10.97409999999998
 30
0.0
 70
    32
  0
VERTEX
  5
47C3
  8
241
 10
62.43250000000227
 20
-10.93259999999998
 30
0.0
 70
    32
  0
VERTEX
  5
47C4
  8
241
 10
62.39300000000226
 20
-10.89189999999998
 30
0.0
 70
    32
  0
VERTEX
  5
47C5
  8
241
 10
62.35240000000226
 20
-10.85209999999998
 30
0.0
 70
    32
  0
VERTEX
  5
47C6
  8
241
 10
62.31060000000225
 20
-10.81319999999998
 30
0.0
 70
    32
  0
VERTEX
  5
47C7
  8
241
 10
62.26780000000226
 20
-10.77519999999998
 30
0.0
 70
    32
  0
VERTEX
  5
47C8
  8
241
 10
62.22390000000226
 20
-10.73809999999998
 30
0.0
 70
    32
  0
VERTEX
  5
47C9
  8
241
 10
62.17890000000227
 20
-10.70189999999998
 30
0.0
 70
    32
  0
VERTEX
  5
47CA
  8
241
 10
62.13290000000227
 20
-10.66669999999998
 30
0.0
 70
    32
  0
VERTEX
  5
47CB
  8
241
 10
62.08600000000227
 20
-10.63249999999998
 30
0.0
 70
    32
  0
VERTEX
  5
47CC
  8
241
 10
62.03810000000226
 20
-10.59929999999998
 30
0.0
 70
    32
  0
VERTEX
  5
47CD
  8
241
 10
61.98920000000226
 20
-10.56709999999998
 30
0.0
 70
    32
  0
VERTEX
  5
47CE
  8
241
 10
61.93950000000226
 20
-10.53599999999998
 30
0.0
 70
    32
  0
VERTEX
  5
47CF
  8
241
 10
61.88890000000227
 20
-10.50589999999998
 30
0.0
 70
    32
  0
VERTEX
  5
47D0
  8
241
 10
61.83750000000227
 20
-10.47689999999998
 30
0.0
 70
    32
  0
VERTEX
  5
47D1
  8
241
 10
61.78530000000225
 20
-10.44909999999998
 30
0.0
 70
    32
  0
VERTEX
  5
47D2
  8
241
 10
61.73220000000227
 20
-10.42229999999998
 30
0.0
 70
    32
  0
VERTEX
  5
47D3
  8
241
 10
61.67850000000225
 20
-10.39669999999998
 30
0.0
 70
    32
  0
VERTEX
  5
47D4
  8
241
 10
61.62400000000226
 20
-10.37219999999998
 30
0.0
 70
    32
  0
VERTEX
  5
47D5
  8
241
 10
61.56890000000227
 20
-10.34889999999998
 30
0.0
 70
    32
  0
VERTEX
  5
47D6
  8
241
 10
61.51310000000226
 20
-10.32679999999998
 30
0.0
 70
    32
  0
VERTEX
  5
47D7
  8
241
 10
61.45670000000226
 20
-10.30589999999998
 30
0.0
 70
    32
  0
VERTEX
  5
47D8
  8
241
 10
61.39970000000226
 20
-10.28609999999998
 30
0.0
 70
    32
  0
VERTEX
  5
47D9
  8
241
 10
61.34220000000226
 20
-10.26759999999998
 30
0.0
 70
    32
  0
VERTEX
  5
47DA
  8
241
 10
61.28420000000226
 20
-10.25029999999998
 30
0.0
 70
    32
  0
VERTEX
  5
47DB
  8
241
 10
61.22570000000226
 20
-10.23429999999998
 30
0.0
 70
    32
  0
VERTEX
  5
47DC
  8
241
 10
61.16680000000226
 20
-10.21949999999998
 30
0.0
 70
    32
  0
VERTEX
  5
47DD
  8
241
 10
61.10750000000225
 20
-10.20589999999998
 30
0.0
 70
    32
  0
VERTEX
  5
47DE
  8
241
 10
61.04780000000226
 20
-10.19369999999998
 30
0.0
 70
    32
  0
VERTEX
  5
47DF
  8
241
 10
60.98770000000226
 20
-10.18259999999998
 30
0.0
 70
    32
  0
VERTEX
  5
47E0
  8
241
 10
60.92740000000226
 20
-10.17289999999998
 30
0.0
 70
    32
  0
VERTEX
  5
47E1
  8
241
 10
60.86680000000226
 20
-10.16449999999998
 30
0.0
 70
    32
  0
VERTEX
  5
47E2
  8
241
 10
60.80600000000226
 20
-10.15729999999998
 30
0.0
 70
    32
  0
VERTEX
  5
47E3
  8
241
 10
60.74500000000226
 20
-10.15149999999998
 30
0.0
 70
    32
  0
VERTEX
  5
47E4
  8
241
 10
60.68390000000226
 20
-10.14689999999998
 30
0.0
 70
    32
  0
VERTEX
  5
47E5
  8
241
 10
60.62270000000226
 20
-10.14369999999998
 30
0.0
 70
    32
  0
VERTEX
  5
47E6
  8
241
 10
60.56140000000226
 20
-10.14169999999998
 30
0.0
 70
    32
  0
VERTEX
  5
47E7
  8
241
 10
60.50000000000226
 20
-10.14099999999998
 30
0.0
 70
    32
  0
SEQEND
  5
47E8
  8
241
  0
POLYLINE
  5
47E9
  8
241
  6
CONTINUOUS
 10
0.0
 20
0.0
 30
0.0
 66
     1
 70
     8
  0
VERTEX
  5
47EA
  8
241
 10
54.50000000000225
 20
-10.14099999999998
 30
0.0
 70
    32
  0
VERTEX
  5
47EB
  8
241
 10
54.43860000000226
 20
-10.14169999999998
 30
0.0
 70
    32
  0
VERTEX
  5
47EC
  8
241
 10
54.37730000000226
 20
-10.14369999999998
 30
0.0
 70
    32
  0
VERTEX
  5
47ED
  8
241
 10
54.31610000000226
 20
-10.14689999999998
 30
0.0
 70
    32
  0
VERTEX
  5
47EE
  8
241
 10
54.25500000000226
 20
-10.15149999999998
 30
0.0
 70
    32
  0
VERTEX
  5
47EF
  8
241
 10
54.19400000000226
 20
-10.15729999999998
 30
0.0
 70
    32
  0
VERTEX
  5
47F0
  8
241
 10
54.13320000000226
 20
-10.16449999999998
 30
0.0
 70
    32
  0
VERTEX
  5
47F1
  8
241
 10
54.07260000000226
 20
-10.17289999999998
 30
0.0
 70
    32
  0
VERTEX
  5
47F2
  8
241
 10
54.01230000000226
 20
-10.18259999999998
 30
0.0
 70
    32
  0
VERTEX
  5
47F3
  8
241
 10
53.95220000000226
 20
-10.19369999999998
 30
0.0
 70
    32
  0
VERTEX
  5
47F4
  8
241
 10
53.89250000000227
 20
-10.20589999999998
 30
0.0
 70
    32
  0
VERTEX
  5
47F5
  8
241
 10
53.83320000000226
 20
-10.21949999999998
 30
0.0
 70
    32
  0
VERTEX
  5
47F6
  8
241
 10
53.77430000000226
 20
-10.23429999999998
 30
0.0
 70
    32
  0
VERTEX
  5
47F7
  8
241
 10
53.71580000000226
 20
-10.25029999999998
 30
0.0
 70
    32
  0
VERTEX
  5
47F8
  8
241
 10
53.65780000000226
 20
-10.26759999999998
 30
0.0
 70
    32
  0
VERTEX
  5
47F9
  8
241
 10
53.60030000000226
 20
-10.28609999999998
 30
0.0
 70
    32
  0
VERTEX
  5
47FA
  8
241
 10
53.54330000000226
 20
-10.30589999999998
 30
0.0
 70
    32
  0
VERTEX
  5
47FB
  8
241
 10
53.48690000000226
 20
-10.32679999999998
 30
0.0
 70
    32
  0
VERTEX
  5
47FC
  8
241
 10
53.43110000000225
 20
-10.34889999999998
 30
0.0
 70
    32
  0
VERTEX
  5
47FD
  8
241
 10
53.37600000000226
 20
-10.37219999999998
 30
0.0
 70
    32
  0
VERTEX
  5
47FE
  8
241
 10
53.32150000000225
 20
-10.39669999999998
 30
0.0
 70
    32
  0
VERTEX
  5
47FF
  8
241
 10
53.26780000000225
 20
-10.42229999999998
 30
0.0
 70
    32
  0
VERTEX
  5
4800
  8
241
 10
53.21470000000226
 20
-10.44909999999998
 30
0.0
 70
    32
  0
VERTEX
  5
4801
  8
241
 10
53.16250000000226
 20
-10.47689999999998
 30
0.0
 70
    32
  0
VERTEX
  5
4802
  8
241
 10
53.11110000000225
 20
-10.50589999999998
 30
0.0
 70
    32
  0
VERTEX
  5
4803
  8
241
 10
53.06050000000226
 20
-10.53599999999998
 30
0.0
 70
    32
  0
VERTEX
  5
4804
  8
241
 10
53.01080000000226
 20
-10.56709999999998
 30
0.0
 70
    32
  0
VERTEX
  5
4805
  8
241
 10
52.96190000000225
 20
-10.59929999999998
 30
0.0
 70
    32
  0
VERTEX
  5
4806
  8
241
 10
52.91400000000225
 20
-10.63249999999998
 30
0.0
 70
    32
  0
VERTEX
  5
4807
  8
241
 10
52.86710000000225
 20
-10.66669999999998
 30
0.0
 70
    32
  0
VERTEX
  5
4808
  8
241
 10
52.82110000000225
 20
-10.70189999999998
 30
0.0
 70
    32
  0
VERTEX
  5
4809
  8
241
 10
52.77610000000225
 20
-10.73809999999998
 30
0.0
 70
    32
  0
VERTEX
  5
480A
  8
241
 10
52.73220000000226
 20
-10.77519999999998
 30
0.0
 70
    32
  0
VERTEX
  5
480B
  8
241
 10
52.68940000000227
 20
-10.81319999999998
 30
0.0
 70
    32
  0
VERTEX
  5
480C
  8
241
 10
52.64760000000226
 20
-10.85209999999998
 30
0.0
 70
    32
  0
VERTEX
  5
480D
  8
241
 10
52.60700000000227
 20
-10.89189999999998
 30
0.0
 70
    32
  0
VERTEX
  5
480E
  8
241
 10
52.56750000000226
 20
-10.93259999999998
 30
0.0
 70
    32
  0
VERTEX
  5
480F
  8
241
 10
52.52910000000227
 20
-10.97409999999998
 30
0.0
 70
    32
  0
VERTEX
  5
4810
  8
241
 10
52.49200000000226
 20
-11.01639999999998
 30
0.0
 70
    32
  0
VERTEX
  5
4811
  8
241
 10
52.45600000000226
 20
-11.05939999999998
 30
0.0
 70
    32
  0
VERTEX
  5
4812
  8
241
 10
52.42130000000225
 20
-11.10329999999998
 30
0.0
 70
    32
  0
VERTEX
  5
4813
  8
241
 10
52.38790000000226
 20
-11.14779999999998
 30
0.0
 70
    32
  0
VERTEX
  5
4814
  8
241
 10
52.35570000000226
 20
-11.19299999999998
 30
0.0
 70
    32
  0
VERTEX
  5
4815
  8
241
 10
52.32480000000226
 20
-11.23899999999998
 30
0.0
 70
    32
  0
VERTEX
  5
4816
  8
241
 10
52.29520000000226
 20
-11.28549999999998
 30
0.0
 70
    32
  0
VERTEX
  5
4817
  8
241
 10
52.26690000000225
 20
-11.33269999999998
 30
0.0
 70
    32
  0
VERTEX
  5
4818
  8
241
 10
52.24000000000226
 20
-11.38039999999998
 30
0.0
 70
    32
  0
VERTEX
  5
4819
  8
241
 10
52.21450000000226
 20
-11.42869999999998
 30
0.0
 70
    32
  0
VERTEX
  5
481A
  8
241
 10
52.19030000000226
 20
-11.47759999999998
 30
0.0
 70
    32
  0
VERTEX
  5
481B
  8
241
 10
52.16750000000226
 20
-11.52689999999998
 30
0.0
 70
    32
  0
VERTEX
  5
481C
  8
241
 10
52.14610000000226
 20
-11.57669999999998
 30
0.0
 70
    32
  0
VERTEX
  5
481D
  8
241
 10
52.12620000000226
 20
-11.62699999999998
 30
0.0
 70
    32
  0
VERTEX
  5
481E
  8
241
 10
52.10760000000226
 20
-11.67759999999998
 30
0.0
 70
    32
  0
VERTEX
  5
481F
  8
241
 10
52.09060000000226
 20
-11.72869999999998
 30
0.0
 70
    32
  0
VERTEX
  5
4820
  8
241
 10
52.07490000000227
 20
-11.77999999999998
 30
0.0
 70
    32
  0
VERTEX
  5
4821
  8
241
 10
52.06070000000226
 20
-11.83169999999998
 30
0.0
 70
    32
  0
VERTEX
  5
4822
  8
241
 10
52.04800000000226
 20
-11.88369999999998
 30
0.0
 70
    32
  0
VERTEX
  5
4823
  8
241
 10
52.03680000000225
 20
-11.93599999999998
 30
0.0
 70
    32
  0
VERTEX
  5
4824
  8
241
 10
52.02710000000227
 20
-11.98839999999998
 30
0.0
 70
    32
  0
VERTEX
  5
4825
  8
241
 10
52.01880000000226
 20
-12.04109999999998
 30
0.0
 70
    32
  0
VERTEX
  5
4826
  8
241
 10
52.01200000000226
 20
-12.09389999999998
 30
0.0
 70
    32
  0
VERTEX
  5
4827
  8
241
 10
52.00680000000226
 20
-12.14679999999998
 30
0.0
 70
    32
  0
VERTEX
  5
4828
  8
241
 10
52.00300000000225
 20
-12.19989999999998
 30
0.0
 70
    32
  0
VERTEX
  5
4829
  8
241
 10
52.00080000000227
 20
-12.25299999999998
 30
0.0
 70
    32
  0
VERTEX
  5
482A
  8
241
 10
52.00000000000225
 20
-12.30609999999998
 30
0.0
 70
    32
  0
VERTEX
  5
482B
  8
241
 10
52.00080000000227
 20
-12.35919999999998
 30
0.0
 70
    32
  0
VERTEX
  5
482C
  8
241
 10
52.00300000000225
 20
-12.41229999999998
 30
0.0
 70
    32
  0
VERTEX
  5
482D
  8
241
 10
52.00680000000226
 20
-12.46539999999998
 30
0.0
 70
    32
  0
VERTEX
  5
482E
  8
241
 10
52.01200000000226
 20
-12.51829999999998
 30
0.0
 70
    32
  0
VERTEX
  5
482F
  8
241
 10
52.01880000000226
 20
-12.57109999999998
 30
0.0
 70
    32
  0
VERTEX
  5
4830
  8
241
 10
52.02710000000227
 20
-12.62379999999998
 30
0.0
 70
    32
  0
VERTEX
  5
4831
  8
241
 10
52.03680000000225
 20
-12.67629999999998
 30
0.0
 70
    32
  0
VERTEX
  5
4832
  8
241
 10
52.04800000000226
 20
-12.72849999999998
 30
0.0
 70
    32
  0
VERTEX
  5
4833
  8
241
 10
52.06070000000226
 20
-12.78049999999998
 30
0.0
 70
    32
  0
VERTEX
  5
4834
  8
241
 10
52.07490000000227
 20
-12.83219999999998
 30
0.0
 70
    32
  0
VERTEX
  5
4835
  8
241
 10
52.09060000000226
 20
-12.88359999999998
 30
0.0
 70
    32
  0
VERTEX
  5
4836
  8
241
 10
52.10760000000226
 20
-12.93459999999998
 30
0.0
 70
    32
  0
VERTEX
  5
4837
  8
241
 10
52.12620000000226
 20
-12.98529999999998
 30
0.0
 70
    32
  0
VERTEX
  5
4838
  8
241
 10
52.14610000000226
 20
-13.03549999999998
 30
0.0
 70
    32
  0
VERTEX
  5
4839
  8
241
 10
52.16750000000226
 20
-13.08529999999998
 30
0.0
 70
    32
  0
VERTEX
  5
483A
  8
241
 10
52.19030000000226
 20
-13.13459999999998
 30
0.0
 70
    32
  0
VERTEX
  5
483B
  8
241
 10
52.21450000000226
 20
-13.18349999999998
 30
0.0
 70
    32
  0
VERTEX
  5
483C
  8
241
 10
52.24000000000226
 20
-13.23179999999998
 30
0.0
 70
    32
  0
VERTEX
  5
483D
  8
241
 10
52.26690000000225
 20
-13.27949999999998
 30
0.0
 70
    32
  0
VERTEX
  5
483E
  8
241
 10
52.29520000000226
 20
-13.32669999999998
 30
0.0
 70
    32
  0
VERTEX
  5
483F
  8
241
 10
52.32480000000226
 20
-13.37329999999998
 30
0.0
 70
    32
  0
VERTEX
  5
4840
  8
241
 10
52.35570000000226
 20
-13.41919999999998
 30
0.0
 70
    32
  0
VERTEX
  5
4841
  8
241
 10
52.38790000000226
 20
-13.46439999999998
 30
0.0
 70
    32
  0
VERTEX
  5
4842
  8
241
 10
52.42130000000225
 20
-13.50899999999998
 30
0.0
 70
    32
  0
VERTEX
  5
4843
  8
241
 10
52.45600000000226
 20
-13.55279999999998
 30
0.0
 70
    32
  0
VERTEX
  5
4844
  8
241
 10
52.49200000000226
 20
-13.59579999999998
 30
0.0
 70
    32
  0
VERTEX
  5
4845
  8
241
 10
52.52910000000227
 20
-13.63809999999998
 30
0.0
 70
    32
  0
VERTEX
  5
4846
  8
241
 10
52.56750000000226
 20
-13.67959999999998
 30
0.0
 70
    32
  0
VERTEX
  5
4847
  8
241
 10
52.60700000000227
 20
-13.72029999999998
 30
0.0
 70
    32
  0
VERTEX
  5
4848
  8
241
 10
52.64760000000226
 20
-13.76009999999998
 30
0.0
 70
    32
  0
VERTEX
  5
4849
  8
241
 10
52.68940000000227
 20
-13.79899999999998
 30
0.0
 70
    32
  0
VERTEX
  5
484A
  8
241
 10
52.73220000000226
 20
-13.83699999999998
 30
0.0
 70
    32
  0
VERTEX
  5
484B
  8
241
 10
52.77610000000225
 20
-13.87419999999998
 30
0.0
 70
    32
  0
VERTEX
  5
484C
  8
241
 10
52.82110000000225
 20
-13.91029999999998
 30
0.0
 70
    32
  0
VERTEX
  5
484D
  8
241
 10
52.86710000000225
 20
-13.94549999999998
 30
0.0
 70
    32
  0
VERTEX
  5
484E
  8
241
 10
52.91400000000225
 20
-13.97969999999998
 30
0.0
 70
    32
  0
VERTEX
  5
484F
  8
241
 10
52.96190000000225
 20
-14.01289999999998
 30
0.0
 70
    32
  0
VERTEX
  5
4850
  8
241
 10
53.01080000000226
 20
-14.04509999999998
 30
0.0
 70
    32
  0
VERTEX
  5
4851
  8
241
 10
53.06050000000226
 20
-14.07619999999998
 30
0.0
 70
    32
  0
VERTEX
  5
4852
  8
241
 10
53.11110000000225
 20
-14.10629999999998
 30
0.0
 70
    32
  0
VERTEX
  5
4853
  8
241
 10
53.16250000000226
 20
-14.13529999999998
 30
0.0
 70
    32
  0
VERTEX
  5
4854
  8
241
 10
53.21470000000226
 20
-14.16309999999998
 30
0.0
 70
    32
  0
VERTEX
  5
4855
  8
241
 10
53.26780000000225
 20
-14.18989999999998
 30
0.0
 70
    32
  0
VERTEX
  5
4856
  8
241
 10
53.32150000000225
 20
-14.21549999999998
 30
0.0
 70
    32
  0
VERTEX
  5
4857
  8
241
 10
53.37600000000226
 20
-14.23999999999998
 30
0.0
 70
    32
  0
VERTEX
  5
4858
  8
241
 10
53.43110000000225
 20
-14.26329999999998
 30
0.0
 70
    32
  0
VERTEX
  5
4859
  8
241
 10
53.48690000000226
 20
-14.28539999999998
 30
0.0
 70
    32
  0
VERTEX
  5
485A
  8
241
 10
53.54330000000226
 20
-14.30639999999998
 30
0.0
 70
    32
  0
VERTEX
  5
485B
  8
241
 10
53.60030000000226
 20
-14.32609999999998
 30
0.0
 70
    32
  0
VERTEX
  5
485C
  8
241
 10
53.65780000000226
 20
-14.34459999999998
 30
0.0
 70
    32
  0
VERTEX
  5
485D
  8
241
 10
53.71580000000226
 20
-14.36189999999998
 30
0.0
 70
    32
  0
VERTEX
  5
485E
  8
241
 10
53.77430000000226
 20
-14.37789999999998
 30
0.0
 70
    32
  0
VERTEX
  5
485F
  8
241
 10
53.83320000000226
 20
-14.39269999999998
 30
0.0
 70
    32
  0
VERTEX
  5
4860
  8
241
 10
53.89250000000227
 20
-14.40629999999998
 30
0.0
 70
    32
  0
VERTEX
  5
4861
  8
241
 10
53.95220000000226
 20
-14.41859999999998
 30
0.0
 70
    32
  0
VERTEX
  5
4862
  8
241
 10
54.01230000000226
 20
-14.42959999999998
 30
0.0
 70
    32
  0
VERTEX
  5
4863
  8
241
 10
54.07260000000226
 20
-14.43929999999998
 30
0.0
 70
    32
  0
VERTEX
  5
4864
  8
241
 10
54.13320000000226
 20
-14.44769999999998
 30
0.0
 70
    32
  0
VERTEX
  5
4865
  8
241
 10
54.19400000000226
 20
-14.45489999999998
 30
0.0
 70
    32
  0
VERTEX
  5
4866
  8
241
 10
54.25500000000226
 20
-14.46069999999998
 30
0.0
 70
    32
  0
VERTEX
  5
4867
  8
241
 10
54.31610000000226
 20
-14.46529999999998
 30
0.0
 70
    32
  0
VERTEX
  5
4868
  8
241
 10
54.37730000000226
 20
-14.46859999999998
 30
0.0
 70
    32
  0
VERTEX
  5
4869
  8
241
 10
54.43860000000226
 20
-14.47049999999998
 30
0.0
 70
    32
  0
VERTEX
  5
486A
  8
241
 10
54.50000000000225
 20
-14.47119999999998
 30
0.0
 70
    32
  0
SEQEND
  5
486B
  8
241
  0
LINE
  5
486C
  8
241
  6
CONTINUOUS
 10
51.09999999999994
 20
-24.99999999999975
 30
0.0
 11
51.09999999999994
 21
24.99999999999975
 31
0.0
  0
LINE
  5
486D
  8
241
  6
CONTINUOUS
 10
62.96602540378954
 20
-24.24999999999936
 30
0.0
 11
62.96602540378941
 21
-12.66183332419504
 31
0.0
  0
LINE
  5
486E
  8
241
  6
CONTINUOUS
 10
36.39999999999869
 20
-25.35000000000077
 30
0.0
 11
36.39999999999864
 21
25.3500000000008
 31
0.0
  0
LINE
  5
486F
  8
240
  6
CONTINUOUS
 10
36.75000000000054
 20
-24.99999999999963
 30
0.0
 11
51.09999999999994
 21
-24.99999999999975
 31
0.0
  0
LINE
  5
4870
  8
240
  6
CONTINUOUS
 10
36.39999999999869
 20
-25.35000000000077
 30
0.0
 11
36.75000000000054
 21
-24.99999999999963
 31
0.0
  0
LINE
  5
4871
  8
240
  6
CONTINUOUS
 10
51.3499999999999
 20
-24.74999999999978
 30
0.0
 11
51.09999999999994
 21
-24.99999999999975
 31
0.0
  0
LINE
  5
4872
  8
240
  6
CONTINUOUS
 10
51.3499999999999
 20
-24.74999999999978
 30
0.0
 11
61.10000000000008
 21
-24.74999999999963
 31
0.0
  0
LINE
  5
4873
  8
241
  6
CONTINUOUS
 10
54.09999999999985
 20
-24.74999999999973
 30
0.0
 11
54.09999999999989
 21
-14.4274304173181
 31
0.0
  0
LINE
  5
4874
  8
241
  6
CONTINUOUS
 10
54.49999999999985
 20
-14.47117358322182
 30
0.0
 11
60.50000000000007
 21
-14.47117358322182
 31
0.0
  0
LINE
  5
4875
  8
241
  6
CONTINUOUS
 10
61.1000000000001
 20
-24.74999999999964
 30
0.0
 11
61.09999999999994
 21
-14.42743041732009
 31
0.0
  0
LINE
  5
4876
  8
240
  6
CONTINUOUS
 10
62.96602540378954
 20
-24.24999999999934
 30
0.0
 11
61.10000000000008
 21
-24.74999999999963
 31
0.0
  0
POLYLINE
  5
4877
  8
241
  6
CONTINUOUS
 10
0.0
 20
0.0
 30
0.0
 66
     1
 70
     8
  0
VERTEX
  5
4878
  8
241
 10
52.09480000000225
 20
-11.71559999999998
 30
0.0
 70
    32
  0
VERTEX
  5
4879
  8
241
 10
52.10180000000226
 20
-11.73659999999998
 30
0.0
 70
    32
  0
VERTEX
  5
487A
  8
241
 10
52.10910000000226
 20
-11.75759999999998
 30
0.0
 70
    32
  0
VERTEX
  5
487B
  8
241
 10
52.11660000000226
 20
-11.77849999999998
 30
0.0
 70
    32
  0
VERTEX
  5
487C
  8
241
 10
52.12430000000226
 20
-11.79929999999998
 30
0.0
 70
    32
  0
VERTEX
  5
487D
  8
241
 10
52.13230000000225
 20
-11.82009999999998
 30
0.0
 70
    32
  0
VERTEX
  5
487E
  8
241
 10
52.14060000000227
 20
-11.84079999999998
 30
0.0
 70
    32
  0
VERTEX
  5
487F
  8
241
 10
52.14910000000227
 20
-11.86139999999998
 30
0.0
 70
    32
  0
VERTEX
  5
4880
  8
241
 10
52.15780000000226
 20
-11.88199999999998
 30
0.0
 70
    32
  0
VERTEX
  5
4881
  8
241
 10
52.16670000000227
 20
-11.90239999999998
 30
0.0
 70
    32
  0
VERTEX
  5
4882
  8
241
 10
52.17590000000226
 20
-11.92279999999998
 30
0.0
 70
    32
  0
VERTEX
  5
4883
  8
241
 10
52.18540000000226
 20
-11.94319999999998
 30
0.0
 70
    32
  0
VERTEX
  5
4884
  8
241
 10
52.19500000000226
 20
-11.96339999999998
 30
0.0
 70
    32
  0
VERTEX
  5
4885
  8
241
 10
52.20500000000226
 20
-11.98349999999998
 30
0.0
 70
    32
  0
VERTEX
  5
4886
  8
241
 10
52.21510000000225
 20
-12.00359999999998
 30
0.0
 70
    32
  0
VERTEX
  5
4887
  8
241
 10
52.22550000000226
 20
-12.02359999999998
 30
0.0
 70
    32
  0
VERTEX
  5
4888
  8
241
 10
52.23610000000226
 20
-12.04339999999998
 30
0.0
 70
    32
  0
VERTEX
  5
4889
  8
241
 10
52.24690000000226
 20
-12.06319999999998
 30
0.0
 70
    32
  0
VERTEX
  5
488A
  8
241
 10
52.25800000000226
 20
-12.08289999999998
 30
0.0
 70
    32
  0
VERTEX
  5
488B
  8
241
 10
52.26930000000225
 20
-12.10249999999998
 30
0.0
 70
    32
  0
VERTEX
  5
488C
  8
241
 10
52.28080000000226
 20
-12.12199999999998
 30
0.0
 70
    32
  0
VERTEX
  5
488D
  8
241
 10
52.29260000000226
 20
-12.14139999999998
 30
0.0
 70
    32
  0
VERTEX
  5
488E
  8
241
 10
52.30460000000226
 20
-12.16059999999998
 30
0.0
 70
    32
  0
VERTEX
  5
488F
  8
241
 10
52.31680000000226
 20
-12.17979999999998
 30
0.0
 70
    32
  0
VERTEX
  5
4890
  8
241
 10
52.32920000000226
 20
-12.19889999999998
 30
0.0
 70
    32
  0
VERTEX
  5
4891
  8
241
 10
52.34190000000226
 20
-12.21779999999998
 30
0.0
 70
    32
  0
VERTEX
  5
4892
  8
241
 10
52.35470000000225
 20
-12.23669999999998
 30
0.0
 70
    32
  0
VERTEX
  5
4893
  8
241
 10
52.36780000000226
 20
-12.25539999999998
 30
0.0
 70
    32
  0
VERTEX
  5
4894
  8
241
 10
52.38110000000226
 20
-12.27399999999998
 30
0.0
 70
    32
  0
VERTEX
  5
4895
  8
241
 10
52.39470000000226
 20
-12.29249999999998
 30
0.0
 70
    32
  0
VERTEX
  5
4896
  8
241
 10
52.40840000000225
 20
-12.31089999999998
 30
0.0
 70
    32
  0
VERTEX
  5
4897
  8
241
 10
52.42240000000226
 20
-12.32919999999998
 30
0.0
 70
    32
  0
VERTEX
  5
4898
  8
241
 10
52.43650000000226
 20
-12.34729999999998
 30
0.0
 70
    32
  0
VERTEX
  5
4899
  8
241
 10
52.45090000000226
 20
-12.36529999999998
 30
0.0
 70
    32
  0
VERTEX
  5
489A
  8
241
 10
52.46550000000226
 20
-12.38319999999998
 30
0.0
 70
    32
  0
VERTEX
  5
489B
  8
241
 10
52.48030000000227
 20
-12.40099999999998
 30
0.0
 70
    32
  0
VERTEX
  5
489C
  8
241
 10
52.49530000000226
 20
-12.41859999999998
 30
0.0
 70
    32
  0
VERTEX
  5
489D
  8
241
 10
52.51050000000225
 20
-12.43609999999998
 30
0.0
 70
    32
  0
VERTEX
  5
489E
  8
241
 10
52.52590000000226
 20
-12.45339999999998
 30
0.0
 70
    32
  0
VERTEX
  5
489F
  8
241
 10
52.54150000000226
 20
-12.47069999999998
 30
0.0
 70
    32
  0
VERTEX
  5
48A0
  8
241
 10
52.55730000000227
 20
-12.48769999999998
 30
0.0
 70
    32
  0
VERTEX
  5
48A1
  8
241
 10
52.57340000000225
 20
-12.50469999999998
 30
0.0
 70
    32
  0
VERTEX
  5
48A2
  8
241
 10
52.58960000000226
 20
-12.52149999999998
 30
0.0
 70
    32
  0
VERTEX
  5
48A3
  8
241
 10
52.60600000000226
 20
-12.53809999999998
 30
0.0
 70
    32
  0
VERTEX
  5
48A4
  8
241
 10
52.62260000000226
 20
-12.55469999999998
 30
0.0
 70
    32
  0
VERTEX
  5
48A5
  8
241
 10
52.63940000000226
 20
-12.57099999999998
 30
0.0
 70
    32
  0
VERTEX
  5
48A6
  8
241
 10
52.65630000000226
 20
-12.58729999999998
 30
0.0
 70
    32
  0
VERTEX
  5
48A7
  8
241
 10
52.67350000000226
 20
-12.60329999999998
 30
0.0
 70
    32
  0
VERTEX
  5
48A8
  8
241
 10
52.69090000000226
 20
-12.61919999999998
 30
0.0
 70
    32
  0
VERTEX
  5
48A9
  8
241
 10
52.70840000000227
 20
-12.63499999999998
 30
0.0
 70
    32
  0
VERTEX
  5
48AA
  8
241
 10
52.72610000000226
 20
-12.65059999999998
 30
0.0
 70
    32
  0
VERTEX
  5
48AB
  8
241
 10
52.74400000000227
 20
-12.66609999999998
 30
0.0
 70
    32
  0
VERTEX
  5
48AC
  8
241
 10
52.76210000000226
 20
-12.68139999999998
 30
0.0
 70
    32
  0
VERTEX
  5
48AD
  8
241
 10
52.78040000000226
 20
-12.69649999999998
 30
0.0
 70
    32
  0
VERTEX
  5
48AE
  8
241
 10
52.79880000000225
 20
-12.71149999999998
 30
0.0
 70
    32
  0
VERTEX
  5
48AF
  8
241
 10
52.81740000000226
 20
-12.72629999999998
 30
0.0
 70
    32
  0
VERTEX
  5
48B0
  8
241
 10
52.83620000000226
 20
-12.74099999999998
 30
0.0
 70
    32
  0
VERTEX
  5
48B1
  8
241
 10
52.85520000000226
 20
-12.75549999999998
 30
0.0
 70
    32
  0
VERTEX
  5
48B2
  8
241
 10
52.87430000000227
 20
-12.76979999999998
 30
0.0
 70
    32
  0
VERTEX
  5
48B3
  8
241
 10
52.89360000000226
 20
-12.78399999999998
 30
0.0
 70
    32
  0
VERTEX
  5
48B4
  8
241
 10
52.91310000000225
 20
-12.79789999999998
 30
0.0
 70
    32
  0
VERTEX
  5
48B5
  8
241
 10
52.93270000000227
 20
-12.81169999999998
 30
0.0
 70
    32
  0
VERTEX
  5
48B6
  8
241
 10
52.95250000000225
 20
-12.82539999999998
 30
0.0
 70
    32
  0
VERTEX
  5
48B7
  8
241
 10
52.97240000000225
 20
-12.83889999999998
 30
0.0
 70
    32
  0
VERTEX
  5
48B8
  8
241
 10
52.99250000000227
 20
-12.85209999999998
 30
0.0
 70
    32
  0
VERTEX
  5
48B9
  8
241
 10
53.01270000000226
 20
-12.86529999999998
 30
0.0
 70
    32
  0
VERTEX
  5
48BA
  8
241
 10
53.03310000000227
 20
-12.87819999999998
 30
0.0
 70
    32
  0
VERTEX
  5
48BB
  8
241
 10
53.05370000000227
 20
-12.89099999999998
 30
0.0
 70
    32
  0
VERTEX
  5
48BC
  8
241
 10
53.07440000000227
 20
-12.90349999999998
 30
0.0
 70
    32
  0
VERTEX
  5
48BD
  8
241
 10
53.09520000000226
 20
-12.91589999999998
 30
0.0
 70
    32
  0
VERTEX
  5
48BE
  8
241
 10
53.11620000000226
 20
-12.92809999999998
 30
0.0
 70
    32
  0
VERTEX
  5
48BF
  8
241
 10
53.13730000000226
 20
-12.94019999999998
 30
0.0
 70
    32
  0
VERTEX
  5
48C0
  8
241
 10
53.15860000000227
 20
-12.95199999999998
 30
0.0
 70
    32
  0
VERTEX
  5
48C1
  8
241
 10
53.18000000000225
 20
-12.96369999999998
 30
0.0
 70
    32
  0
VERTEX
  5
48C2
  8
241
 10
53.20150000000226
 20
-12.97509999999998
 30
0.0
 70
    32
  0
VERTEX
  5
48C3
  8
241
 10
53.22320000000226
 20
-12.98639999999998
 30
0.0
 70
    32
  0
VERTEX
  5
48C4
  8
241
 10
53.24500000000226
 20
-12.99749999999998
 30
0.0
 70
    32
  0
VERTEX
  5
48C5
  8
241
 10
53.26690000000225
 20
-13.00839999999998
 30
0.0
 70
    32
  0
VERTEX
  5
48C6
  8
241
 10
53.28900000000226
 20
-13.01909999999998
 30
0.0
 70
    32
  0
VERTEX
  5
48C7
  8
241
 10
53.31120000000225
 20
-13.02959999999998
 30
0.0
 70
    32
  0
VERTEX
  5
48C8
  8
241
 10
53.33350000000225
 20
-13.03989999999998
 30
0.0
 70
    32
  0
VERTEX
  5
48C9
  8
241
 10
53.35590000000227
 20
-13.04999999999998
 30
0.0
 70
    32
  0
VERTEX
  5
48CA
  8
241
 10
53.37840000000227
 20
-13.05999999999998
 30
0.0
 70
    32
  0
VERTEX
  5
48CB
  8
241
 10
53.40110000000225
 20
-13.06969999999998
 30
0.0
 70
    32
  0
VERTEX
  5
48CC
  8
241
 10
53.42390000000226
 20
-13.07919999999998
 30
0.0
 70
    32
  0
VERTEX
  5
48CD
  8
241
 10
53.44670000000227
 20
-13.08849999999998
 30
0.0
 70
    32
  0
VERTEX
  5
48CE
  8
241
 10
53.46970000000226
 20
-13.09769999999998
 30
0.0
 70
    32
  0
VERTEX
  5
48CF
  8
241
 10
53.49280000000226
 20
-13.10659999999998
 30
0.0
 70
    32
  0
VERTEX
  5
48D0
  8
241
 10
53.51600000000226
 20
-13.11529999999998
 30
0.0
 70
    32
  0
VERTEX
  5
48D1
  8
241
 10
53.53930000000226
 20
-13.12379999999998
 30
0.0
 70
    32
  0
VERTEX
  5
48D2
  8
241
 10
53.56270000000225
 20
-13.13209999999998
 30
0.0
 70
    32
  0
VERTEX
  5
48D3
  8
241
 10
53.58620000000226
 20
-13.14019999999998
 30
0.0
 70
    32
  0
VERTEX
  5
48D4
  8
241
 10
53.60980000000227
 20
-13.14809999999998
 30
0.0
 70
    32
  0
VERTEX
  5
48D5
  8
241
 10
53.63340000000226
 20
-13.15579999999998
 30
0.0
 70
    32
  0
VERTEX
  5
48D6
  8
241
 10
53.65720000000226
 20
-13.16329999999998
 30
0.0
 70
    32
  0
VERTEX
  5
48D7
  8
241
 10
53.68100000000226
 20
-13.17059999999998
 30
0.0
 70
    32
  0
VERTEX
  5
48D8
  8
241
 10
53.70500000000227
 20
-13.17769999999998
 30
0.0
 70
    32
  0
VERTEX
  5
48D9
  8
241
 10
53.72900000000226
 20
-13.18449999999998
 30
0.0
 70
    32
  0
VERTEX
  5
48DA
  8
241
 10
53.75310000000226
 20
-13.19119999999998
 30
0.0
 70
    32
  0
VERTEX
  5
48DB
  8
241
 10
53.77720000000226
 20
-13.19759999999998
 30
0.0
 70
    32
  0
VERTEX
  5
48DC
  8
241
 10
53.80150000000226
 20
-13.20379999999998
 30
0.0
 70
    32
  0
VERTEX
  5
48DD
  8
241
 10
53.82580000000226
 20
-13.20979999999998
 30
0.0
 70
    32
  0
VERTEX
  5
48DE
  8
241
 10
53.85020000000226
 20
-13.21559999999998
 30
0.0
 70
    32
  0
VERTEX
  5
48DF
  8
241
 10
53.87460000000226
 20
-13.22119999999998
 30
0.0
 70
    32
  0
VERTEX
  5
48E0
  8
241
 10
53.89910000000226
 20
-13.22659999999998
 30
0.0
 70
    32
  0
VERTEX
  5
48E1
  8
241
 10
53.92370000000227
 20
-13.23179999999998
 30
0.0
 70
    32
  0
VERTEX
  5
48E2
  8
241
 10
53.94830000000226
 20
-13.23669999999998
 30
0.0
 70
    32
  0
VERTEX
  5
48E3
  8
241
 10
53.97300000000226
 20
-13.24139999999998
 30
0.0
 70
    32
  0
VERTEX
  5
48E4
  8
241
 10
53.99780000000227
 20
-13.24589999999998
 30
0.0
 70
    32
  0
VERTEX
  5
48E5
  8
241
 10
54.02260000000226
 20
-13.25019999999998
 30
0.0
 70
    32
  0
VERTEX
  5
48E6
  8
241
 10
54.04740000000226
 20
-13.25429999999998
 30
0.0
 70
    32
  0
VERTEX
  5
48E7
  8
241
 10
54.07230000000226
 20
-13.25809999999998
 30
0.0
 70
    32
  0
VERTEX
  5
48E8
  8
241
 10
54.09720000000226
 20
-13.26179999999998
 30
0.0
 70
    32
  0
VERTEX
  5
48E9
  8
241
 10
54.12220000000225
 20
-13.26519999999998
 30
0.0
 70
    32
  0
VERTEX
  5
48EA
  8
241
 10
54.14720000000226
 20
-13.26839999999998
 30
0.0
 70
    32
  0
VERTEX
  5
48EB
  8
241
 10
54.17230000000227
 20
-13.27139999999998
 30
0.0
 70
    32
  0
VERTEX
  5
48EC
  8
241
 10
54.19730000000226
 20
-13.27409999999998
 30
0.0
 70
    32
  0
VERTEX
  5
48ED
  8
241
 10
54.22250000000226
 20
-13.27669999999998
 30
0.0
 70
    32
  0
VERTEX
  5
48EE
  8
241
 10
54.24760000000226
 20
-13.27899999999998
 30
0.0
 70
    32
  0
VERTEX
  5
48EF
  8
241
 10
54.27280000000227
 20
-13.28109999999998
 30
0.0
 70
    32
  0
VERTEX
  5
48F0
  8
241
 10
54.29800000000226
 20
-13.28299999999998
 30
0.0
 70
    32
  0
VERTEX
  5
48F1
  8
241
 10
54.32320000000227
 20
-13.28459999999998
 30
0.0
 70
    32
  0
VERTEX
  5
48F2
  8
241
 10
54.34840000000226
 20
-13.28609999999998
 30
0.0
 70
    32
  0
VERTEX
  5
48F3
  8
241
 10
54.37360000000226
 20
-13.28729999999998
 30
0.0
 70
    32
  0
VERTEX
  5
48F4
  8
241
 10
54.39890000000226
 20
-13.28829999999998
 30
0.0
 70
    32
  0
VERTEX
  5
48F5
  8
241
 10
54.42420000000226
 20
-13.28909999999998
 30
0.0
 70
    32
  0
VERTEX
  5
48F6
  8
241
 10
54.44940000000226
 20
-13.28959999999998
 30
0.0
 70
    32
  0
VERTEX
  5
48F7
  8
241
 10
54.47470000000226
 20
-13.28999999999998
 30
0.0
 70
    32
  0
VERTEX
  5
48F8
  8
241
 10
54.50000000000225
 20
-13.29009999999998
 30
0.0
 70
    32
  0
SEQEND
  5
48F9
  8
241
  0
LINE
  5
48FA
  8
241
  6
CONTINUOUS
 10
61.09999999999994
 20
-10.18478973020122
 30
0.0
 11
61.10000000000023
 21
10.18478973020128
 31
0.0
  0
LINE
  5
48FB
  8
241
  6
CONTINUOUS
 10
62.96602540378941
 20
-11.95038682332626
 30
0.0
 11
62.96602540378971
 21
11.95038682332627
 31
0.0
  0
LINE
  5
48FC
  8
241
  6
CONTINUOUS
 10
54.09999999999989
 20
-10.18478973020259
 30
0.0
 11
54.09999999999983
 21
10.18478973020263
 31
0.0
  0
POLYLINE
  5
48FD
  8
241
  6
CONTINUOUS
 10
0.0
 20
0.0
 30
0.0
 66
     1
 70
     8
  0
VERTEX
  5
48FE
  8
241
 10
60.50000000000226
 20
-13.29009999999998
 30
0.0
 70
    32
  0
VERTEX
  5
48FF
  8
241
 10
60.52530000000226
 20
-13.28999999999998
 30
0.0
 70
    32
  0
VERTEX
  5
4900
  8
241
 10
60.55060000000226
 20
-13.28959999999998
 30
0.0
 70
    32
  0
VERTEX
  5
4901
  8
241
 10
60.57580000000226
 20
-13.28909999999998
 30
0.0
 70
    32
  0
VERTEX
  5
4902
  8
241
 10
60.60110000000226
 20
-13.28829999999998
 30
0.0
 70
    32
  0
VERTEX
  5
4903
  8
241
 10
60.62640000000226
 20
-13.28729999999998
 30
0.0
 70
    32
  0
VERTEX
  5
4904
  8
241
 10
60.65160000000226
 20
-13.28609999999998
 30
0.0
 70
    32
  0
VERTEX
  5
4905
  8
241
 10
60.67680000000225
 20
-13.28459999999998
 30
0.0
 70
    32
  0
VERTEX
  5
4906
  8
241
 10
60.70200000000227
 20
-13.28299999999998
 30
0.0
 70
    32
  0
VERTEX
  5
4907
  8
241
 10
60.72720000000226
 20
-13.28109999999998
 30
0.0
 70
    32
  0
VERTEX
  5
4908
  8
241
 10
60.75240000000226
 20
-13.27899999999998
 30
0.0
 70
    32
  0
VERTEX
  5
4909
  8
241
 10
60.77750000000226
 20
-13.27669999999998
 30
0.0
 70
    32
  0
VERTEX
  5
490A
  8
241
 10
60.80270000000226
 20
-13.27409999999998
 30
0.0
 70
    32
  0
VERTEX
  5
490B
  8
241
 10
60.82770000000226
 20
-13.27139999999998
 30
0.0
 70
    32
  0
VERTEX
  5
490C
  8
241
 10
60.85280000000226
 20
-13.26839999999998
 30
0.0
 70
    32
  0
VERTEX
  5
490D
  8
241
 10
60.87780000000226
 20
-13.26519999999998
 30
0.0
 70
    32
  0
VERTEX
  5
490E
  8
241
 10
60.90280000000227
 20
-13.26179999999998
 30
0.0
 70
    32
  0
VERTEX
  5
490F
  8
241
 10
60.92770000000226
 20
-13.25809999999998
 30
0.0
 70
    32
  0
VERTEX
  5
4910
  8
241
 10
60.95260000000227
 20
-13.25429999999998
 30
0.0
 70
    32
  0
VERTEX
  5
4911
  8
241
 10
60.97740000000226
 20
-13.25019999999998
 30
0.0
 70
    32
  0
VERTEX
  5
4912
  8
241
 10
61.00220000000226
 20
-13.24589999999998
 30
0.0
 70
    32
  0
VERTEX
  5
4913
  8
241
 10
61.02700000000226
 20
-13.24139999999998
 30
0.0
 70
    32
  0
VERTEX
  5
4914
  8
241
 10
61.05170000000226
 20
-13.23669999999998
 30
0.0
 70
    32
  0
VERTEX
  5
4915
  8
241
 10
61.07630000000226
 20
-13.23179999999998
 30
0.0
 70
    32
  0
VERTEX
  5
4916
  8
241
 10
61.10090000000226
 20
-13.22659999999998
 30
0.0
 70
    32
  0
VERTEX
  5
4917
  8
241
 10
61.12540000000226
 20
-13.22119999999998
 30
0.0
 70
    32
  0
VERTEX
  5
4918
  8
241
 10
61.14980000000226
 20
-13.21559999999998
 30
0.0
 70
    32
  0
VERTEX
  5
4919
  8
241
 10
61.17420000000226
 20
-13.20979999999998
 30
0.0
 70
    32
  0
VERTEX
  5
491A
  8
241
 10
61.19850000000226
 20
-13.20379999999998
 30
0.0
 70
    32
  0
VERTEX
  5
491B
  8
241
 10
61.22280000000227
 20
-13.19759999999998
 30
0.0
 70
    32
  0
VERTEX
  5
491C
  8
241
 10
61.24690000000226
 20
-13.19119999999998
 30
0.0
 70
    32
  0
VERTEX
  5
491D
  8
241
 10
61.27100000000226
 20
-13.18449999999998
 30
0.0
 70
    32
  0
VERTEX
  5
491E
  8
241
 10
61.29500000000226
 20
-13.17769999999998
 30
0.0
 70
    32
  0
VERTEX
  5
491F
  8
241
 10
61.31900000000226
 20
-13.17059999999998
 30
0.0
 70
    32
  0
VERTEX
  5
4920
  8
241
 10
61.34280000000226
 20
-13.16329999999998
 30
0.0
 70
    32
  0
VERTEX
  5
4921
  8
241
 10
61.36660000000226
 20
-13.15579999999998
 30
0.0
 70
    32
  0
VERTEX
  5
4922
  8
241
 10
61.39020000000225
 20
-13.14809999999998
 30
0.0
 70
    32
  0
VERTEX
  5
4923
  8
241
 10
61.41380000000226
 20
-13.14019999999998
 30
0.0
 70
    32
  0
VERTEX
  5
4924
  8
241
 10
61.43730000000226
 20
-13.13209999999998
 30
0.0
 70
    32
  0
VERTEX
  5
4925
  8
241
 10
61.46070000000226
 20
-13.12379999999998
 30
0.0
 70
    32
  0
VERTEX
  5
4926
  8
241
 10
61.48400000000226
 20
-13.11529999999998
 30
0.0
 70
    32
  0
VERTEX
  5
4927
  8
241
 10
61.50720000000227
 20
-13.10659999999998
 30
0.0
 70
    32
  0
VERTEX
  5
4928
  8
241
 10
61.53030000000226
 20
-13.09769999999998
 30
0.0
 70
    32
  0
VERTEX
  5
4929
  8
241
 10
61.55330000000225
 20
-13.08849999999998
 30
0.0
 70
    32
  0
VERTEX
  5
492A
  8
241
 10
61.57610000000226
 20
-13.07919999999998
 30
0.0
 70
    32
  0
VERTEX
  5
492B
  8
241
 10
61.59890000000226
 20
-13.06969999999998
 30
0.0
 70
    32
  0
VERTEX
  5
492C
  8
241
 10
61.62160000000226
 20
-13.05999999999998
 30
0.0
 70
    32
  0
VERTEX
  5
492D
  8
241
 10
61.64410000000226
 20
-13.04999999999998
 30
0.0
 70
    32
  0
VERTEX
  5
492E
  8
241
 10
61.66650000000228
 20
-13.03989999999998
 30
0.0
 70
    32
  0
VERTEX
  5
492F
  8
241
 10
61.68880000000226
 20
-13.02959999999998
 30
0.0
 70
    32
  0
VERTEX
  5
4930
  8
241
 10
61.71100000000226
 20
-13.01909999999998
 30
0.0
 70
    32
  0
VERTEX
  5
4931
  8
241
 10
61.73310000000226
 20
-13.00839999999998
 30
0.0
 70
    32
  0
VERTEX
  5
4932
  8
241
 10
61.75500000000226
 20
-12.99749999999998
 30
0.0
 70
    32
  0
VERTEX
  5
4933
  8
241
 10
61.77680000000226
 20
-12.98639999999998
 30
0.0
 70
    32
  0
VERTEX
  5
4934
  8
241
 10
61.79850000000226
 20
-12.97509999999998
 30
0.0
 70
    32
  0
VERTEX
  5
4935
  8
241
 10
61.82000000000225
 20
-12.96369999999998
 30
0.0
 70
    32
  0
VERTEX
  5
4936
  8
241
 10
61.84140000000225
 20
-12.95199999999998
 30
0.0
 70
    32
  0
VERTEX
  5
4937
  8
241
 10
61.86270000000226
 20
-12.94019999999998
 30
0.0
 70
    32
  0
VERTEX
  5
4938
  8
241
 10
61.88380000000226
 20
-12.92809999999998
 30
0.0
 70
    32
  0
VERTEX
  5
4939
  8
241
 10
61.90480000000226
 20
-12.91589999999998
 30
0.0
 70
    32
  0
VERTEX
  5
493A
  8
241
 10
61.92560000000226
 20
-12.90349999999998
 30
0.0
 70
    32
  0
VERTEX
  5
493B
  8
241
 10
61.94630000000226
 20
-12.89099999999998
 30
0.0
 70
    32
  0
VERTEX
  5
493C
  8
241
 10
61.96690000000226
 20
-12.87819999999998
 30
0.0
 70
    32
  0
VERTEX
  5
493D
  8
241
 10
61.98730000000226
 20
-12.86529999999998
 30
0.0
 70
    32
  0
VERTEX
  5
493E
  8
241
 10
62.00750000000225
 20
-12.85209999999998
 30
0.0
 70
    32
  0
VERTEX
  5
493F
  8
241
 10
62.02760000000225
 20
-12.83889999999998
 30
0.0
 70
    32
  0
VERTEX
  5
4940
  8
241
 10
62.04750000000227
 20
-12.82539999999998
 30
0.0
 70
    32
  0
VERTEX
  5
4941
  8
241
 10
62.06730000000226
 20
-12.81169999999998
 30
0.0
 70
    32
  0
VERTEX
  5
4942
  8
241
 10
62.08690000000226
 20
-12.79789999999998
 30
0.0
 70
    32
  0
VERTEX
  5
4943
  8
241
 10
62.10640000000226
 20
-12.78399999999998
 30
0.0
 70
    32
  0
VERTEX
  5
4944
  8
241
 10
62.12570000000225
 20
-12.76979999999998
 30
0.0
 70
    32
  0
VERTEX
  5
4945
  8
241
 10
62.14480000000226
 20
-12.75549999999998
 30
0.0
 70
    32
  0
VERTEX
  5
4946
  8
241
 10
62.16380000000226
 20
-12.74099999999998
 30
0.0
 70
    32
  0
VERTEX
  5
4947
  8
241
 10
62.18260000000226
 20
-12.72629999999998
 30
0.0
 70
    32
  0
VERTEX
  5
4948
  8
241
 10
62.20120000000226
 20
-12.71149999999998
 30
0.0
 70
    32
  0
VERTEX
  5
4949
  8
241
 10
62.21960000000225
 20
-12.69649999999998
 30
0.0
 70
    32
  0
VERTEX
  5
494A
  8
241
 10
62.23790000000226
 20
-12.68139999999998
 30
0.0
 70
    32
  0
VERTEX
  5
494B
  8
241
 10
62.25600000000226
 20
-12.66609999999998
 30
0.0
 70
    32
  0
VERTEX
  5
494C
  8
241
 10
62.27390000000227
 20
-12.65059999999998
 30
0.0
 70
    32
  0
VERTEX
  5
494D
  8
241
 10
62.29160000000226
 20
-12.63499999999998
 30
0.0
 70
    32
  0
VERTEX
  5
494E
  8
241
 10
62.30910000000226
 20
-12.61919999999998
 30
0.0
 70
    32
  0
VERTEX
  5
494F
  8
241
 10
62.32650000000226
 20
-12.60329999999998
 30
0.0
 70
    32
  0
VERTEX
  5
4950
  8
241
 10
62.34370000000226
 20
-12.58729999999998
 30
0.0
 70
    32
  0
VERTEX
  5
4951
  8
241
 10
62.36060000000226
 20
-12.57099999999998
 30
0.0
 70
    32
  0
VERTEX
  5
4952
  8
241
 10
62.37740000000226
 20
-12.55469999999998
 30
0.0
 70
    32
  0
VERTEX
  5
4953
  8
241
 10
62.39400000000227
 20
-12.53809999999998
 30
0.0
 70
    32
  0
VERTEX
  5
4954
  8
241
 10
62.41040000000226
 20
-12.52149999999998
 30
0.0
 70
    32
  0
VERTEX
  5
4955
  8
241
 10
62.42660000000226
 20
-12.50469999999998
 30
0.0
 70
    32
  0
VERTEX
  5
4956
  8
241
 10
62.44270000000226
 20
-12.48769999999998
 30
0.0
 70
    32
  0
VERTEX
  5
4957
  8
241
 10
62.45850000000226
 20
-12.47069999999998
 30
0.0
 70
    32
  0
VERTEX
  5
4958
  8
241
 10
62.47410000000225
 20
-12.45339999999998
 30
0.0
 70
    32
  0
VERTEX
  5
4959
  8
241
 10
62.48950000000227
 20
-12.43609999999998
 30
0.0
 70
    32
  0
VERTEX
  5
495A
  8
241
 10
62.50470000000227
 20
-12.41859999999998
 30
0.0
 70
    32
  0
VERTEX
  5
495B
  8
241
 10
62.51970000000226
 20
-12.40099999999998
 30
0.0
 70
    32
  0
VERTEX
  5
495C
  8
241
 10
62.53450000000226
 20
-12.38319999999998
 30
0.0
 70
    32
  0
VERTEX
  5
495D
  8
241
 10
62.54910000000226
 20
-12.36529999999998
 30
0.0
 70
    32
  0
VERTEX
  5
495E
  8
241
 10
62.56350000000226
 20
-12.34729999999998
 30
0.0
 70
    32
  0
VERTEX
  5
495F
  8
241
 10
62.57760000000226
 20
-12.32919999999998
 30
0.0
 70
    32
  0
VERTEX
  5
4960
  8
241
 10
62.59160000000225
 20
-12.31089999999998
 30
0.0
 70
    32
  0
VERTEX
  5
4961
  8
241
 10
62.60530000000225
 20
-12.29249999999998
 30
0.0
 70
    32
  0
VERTEX
  5
4962
  8
241
 10
62.61890000000226
 20
-12.27399999999998
 30
0.0
 70
    32
  0
VERTEX
  5
4963
  8
241
 10
62.63220000000226
 20
-12.25539999999998
 30
0.0
 70
    32
  0
VERTEX
  5
4964
  8
241
 10
62.64530000000227
 20
-12.23669999999998
 30
0.0
 70
    32
  0
VERTEX
  5
4965
  8
241
 10
62.65810000000226
 20
-12.21779999999998
 30
0.0
 70
    32
  0
VERTEX
  5
4966
  8
241
 10
62.67080000000227
 20
-12.19889999999998
 30
0.0
 70
    32
  0
VERTEX
  5
4967
  8
241
 10
62.68320000000225
 20
-12.17979999999998
 30
0.0
 70
    32
  0
VERTEX
  5
4968
  8
241
 10
62.69540000000225
 20
-12.16059999999998
 30
0.0
 70
    32
  0
VERTEX
  5
4969
  8
241
 10
62.70740000000227
 20
-12.14139999999998
 30
0.0
 70
    32
  0
VERTEX
  5
496A
  8
241
 10
62.71920000000226
 20
-12.12199999999998
 30
0.0
 70
    32
  0
VERTEX
  5
496B
  8
241
 10
62.73070000000227
 20
-12.10249999999998
 30
0.0
 70
    32
  0
VERTEX
  5
496C
  8
241
 10
62.74200000000226
 20
-12.08289999999998
 30
0.0
 70
    32
  0
VERTEX
  5
496D
  8
241
 10
62.75310000000226
 20
-12.06319999999998
 30
0.0
 70
    32
  0
VERTEX
  5
496E
  8
241
 10
62.76390000000225
 20
-12.04339999999998
 30
0.0
 70
    32
  0
VERTEX
  5
496F
  8
241
 10
62.77450000000226
 20
-12.02359999999998
 30
0.0
 70
    32
  0
VERTEX
  5
4970
  8
241
 10
62.78490000000226
 20
-12.00359999999998
 30
0.0
 70
    32
  0
VERTEX
  5
4971
  8
241
 10
62.79500000000226
 20
-11.98349999999998
 30
0.0
 70
    32
  0
VERTEX
  5
4972
  8
241
 10
62.80500000000227
 20
-11.96339999999998
 30
0.0
 70
    32
  0
VERTEX
  5
4973
  8
241
 10
62.81460000000226
 20
-11.94319999999998
 30
0.0
 70
    32
  0
VERTEX
  5
4974
  8
241
 10
62.82410000000226
 20
-11.92279999999998
 30
0.0
 70
    32
  0
VERTEX
  5
4975
  8
241
 10
62.83330000000225
 20
-11.90239999999998
 30
0.0
 70
    32
  0
VERTEX
  5
4976
  8
241
 10
62.84220000000226
 20
-11.88199999999998
 30
0.0
 70
    32
  0
VERTEX
  5
4977
  8
241
 10
62.85090000000226
 20
-11.86139999999998
 30
0.0
 70
    32
  0
VERTEX
  5
4978
  8
241
 10
62.85940000000226
 20
-11.84079999999998
 30
0.0
 70
    32
  0
VERTEX
  5
4979
  8
241
 10
62.86770000000228
 20
-11.82009999999998
 30
0.0
 70
    32
  0
VERTEX
  5
497A
  8
241
 10
62.87570000000226
 20
-11.79929999999998
 30
0.0
 70
    32
  0
VERTEX
  5
497B
  8
241
 10
62.88340000000226
 20
-11.77849999999998
 30
0.0
 70
    32
  0
VERTEX
  5
497C
  8
241
 10
62.89090000000226
 20
-11.75759999999998
 30
0.0
 70
    32
  0
VERTEX
  5
497D
  8
241
 10
62.89820000000226
 20
-11.73659999999998
 30
0.0
 70
    32
  0
VERTEX
  5
497E
  8
241
 10
62.90520000000226
 20
-11.71559999999998
 30
0.0
 70
    32
  0
SEQEND
  5
497F
  8
241
  0
LINE
  5
4980
  8
241
  6
CONTINUOUS
 10
54.49999999999985
 20
-10.14104656429966
 30
0.0
 11
60.50000000000007
 21
-10.14104656429966
 31
0.0
  0
LINE
  5
4981
  8
241
  6
CONTINUOUS
 10
54.49999999999985
 20
-13.29006350946084
 30
0.0
 11
60.50000000000007
 21
-13.29006350946084
 31
0.0
  0
LINE
  5
4982
  8
240
  6
CONTINUOUS
 10
76.20000000000017
 20
-19.92264973081029
 30
0.0
 11
76.19999999999982
 21
19.92264973081029
 31
0.0
  0
LINE
  5
4983
  8
240
  6
CONTINUOUS
 10
75.70000000000014
 20
-20.78867513459476
 30
0.0
 11
71.00132076354876
 21
-23.50145885659559
 31
0.0
  0
ARC
  5
4984
  8
240
  6
CONTINUOUS
 10
69.50132076354882
 20
-20.90338264524226
 30
0.0
 40
3.0
 50
272.9999999999959
 51
299.9999999999989
1001
ASK_MEN_XD
1005
4765
1070
     1
1005
4983
1070
     1
  0
ARC
  5
4985
  8
240
  6
CONTINUOUS
 10
75.20000000000014
 20
-19.92264973081029
 30
0.0
 40
1.0
 50
299.9999999999989
 51
0.0
1001
ASK_MEN_XD
1005
0
1070
     1
1005
0
1070
     1
  0
LINE
  5
4986
  8
241
  6
CONTINUOUS
 10
70.37757785073143
 20
-23.77255909801791
 30
0.0
 11
70.37757785073148
 21
23.77255909801791
 31
0.0
  0
LINE
  5
4987
  8
240
  6
CONTINUOUS
 10
32.40000000000274
 20
25.34999999999845
 30
0.0
 11
36.39999999999869
 21
25.35000000000013
 31
0.0
  0
LINE
  5
4988
  8
240
  6
CONTINUOUS
 10
69.65832863227745
 20
23.89927124950599
 30
0.0
 11
62.96602540378954
 21
24.24999999999935
 31
0.0
  0
POLYLINE
  5
4989
  8
241
  6
CONTINUOUS
 10
0.0
 20
0.0
 30
0.0
 66
     1
 70
     8
  0
VERTEX
  5
498A
  8
241
 10
60.50000000000226
 20
14.47120000000001
 30
0.0
 70
    32
  0
VERTEX
  5
498B
  8
241
 10
60.56140000000226
 20
14.47050000000001
 30
0.0
 70
    32
  0
VERTEX
  5
498C
  8
241
 10
60.62270000000226
 20
14.46860000000001
 30
0.0
 70
    32
  0
VERTEX
  5
498D
  8
241
 10
60.68390000000226
 20
14.46530000000002
 30
0.0
 70
    32
  0
VERTEX
  5
498E
  8
241
 10
60.74500000000226
 20
14.46070000000001
 30
0.0
 70
    32
  0
VERTEX
  5
498F
  8
241
 10
60.80600000000226
 20
14.45490000000002
 30
0.0
 70
    32
  0
VERTEX
  5
4990
  8
241
 10
60.86680000000226
 20
14.44770000000002
 30
0.0
 70
    32
  0
VERTEX
  5
4991
  8
241
 10
60.92740000000226
 20
14.43930000000001
 30
0.0
 70
    32
  0
VERTEX
  5
4992
  8
241
 10
60.98770000000226
 20
14.42960000000002
 30
0.0
 70
    32
  0
VERTEX
  5
4993
  8
241
 10
61.04780000000226
 20
14.41860000000002
 30
0.0
 70
    32
  0
VERTEX
  5
4994
  8
241
 10
61.10750000000225
 20
14.40630000000002
 30
0.0
 70
    32
  0
VERTEX
  5
4995
  8
241
 10
61.16680000000226
 20
14.39270000000002
 30
0.0
 70
    32
  0
VERTEX
  5
4996
  8
241
 10
61.22570000000226
 20
14.37790000000002
 30
0.0
 70
    32
  0
VERTEX
  5
4997
  8
241
 10
61.28420000000226
 20
14.36190000000002
 30
0.0
 70
    32
  0
VERTEX
  5
4998
  8
241
 10
61.34220000000226
 20
14.34460000000002
 30
0.0
 70
    32
  0
VERTEX
  5
4999
  8
241
 10
61.39970000000226
 20
14.32610000000002
 30
0.0
 70
    32
  0
VERTEX
  5
499A
  8
241
 10
61.45670000000226
 20
14.30640000000002
 30
0.0
 70
    32
  0
VERTEX
  5
499B
  8
241
 10
61.51310000000226
 20
14.28540000000001
 30
0.0
 70
    32
  0
VERTEX
  5
499C
  8
241
 10
61.56890000000227
 20
14.26330000000002
 30
0.0
 70
    32
  0
VERTEX
  5
499D
  8
241
 10
61.62400000000226
 20
14.24000000000002
 30
0.0
 70
    32
  0
VERTEX
  5
499E
  8
241
 10
61.67850000000225
 20
14.21550000000002
 30
0.0
 70
    32
  0
VERTEX
  5
499F
  8
241
 10
61.73220000000227
 20
14.18990000000001
 30
0.0
 70
    32
  0
VERTEX
  5
49A0
  8
241
 10
61.78530000000225
 20
14.16310000000002
 30
0.0
 70
    32
  0
VERTEX
  5
49A1
  8
241
 10
61.83750000000227
 20
14.13530000000002
 30
0.0
 70
    32
  0
VERTEX
  5
49A2
  8
241
 10
61.88890000000227
 20
14.10630000000002
 30
0.0
 70
    32
  0
VERTEX
  5
49A3
  8
241
 10
61.93950000000226
 20
14.07620000000002
 30
0.0
 70
    32
  0
VERTEX
  5
49A4
  8
241
 10
61.98920000000226
 20
14.04510000000002
 30
0.0
 70
    32
  0
VERTEX
  5
49A5
  8
241
 10
62.03810000000226
 20
14.01290000000002
 30
0.0
 70
    32
  0
VERTEX
  5
49A6
  8
241
 10
62.08600000000227
 20
13.97970000000001
 30
0.0
 70
    32
  0
VERTEX
  5
49A7
  8
241
 10
62.13290000000227
 20
13.94550000000001
 30
0.0
 70
    32
  0
VERTEX
  5
49A8
  8
241
 10
62.17890000000227
 20
13.91030000000001
 30
0.0
 70
    32
  0
VERTEX
  5
49A9
  8
241
 10
62.22390000000226
 20
13.87420000000002
 30
0.0
 70
    32
  0
VERTEX
  5
49AA
  8
241
 10
62.26780000000226
 20
13.83700000000002
 30
0.0
 70
    32
  0
VERTEX
  5
49AB
  8
241
 10
62.31060000000225
 20
13.79900000000002
 30
0.0
 70
    32
  0
VERTEX
  5
49AC
  8
241
 10
62.35240000000226
 20
13.76010000000001
 30
0.0
 70
    32
  0
VERTEX
  5
49AD
  8
241
 10
62.39300000000226
 20
13.72030000000002
 30
0.0
 70
    32
  0
VERTEX
  5
49AE
  8
241
 10
62.43250000000227
 20
13.67960000000002
 30
0.0
 70
    32
  0
VERTEX
  5
49AF
  8
241
 10
62.47090000000226
 20
13.63810000000001
 30
0.0
 70
    32
  0
VERTEX
  5
49B0
  8
241
 10
62.50800000000226
 20
13.59580000000002
 30
0.0
 70
    32
  0
VERTEX
  5
49B1
  8
241
 10
62.54400000000226
 20
13.55280000000002
 30
0.0
 70
    32
  0
VERTEX
  5
49B2
  8
241
 10
62.57870000000226
 20
13.50900000000002
 30
0.0
 70
    32
  0
VERTEX
  5
49B3
  8
241
 10
62.61210000000226
 20
13.46440000000002
 30
0.0
 70
    32
  0
VERTEX
  5
49B4
  8
241
 10
62.64430000000226
 20
13.41920000000002
 30
0.0
 70
    32
  0
VERTEX
  5
49B5
  8
241
 10
62.67520000000226
 20
13.37330000000002
 30
0.0
 70
    32
  0
VERTEX
  5
49B6
  8
241
 10
62.70480000000226
 20
13.32670000000002
 30
0.0
 70
    32
  0
VERTEX
  5
49B7
  8
241
 10
62.73310000000225
 20
13.27950000000002
 30
0.0
 70
    32
  0
VERTEX
  5
49B8
  8
241
 10
62.76000000000227
 20
13.23180000000002
 30
0.0
 70
    32
  0
VERTEX
  5
49B9
  8
241
 10
62.78550000000226
 20
13.18350000000002
 30
0.0
 70
    32
  0
VERTEX
  5
49BA
  8
241
 10
62.80970000000227
 20
13.13460000000002
 30
0.0
 70
    32
  0
VERTEX
  5
49BB
  8
241
 10
62.83250000000226
 20
13.08530000000002
 30
0.0
 70
    32
  0
VERTEX
  5
49BC
  8
241
 10
62.85390000000226
 20
13.03550000000002
 30
0.0
 70
    32
  0
VERTEX
  5
49BD
  8
241
 10
62.87380000000226
 20
12.98530000000002
 30
0.0
 70
    32
  0
VERTEX
  5
49BE
  8
241
 10
62.89240000000225
 20
12.93460000000002
 30
0.0
 70
    32
  0
VERTEX
  5
49BF
  8
241
 10
62.90940000000226
 20
12.88360000000001
 30
0.0
 70
    32
  0
VERTEX
  5
49C0
  8
241
 10
62.92510000000226
 20
12.83220000000002
 30
0.0
 70
    32
  0
VERTEX
  5
49C1
  8
241
 10
62.93930000000226
 20
12.78050000000002
 30
0.0
 70
    32
  0
VERTEX
  5
49C2
  8
241
 10
62.95200000000226
 20
12.72850000000002
 30
0.0
 70
    32
  0
VERTEX
  5
49C3
  8
241
 10
62.96320000000226
 20
12.67630000000002
 30
0.0
 70
    32
  0
VERTEX
  5
49C4
  8
241
 10
62.97290000000226
 20
12.62380000000002
 30
0.0
 70
    32
  0
VERTEX
  5
49C5
  8
241
 10
62.98120000000226
 20
12.57110000000001
 30
0.0
 70
    32
  0
VERTEX
  5
49C6
  8
241
 10
62.98800000000227
 20
12.51830000000001
 30
0.0
 70
    32
  0
VERTEX
  5
49C7
  8
241
 10
62.99320000000226
 20
12.46540000000002
 30
0.0
 70
    32
  0
VERTEX
  5
49C8
  8
241
 10
62.99700000000227
 20
12.41230000000002
 30
0.0
 70
    32
  0
VERTEX
  5
49C9
  8
241
 10
62.99920000000226
 20
12.35920000000002
 30
0.0
 70
    32
  0
VERTEX
  5
49CA
  8
241
 10
63.00000000000226
 20
12.30610000000002
 30
0.0
 70
    32
  0
VERTEX
  5
49CB
  8
241
 10
62.99920000000226
 20
12.25300000000002
 30
0.0
 70
    32
  0
VERTEX
  5
49CC
  8
241
 10
62.99700000000227
 20
12.19990000000002
 30
0.0
 70
    32
  0
VERTEX
  5
49CD
  8
241
 10
62.99320000000226
 20
12.14680000000002
 30
0.0
 70
    32
  0
VERTEX
  5
49CE
  8
241
 10
62.98800000000227
 20
12.09390000000001
 30
0.0
 70
    32
  0
VERTEX
  5
49CF
  8
241
 10
62.98120000000226
 20
12.04110000000002
 30
0.0
 70
    32
  0
VERTEX
  5
49D0
  8
241
 10
62.97290000000226
 20
11.98840000000002
 30
0.0
 70
    32
  0
VERTEX
  5
49D1
  8
241
 10
62.96320000000226
 20
11.93600000000001
 30
0.0
 70
    32
  0
VERTEX
  5
49D2
  8
241
 10
62.95200000000226
 20
11.88370000000001
 30
0.0
 70
    32
  0
VERTEX
  5
49D3
  8
241
 10
62.93930000000226
 20
11.83170000000002
 30
0.0
 70
    32
  0
VERTEX
  5
49D4
  8
241
 10
62.92510000000226
 20
11.78000000000001
 30
0.0
 70
    32
  0
VERTEX
  5
49D5
  8
241
 10
62.90940000000226
 20
11.72870000000002
 30
0.0
 70
    32
  0
VERTEX
  5
49D6
  8
241
 10
62.89240000000225
 20
11.67760000000002
 30
0.0
 70
    32
  0
VERTEX
  5
49D7
  8
241
 10
62.87380000000226
 20
11.62700000000002
 30
0.0
 70
    32
  0
VERTEX
  5
49D8
  8
241
 10
62.85390000000226
 20
11.57670000000002
 30
0.0
 70
    32
  0
VERTEX
  5
49D9
  8
241
 10
62.83250000000226
 20
11.52690000000001
 30
0.0
 70
    32
  0
VERTEX
  5
49DA
  8
241
 10
62.80970000000227
 20
11.47760000000002
 30
0.0
 70
    32
  0
VERTEX
  5
49DB
  8
241
 10
62.78550000000226
 20
11.42870000000002
 30
0.0
 70
    32
  0
VERTEX
  5
49DC
  8
241
 10
62.76000000000227
 20
11.38040000000001
 30
0.0
 70
    32
  0
VERTEX
  5
49DD
  8
241
 10
62.73310000000225
 20
11.33270000000002
 30
0.0
 70
    32
  0
VERTEX
  5
49DE
  8
241
 10
62.70480000000226
 20
11.28550000000002
 30
0.0
 70
    32
  0
VERTEX
  5
49DF
  8
241
 10
62.67520000000226
 20
11.23900000000002
 30
0.0
 70
    32
  0
VERTEX
  5
49E0
  8
241
 10
62.64430000000226
 20
11.19300000000001
 30
0.0
 70
    32
  0
VERTEX
  5
49E1
  8
241
 10
62.61210000000226
 20
11.14780000000002
 30
0.0
 70
    32
  0
VERTEX
  5
49E2
  8
241
 10
62.57870000000226
 20
11.10330000000002
 30
0.0
 70
    32
  0
VERTEX
  5
49E3
  8
241
 10
62.54400000000226
 20
11.05940000000002
 30
0.0
 70
    32
  0
VERTEX
  5
49E4
  8
241
 10
62.50800000000226
 20
11.01640000000002
 30
0.0
 70
    32
  0
VERTEX
  5
49E5
  8
241
 10
62.47090000000226
 20
10.97410000000001
 30
0.0
 70
    32
  0
VERTEX
  5
49E6
  8
241
 10
62.43250000000227
 20
10.93260000000002
 30
0.0
 70
    32
  0
VERTEX
  5
49E7
  8
241
 10
62.39300000000226
 20
10.89190000000002
 30
0.0
 70
    32
  0
VERTEX
  5
49E8
  8
241
 10
62.35240000000226
 20
10.85210000000001
 30
0.0
 70
    32
  0
VERTEX
  5
49E9
  8
241
 10
62.31060000000225
 20
10.81320000000002
 30
0.0
 70
    32
  0
VERTEX
  5
49EA
  8
241
 10
62.26780000000226
 20
10.77520000000002
 30
0.0
 70
    32
  0
VERTEX
  5
49EB
  8
241
 10
62.22390000000226
 20
10.73810000000001
 30
0.0
 70
    32
  0
VERTEX
  5
49EC
  8
241
 10
62.17890000000227
 20
10.70190000000001
 30
0.0
 70
    32
  0
VERTEX
  5
49ED
  8
241
 10
62.13290000000227
 20
10.66670000000002
 30
0.0
 70
    32
  0
VERTEX
  5
49EE
  8
241
 10
62.08600000000227
 20
10.63250000000002
 30
0.0
 70
    32
  0
VERTEX
  5
49EF
  8
241
 10
62.03810000000226
 20
10.59930000000002
 30
0.0
 70
    32
  0
VERTEX
  5
49F0
  8
241
 10
61.98920000000226
 20
10.56710000000002
 30
0.0
 70
    32
  0
VERTEX
  5
49F1
  8
241
 10
61.93950000000226
 20
10.53600000000002
 30
0.0
 70
    32
  0
VERTEX
  5
49F2
  8
241
 10
61.88890000000227
 20
10.50590000000002
 30
0.0
 70
    32
  0
VERTEX
  5
49F3
  8
241
 10
61.83750000000227
 20
10.47690000000002
 30
0.0
 70
    32
  0
VERTEX
  5
49F4
  8
241
 10
61.78530000000225
 20
10.44910000000002
 30
0.0
 70
    32
  0
VERTEX
  5
49F5
  8
241
 10
61.73220000000227
 20
10.42230000000001
 30
0.0
 70
    32
  0
VERTEX
  5
49F6
  8
241
 10
61.67850000000225
 20
10.39670000000001
 30
0.0
 70
    32
  0
VERTEX
  5
49F7
  8
241
 10
61.62400000000226
 20
10.37220000000002
 30
0.0
 70
    32
  0
VERTEX
  5
49F8
  8
241
 10
61.56890000000227
 20
10.34890000000002
 30
0.0
 70
    32
  0
VERTEX
  5
49F9
  8
241
 10
61.51310000000226
 20
10.32680000000002
 30
0.0
 70
    32
  0
VERTEX
  5
49FA
  8
241
 10
61.45670000000226
 20
10.30590000000001
 30
0.0
 70
    32
  0
VERTEX
  5
49FB
  8
241
 10
61.39970000000226
 20
10.28610000000002
 30
0.0
 70
    32
  0
VERTEX
  5
49FC
  8
241
 10
61.34220000000226
 20
10.26760000000002
 30
0.0
 70
    32
  0
VERTEX
  5
49FD
  8
241
 10
61.28420000000226
 20
10.25030000000001
 30
0.0
 70
    32
  0
VERTEX
  5
49FE
  8
241
 10
61.22570000000226
 20
10.23430000000002
 30
0.0
 70
    32
  0
VERTEX
  5
49FF
  8
241
 10
61.16680000000226
 20
10.21950000000002
 30
0.0
 70
    32
  0
VERTEX
  5
4A00
  8
241
 10
61.10750000000225
 20
10.20590000000002
 30
0.0
 70
    32
  0
VERTEX
  5
4A01
  8
241
 10
61.04780000000226
 20
10.19370000000002
 30
0.0
 70
    32
  0
VERTEX
  5
4A02
  8
241
 10
60.98770000000226
 20
10.18260000000002
 30
0.0
 70
    32
  0
VERTEX
  5
4A03
  8
241
 10
60.92740000000226
 20
10.17290000000002
 30
0.0
 70
    32
  0
VERTEX
  5
4A04
  8
241
 10
60.86680000000226
 20
10.16450000000002
 30
0.0
 70
    32
  0
VERTEX
  5
4A05
  8
241
 10
60.80600000000226
 20
10.15730000000002
 30
0.0
 70
    32
  0
VERTEX
  5
4A06
  8
241
 10
60.74500000000226
 20
10.15150000000001
 30
0.0
 70
    32
  0
VERTEX
  5
4A07
  8
241
 10
60.68390000000226
 20
10.14690000000002
 30
0.0
 70
    32
  0
VERTEX
  5
4A08
  8
241
 10
60.62270000000226
 20
10.14370000000002
 30
0.0
 70
    32
  0
VERTEX
  5
4A09
  8
241
 10
60.56140000000226
 20
10.14170000000002
 30
0.0
 70
    32
  0
VERTEX
  5
4A0A
  8
241
 10
60.50000000000226
 20
10.14100000000001
 30
0.0
 70
    32
  0
SEQEND
  5
4A0B
  8
241
  0
POLYLINE
  5
4A0C
  8
241
  6
CONTINUOUS
 10
0.0
 20
0.0
 30
0.0
 66
     1
 70
     8
  0
VERTEX
  5
4A0D
  8
241
 10
54.50000000000225
 20
10.14100000000001
 30
0.0
 70
    32
  0
VERTEX
  5
4A0E
  8
241
 10
54.43860000000226
 20
10.14170000000002
 30
0.0
 70
    32
  0
VERTEX
  5
4A0F
  8
241
 10
54.37730000000226
 20
10.14370000000002
 30
0.0
 70
    32
  0
VERTEX
  5
4A10
  8
241
 10
54.31610000000226
 20
10.14690000000002
 30
0.0
 70
    32
  0
VERTEX
  5
4A11
  8
241
 10
54.25500000000226
 20
10.15150000000001
 30
0.0
 70
    32
  0
VERTEX
  5
4A12
  8
241
 10
54.19400000000226
 20
10.15730000000002
 30
0.0
 70
    32
  0
VERTEX
  5
4A13
  8
241
 10
54.13320000000226
 20
10.16450000000002
 30
0.0
 70
    32
  0
VERTEX
  5
4A14
  8
241
 10
54.07260000000226
 20
10.17290000000002
 30
0.0
 70
    32
  0
VERTEX
  5
4A15
  8
241
 10
54.01230000000226
 20
10.18260000000002
 30
0.0
 70
    32
  0
VERTEX
  5
4A16
  8
241
 10
53.95220000000226
 20
10.19370000000002
 30
0.0
 70
    32
  0
VERTEX
  5
4A17
  8
241
 10
53.89250000000227
 20
10.20590000000002
 30
0.0
 70
    32
  0
VERTEX
  5
4A18
  8
241
 10
53.83320000000226
 20
10.21950000000002
 30
0.0
 70
    32
  0
VERTEX
  5
4A19
  8
241
 10
53.77430000000226
 20
10.23430000000002
 30
0.0
 70
    32
  0
VERTEX
  5
4A1A
  8
241
 10
53.71580000000226
 20
10.25030000000001
 30
0.0
 70
    32
  0
VERTEX
  5
4A1B
  8
241
 10
53.65780000000226
 20
10.26760000000002
 30
0.0
 70
    32
  0
VERTEX
  5
4A1C
  8
241
 10
53.60030000000226
 20
10.28610000000002
 30
0.0
 70
    32
  0
VERTEX
  5
4A1D
  8
241
 10
53.54330000000226
 20
10.30590000000001
 30
0.0
 70
    32
  0
VERTEX
  5
4A1E
  8
241
 10
53.48690000000226
 20
10.32680000000002
 30
0.0
 70
    32
  0
VERTEX
  5
4A1F
  8
241
 10
53.43110000000225
 20
10.34890000000002
 30
0.0
 70
    32
  0
VERTEX
  5
4A20
  8
241
 10
53.37600000000226
 20
10.37220000000002
 30
0.0
 70
    32
  0
VERTEX
  5
4A21
  8
241
 10
53.32150000000225
 20
10.39670000000001
 30
0.0
 70
    32
  0
VERTEX
  5
4A22
  8
241
 10
53.26780000000225
 20
10.42230000000001
 30
0.0
 70
    32
  0
VERTEX
  5
4A23
  8
241
 10
53.21470000000226
 20
10.44910000000002
 30
0.0
 70
    32
  0
VERTEX
  5
4A24
  8
241
 10
53.16250000000226
 20
10.47690000000002
 30
0.0
 70
    32
  0
VERTEX
  5
4A25
  8
241
 10
53.11110000000225
 20
10.50590000000002
 30
0.0
 70
    32
  0
VERTEX
  5
4A26
  8
241
 10
53.06050000000226
 20
10.53600000000002
 30
0.0
 70
    32
  0
VERTEX
  5
4A27
  8
241
 10
53.01080000000226
 20
10.56710000000002
 30
0.0
 70
    32
  0
VERTEX
  5
4A28
  8
241
 10
52.96190000000225
 20
10.59930000000002
 30
0.0
 70
    32
  0
VERTEX
  5
4A29
  8
241
 10
52.91400000000225
 20
10.63250000000002
 30
0.0
 70
    32
  0
VERTEX
  5
4A2A
  8
241
 10
52.86710000000225
 20
10.66670000000002
 30
0.0
 70
    32
  0
VERTEX
  5
4A2B
  8
241
 10
52.82110000000225
 20
10.70190000000001
 30
0.0
 70
    32
  0
VERTEX
  5
4A2C
  8
241
 10
52.77610000000225
 20
10.73810000000001
 30
0.0
 70
    32
  0
VERTEX
  5
4A2D
  8
241
 10
52.73220000000226
 20
10.77520000000002
 30
0.0
 70
    32
  0
VERTEX
  5
4A2E
  8
241
 10
52.68940000000227
 20
10.81320000000002
 30
0.0
 70
    32
  0
VERTEX
  5
4A2F
  8
241
 10
52.64760000000226
 20
10.85210000000001
 30
0.0
 70
    32
  0
VERTEX
  5
4A30
  8
241
 10
52.60700000000227
 20
10.89190000000002
 30
0.0
 70
    32
  0
VERTEX
  5
4A31
  8
241
 10
52.56750000000226
 20
10.93260000000002
 30
0.0
 70
    32
  0
VERTEX
  5
4A32
  8
241
 10
52.52910000000227
 20
10.97410000000001
 30
0.0
 70
    32
  0
VERTEX
  5
4A33
  8
241
 10
52.49200000000226
 20
11.01640000000002
 30
0.0
 70
    32
  0
VERTEX
  5
4A34
  8
241
 10
52.45600000000226
 20
11.05940000000002
 30
0.0
 70
    32
  0
VERTEX
  5
4A35
  8
241
 10
52.42130000000225
 20
11.10330000000002
 30
0.0
 70
    32
  0
VERTEX
  5
4A36
  8
241
 10
52.38790000000226
 20
11.14780000000002
 30
0.0
 70
    32
  0
VERTEX
  5
4A37
  8
241
 10
52.35570000000226
 20
11.19300000000001
 30
0.0
 70
    32
  0
VERTEX
  5
4A38
  8
241
 10
52.32480000000226
 20
11.23900000000002
 30
0.0
 70
    32
  0
VERTEX
  5
4A39
  8
241
 10
52.29520000000226
 20
11.28550000000002
 30
0.0
 70
    32
  0
VERTEX
  5
4A3A
  8
241
 10
52.26690000000225
 20
11.33270000000002
 30
0.0
 70
    32
  0
VERTEX
  5
4A3B
  8
241
 10
52.24000000000226
 20
11.38040000000001
 30
0.0
 70
    32
  0
VERTEX
  5
4A3C
  8
241
 10
52.21450000000226
 20
11.42870000000002
 30
0.0
 70
    32
  0
VERTEX
  5
4A3D
  8
241
 10
52.19030000000226
 20
11.47760000000002
 30
0.0
 70
    32
  0
VERTEX
  5
4A3E
  8
241
 10
52.16750000000226
 20
11.52690000000001
 30
0.0
 70
    32
  0
VERTEX
  5
4A3F
  8
241
 10
52.14610000000226
 20
11.57670000000002
 30
0.0
 70
    32
  0
VERTEX
  5
4A40
  8
241
 10
52.12620000000226
 20
11.62700000000002
 30
0.0
 70
    32
  0
VERTEX
  5
4A41
  8
241
 10
52.10760000000226
 20
11.67760000000002
 30
0.0
 70
    32
  0
VERTEX
  5
4A42
  8
241
 10
52.09060000000226
 20
11.72870000000002
 30
0.0
 70
    32
  0
VERTEX
  5
4A43
  8
241
 10
52.07490000000227
 20
11.78000000000001
 30
0.0
 70
    32
  0
VERTEX
  5
4A44
  8
241
 10
52.06070000000226
 20
11.83170000000002
 30
0.0
 70
    32
  0
VERTEX
  5
4A45
  8
241
 10
52.04800000000226
 20
11.88370000000001
 30
0.0
 70
    32
  0
VERTEX
  5
4A46
  8
241
 10
52.03680000000225
 20
11.93600000000001
 30
0.0
 70
    32
  0
VERTEX
  5
4A47
  8
241
 10
52.02710000000227
 20
11.98840000000002
 30
0.0
 70
    32
  0
VERTEX
  5
4A48
  8
241
 10
52.01880000000226
 20
12.04110000000002
 30
0.0
 70
    32
  0
VERTEX
  5
4A49
  8
241
 10
52.01200000000226
 20
12.09390000000001
 30
0.0
 70
    32
  0
VERTEX
  5
4A4A
  8
241
 10
52.00680000000226
 20
12.14680000000002
 30
0.0
 70
    32
  0
VERTEX
  5
4A4B
  8
241
 10
52.00300000000225
 20
12.19990000000002
 30
0.0
 70
    32
  0
VERTEX
  5
4A4C
  8
241
 10
52.00080000000227
 20
12.25300000000002
 30
0.0
 70
    32
  0
VERTEX
  5
4A4D
  8
241
 10
52.00000000000225
 20
12.30610000000002
 30
0.0
 70
    32
  0
VERTEX
  5
4A4E
  8
241
 10
52.00080000000227
 20
12.35920000000002
 30
0.0
 70
    32
  0
VERTEX
  5
4A4F
  8
241
 10
52.00300000000225
 20
12.41230000000002
 30
0.0
 70
    32
  0
VERTEX
  5
4A50
  8
241
 10
52.00680000000226
 20
12.46540000000002
 30
0.0
 70
    32
  0
VERTEX
  5
4A51
  8
241
 10
52.01200000000226
 20
12.51830000000001
 30
0.0
 70
    32
  0
VERTEX
  5
4A52
  8
241
 10
52.01880000000226
 20
12.57110000000001
 30
0.0
 70
    32
  0
VERTEX
  5
4A53
  8
241
 10
52.02710000000227
 20
12.62380000000002
 30
0.0
 70
    32
  0
VERTEX
  5
4A54
  8
241
 10
52.03680000000225
 20
12.67630000000002
 30
0.0
 70
    32
  0
VERTEX
  5
4A55
  8
241
 10
52.04800000000226
 20
12.72850000000002
 30
0.0
 70
    32
  0
VERTEX
  5
4A56
  8
241
 10
52.06070000000226
 20
12.78050000000002
 30
0.0
 70
    32
  0
VERTEX
  5
4A57
  8
241
 10
52.07490000000227
 20
12.83220000000002
 30
0.0
 70
    32
  0
VERTEX
  5
4A58
  8
241
 10
52.09060000000226
 20
12.88360000000001
 30
0.0
 70
    32
  0
VERTEX
  5
4A59
  8
241
 10
52.10760000000226
 20
12.93460000000002
 30
0.0
 70
    32
  0
VERTEX
  5
4A5A
  8
241
 10
52.12620000000226
 20
12.98530000000002
 30
0.0
 70
    32
  0
VERTEX
  5
4A5B
  8
241
 10
52.14610000000226
 20
13.03550000000002
 30
0.0
 70
    32
  0
VERTEX
  5
4A5C
  8
241
 10
52.16750000000226
 20
13.08530000000002
 30
0.0
 70
    32
  0
VERTEX
  5
4A5D
  8
241
 10
52.19030000000226
 20
13.13460000000002
 30
0.0
 70
    32
  0
VERTEX
  5
4A5E
  8
241
 10
52.21450000000226
 20
13.18350000000002
 30
0.0
 70
    32
  0
VERTEX
  5
4A5F
  8
241
 10
52.24000000000226
 20
13.23180000000002
 30
0.0
 70
    32
  0
VERTEX
  5
4A60
  8
241
 10
52.26690000000225
 20
13.27950000000002
 30
0.0
 70
    32
  0
VERTEX
  5
4A61
  8
241
 10
52.29520000000226
 20
13.32670000000002
 30
0.0
 70
    32
  0
VERTEX
  5
4A62
  8
241
 10
52.32480000000226
 20
13.37330000000002
 30
0.0
 70
    32
  0
VERTEX
  5
4A63
  8
241
 10
52.35570000000226
 20
13.41920000000002
 30
0.0
 70
    32
  0
VERTEX
  5
4A64
  8
241
 10
52.38790000000226
 20
13.46440000000002
 30
0.0
 70
    32
  0
VERTEX
  5
4A65
  8
241
 10
52.42130000000225
 20
13.50900000000002
 30
0.0
 70
    32
  0
VERTEX
  5
4A66
  8
241
 10
52.45600000000226
 20
13.55280000000002
 30
0.0
 70
    32
  0
VERTEX
  5
4A67
  8
241
 10
52.49200000000226
 20
13.59580000000002
 30
0.0
 70
    32
  0
VERTEX
  5
4A68
  8
241
 10
52.52910000000227
 20
13.63810000000001
 30
0.0
 70
    32
  0
VERTEX
  5
4A69
  8
241
 10
52.56750000000226
 20
13.67960000000002
 30
0.0
 70
    32
  0
VERTEX
  5
4A6A
  8
241
 10
52.60700000000227
 20
13.72030000000002
 30
0.0
 70
    32
  0
VERTEX
  5
4A6B
  8
241
 10
52.64760000000226
 20
13.76010000000001
 30
0.0
 70
    32
  0
VERTEX
  5
4A6C
  8
241
 10
52.68940000000227
 20
13.79900000000002
 30
0.0
 70
    32
  0
VERTEX
  5
4A6D
  8
241
 10
52.73220000000226
 20
13.83700000000002
 30
0.0
 70
    32
  0
VERTEX
  5
4A6E
  8
241
 10
52.77610000000225
 20
13.87420000000002
 30
0.0
 70
    32
  0
VERTEX
  5
4A6F
  8
241
 10
52.82110000000225
 20
13.91030000000001
 30
0.0
 70
    32
  0
VERTEX
  5
4A70
  8
241
 10
52.86710000000225
 20
13.94550000000001
 30
0.0
 70
    32
  0
VERTEX
  5
4A71
  8
241
 10
52.91400000000225
 20
13.97970000000001
 30
0.0
 70
    32
  0
VERTEX
  5
4A72
  8
241
 10
52.96190000000225
 20
14.01290000000002
 30
0.0
 70
    32
  0
VERTEX
  5
4A73
  8
241
 10
53.01080000000226
 20
14.04510000000002
 30
0.0
 70
    32
  0
VERTEX
  5
4A74
  8
241
 10
53.06050000000226
 20
14.07620000000002
 30
0.0
 70
    32
  0
VERTEX
  5
4A75
  8
241
 10
53.11110000000225
 20
14.10630000000002
 30
0.0
 70
    32
  0
VERTEX
  5
4A76
  8
241
 10
53.16250000000226
 20
14.13530000000002
 30
0.0
 70
    32
  0
VERTEX
  5
4A77
  8
241
 10
53.21470000000226
 20
14.16310000000002
 30
0.0
 70
    32
  0
VERTEX
  5
4A78
  8
241
 10
53.26780000000225
 20
14.18990000000001
 30
0.0
 70
    32
  0
VERTEX
  5
4A79
  8
241
 10
53.32150000000225
 20
14.21550000000002
 30
0.0
 70
    32
  0
VERTEX
  5
4A7A
  8
241
 10
53.37600000000226
 20
14.24000000000002
 30
0.0
 70
    32
  0
VERTEX
  5
4A7B
  8
241
 10
53.43110000000225
 20
14.26330000000002
 30
0.0
 70
    32
  0
VERTEX
  5
4A7C
  8
241
 10
53.48690000000226
 20
14.28540000000001
 30
0.0
 70
    32
  0
VERTEX
  5
4A7D
  8
241
 10
53.54330000000226
 20
14.30640000000002
 30
0.0
 70
    32
  0
VERTEX
  5
4A7E
  8
241
 10
53.60030000000226
 20
14.32610000000002
 30
0.0
 70
    32
  0
VERTEX
  5
4A7F
  8
241
 10
53.65780000000226
 20
14.34460000000002
 30
0.0
 70
    32
  0
VERTEX
  5
4A80
  8
241
 10
53.71580000000226
 20
14.36190000000002
 30
0.0
 70
    32
  0
VERTEX
  5
4A81
  8
241
 10
53.77430000000226
 20
14.37790000000002
 30
0.0
 70
    32
  0
VERTEX
  5
4A82
  8
241
 10
53.83320000000226
 20
14.39270000000002
 30
0.0
 70
    32
  0
VERTEX
  5
4A83
  8
241
 10
53.89250000000227
 20
14.40630000000002
 30
0.0
 70
    32
  0
VERTEX
  5
4A84
  8
241
 10
53.95220000000226
 20
14.41860000000002
 30
0.0
 70
    32
  0
VERTEX
  5
4A85
  8
241
 10
54.01230000000226
 20
14.42960000000002
 30
0.0
 70
    32
  0
VERTEX
  5
4A86
  8
241
 10
54.07260000000226
 20
14.43930000000001
 30
0.0
 70
    32
  0
VERTEX
  5
4A87
  8
241
 10
54.13320000000226
 20
14.44770000000002
 30
0.0
 70
    32
  0
VERTEX
  5
4A88
  8
241
 10
54.19400000000226
 20
14.45490000000002
 30
0.0
 70
    32
  0
VERTEX
  5
4A89
  8
241
 10
54.25500000000226
 20
14.46070000000001
 30
0.0
 70
    32
  0
VERTEX
  5
4A8A
  8
241
 10
54.31610000000226
 20
14.46530000000002
 30
0.0
 70
    32
  0
VERTEX
  5
4A8B
  8
241
 10
54.37730000000226
 20
14.46860000000001
 30
0.0
 70
    32
  0
VERTEX
  5
4A8C
  8
241
 10
54.43860000000226
 20
14.47050000000001
 30
0.0
 70
    32
  0
VERTEX
  5
4A8D
  8
241
 10
54.50000000000225
 20
14.47120000000001
 30
0.0
 70
    32
  0
SEQEND
  5
4A8E
  8
241
  0
LINE
  5
4A8F
  8
241
  6
CONTINUOUS
 10
62.96602540378954
 20
24.24999999999937
 30
0.0
 11
62.96602540378944
 21
12.66183332419504
 31
0.0
  0
LINE
  5
4A90
  8
240
  6
CONTINUOUS
 10
36.75000000000056
 20
24.99999999999964
 30
0.0
 11
51.09999999999996
 21
24.99999999999975
 31
0.0
  0
LINE
  5
4A91
  8
240
  6
CONTINUOUS
 10
36.39999999999869
 20
25.3500000000008
 30
0.0
 11
36.75000000000056
 21
24.99999999999964
 31
0.0
  0
LINE
  5
4A92
  8
240
  6
CONTINUOUS
 10
51.3499999999999
 20
24.7499999999998
 30
0.0
 11
51.09999999999996
 21
24.99999999999975
 31
0.0
  0
LINE
  5
4A93
  8
240
  6
CONTINUOUS
 10
51.3499999999999
 20
24.7499999999998
 30
0.0
 11
61.10000000000008
 21
24.74999999999964
 31
0.0
  0
LINE
  5
4A94
  8
241
  6
CONTINUOUS
 10
54.09999999999985
 20
24.74999999999974
 30
0.0
 11
54.09999999999989
 21
14.42743041731811
 31
0.0
  0
LINE
  5
4A95
  8
241
  6
CONTINUOUS
 10
54.49999999999985
 20
14.47117358322183
 30
0.0
 11
60.50000000000007
 21
14.47117358322183
 31
0.0
  0
LINE
  5
4A96
  8
241
  6
CONTINUOUS
 10
61.1000000000001
 20
24.74999999999965
 30
0.0
 11
61.09999999999996
 21
14.4274304173201
 31
0.0
  0
LINE
  5
4A97
  8
240
  6
CONTINUOUS
 10
62.96602540378954
 20
24.24999999999935
 30
0.0
 11
61.10000000000008
 21
24.74999999999964
 31
0.0
  0
POLYLINE
  5
4A98
  8
241
  6
CONTINUOUS
 10
0.0
 20
0.0
 30
0.0
 66
     1
 70
     8
  0
VERTEX
  5
4A99
  8
241
 10
52.09480000000225
 20
11.71560000000002
 30
0.0
 70
    32
  0
VERTEX
  5
4A9A
  8
241
 10
52.10180000000226
 20
11.73660000000001
 30
0.0
 70
    32
  0
VERTEX
  5
4A9B
  8
241
 10
52.10910000000226
 20
11.75760000000002
 30
0.0
 70
    32
  0
VERTEX
  5
4A9C
  8
241
 10
52.11660000000226
 20
11.77850000000002
 30
0.0
 70
    32
  0
VERTEX
  5
4A9D
  8
241
 10
52.12430000000226
 20
11.79930000000002
 30
0.0
 70
    32
  0
VERTEX
  5
4A9E
  8
241
 10
52.13230000000225
 20
11.82010000000001
 30
0.0
 70
    32
  0
VERTEX
  5
4A9F
  8
241
 10
52.14060000000227
 20
11.84080000000002
 30
0.0
 70
    32
  0
VERTEX
  5
4AA0
  8
241
 10
52.14910000000227
 20
11.86140000000001
 30
0.0
 70
    32
  0
VERTEX
  5
4AA1
  8
241
 10
52.15780000000226
 20
11.88200000000001
 30
0.0
 70
    32
  0
VERTEX
  5
4AA2
  8
241
 10
52.16670000000227
 20
11.90240000000001
 30
0.0
 70
    32
  0
VERTEX
  5
4AA3
  8
241
 10
52.17590000000226
 20
11.92280000000002
 30
0.0
 70
    32
  0
VERTEX
  5
4AA4
  8
241
 10
52.18540000000226
 20
11.94320000000002
 30
0.0
 70
    32
  0
VERTEX
  5
4AA5
  8
241
 10
52.19500000000226
 20
11.96340000000001
 30
0.0
 70
    32
  0
VERTEX
  5
4AA6
  8
241
 10
52.20500000000226
 20
11.98350000000002
 30
0.0
 70
    32
  0
VERTEX
  5
4AA7
  8
241
 10
52.21510000000225
 20
12.00360000000002
 30
0.0
 70
    32
  0
VERTEX
  5
4AA8
  8
241
 10
52.22550000000226
 20
12.02360000000002
 30
0.0
 70
    32
  0
VERTEX
  5
4AA9
  8
241
 10
52.23610000000226
 20
12.04340000000002
 30
0.0
 70
    32
  0
VERTEX
  5
4AAA
  8
241
 10
52.24690000000226
 20
12.06320000000002
 30
0.0
 70
    32
  0
VERTEX
  5
4AAB
  8
241
 10
52.25800000000226
 20
12.08290000000002
 30
0.0
 70
    32
  0
VERTEX
  5
4AAC
  8
241
 10
52.26930000000225
 20
12.10250000000002
 30
0.0
 70
    32
  0
VERTEX
  5
4AAD
  8
241
 10
52.28080000000226
 20
12.12200000000002
 30
0.0
 70
    32
  0
VERTEX
  5
4AAE
  8
241
 10
52.29260000000226
 20
12.14140000000002
 30
0.0
 70
    32
  0
VERTEX
  5
4AAF
  8
241
 10
52.30460000000226
 20
12.16060000000002
 30
0.0
 70
    32
  0
VERTEX
  5
4AB0
  8
241
 10
52.31680000000226
 20
12.17980000000002
 30
0.0
 70
    32
  0
VERTEX
  5
4AB1
  8
241
 10
52.32920000000226
 20
12.19890000000002
 30
0.0
 70
    32
  0
VERTEX
  5
4AB2
  8
241
 10
52.34190000000226
 20
12.21780000000002
 30
0.0
 70
    32
  0
VERTEX
  5
4AB3
  8
241
 10
52.35470000000225
 20
12.23670000000002
 30
0.0
 70
    32
  0
VERTEX
  5
4AB4
  8
241
 10
52.36780000000226
 20
12.25540000000002
 30
0.0
 70
    32
  0
VERTEX
  5
4AB5
  8
241
 10
52.38110000000226
 20
12.27400000000002
 30
0.0
 70
    32
  0
VERTEX
  5
4AB6
  8
241
 10
52.39470000000226
 20
12.29250000000002
 30
0.0
 70
    32
  0
VERTEX
  5
4AB7
  8
241
 10
52.40840000000225
 20
12.31090000000002
 30
0.0
 70
    32
  0
VERTEX
  5
4AB8
  8
241
 10
52.42240000000226
 20
12.32920000000002
 30
0.0
 70
    32
  0
VERTEX
  5
4AB9
  8
241
 10
52.43650000000226
 20
12.34730000000002
 30
0.0
 70
    32
  0
VERTEX
  5
4ABA
  8
241
 10
52.45090000000226
 20
12.36530000000002
 30
0.0
 70
    32
  0
VERTEX
  5
4ABB
  8
241
 10
52.46550000000226
 20
12.38320000000002
 30
0.0
 70
    32
  0
VERTEX
  5
4ABC
  8
241
 10
52.48030000000227
 20
12.40100000000001
 30
0.0
 70
    32
  0
VERTEX
  5
4ABD
  8
241
 10
52.49530000000226
 20
12.41860000000001
 30
0.0
 70
    32
  0
VERTEX
  5
4ABE
  8
241
 10
52.51050000000225
 20
12.43610000000002
 30
0.0
 70
    32
  0
VERTEX
  5
4ABF
  8
241
 10
52.52590000000226
 20
12.45340000000002
 30
0.0
 70
    32
  0
VERTEX
  5
4AC0
  8
241
 10
52.54150000000226
 20
12.47070000000002
 30
0.0
 70
    32
  0
VERTEX
  5
4AC1
  8
241
 10
52.55730000000227
 20
12.48770000000002
 30
0.0
 70
    32
  0
VERTEX
  5
4AC2
  8
241
 10
52.57340000000225
 20
12.50470000000001
 30
0.0
 70
    32
  0
VERTEX
  5
4AC3
  8
241
 10
52.58960000000226
 20
12.52150000000002
 30
0.0
 70
    32
  0
VERTEX
  5
4AC4
  8
241
 10
52.60600000000226
 20
12.53810000000002
 30
0.0
 70
    32
  0
VERTEX
  5
4AC5
  8
241
 10
52.62260000000226
 20
12.55470000000002
 30
0.0
 70
    32
  0
VERTEX
  5
4AC6
  8
241
 10
52.63940000000226
 20
12.57100000000002
 30
0.0
 70
    32
  0
VERTEX
  5
4AC7
  8
241
 10
52.65630000000226
 20
12.58730000000002
 30
0.0
 70
    32
  0
VERTEX
  5
4AC8
  8
241
 10
52.67350000000226
 20
12.60330000000002
 30
0.0
 70
    32
  0
VERTEX
  5
4AC9
  8
241
 10
52.69090000000226
 20
12.61920000000001
 30
0.0
 70
    32
  0
VERTEX
  5
4ACA
  8
241
 10
52.70840000000227
 20
12.63500000000002
 30
0.0
 70
    32
  0
VERTEX
  5
4ACB
  8
241
 10
52.72610000000226
 20
12.65060000000002
 30
0.0
 70
    32
  0
VERTEX
  5
4ACC
  8
241
 10
52.74400000000227
 20
12.66610000000002
 30
0.0
 70
    32
  0
VERTEX
  5
4ACD
  8
241
 10
52.76210000000226
 20
12.68140000000002
 30
0.0
 70
    32
  0
VERTEX
  5
4ACE
  8
241
 10
52.78040000000226
 20
12.69650000000002
 30
0.0
 70
    32
  0
VERTEX
  5
4ACF
  8
241
 10
52.79880000000225
 20
12.71150000000002
 30
0.0
 70
    32
  0
VERTEX
  5
4AD0
  8
241
 10
52.81740000000226
 20
12.72630000000002
 30
0.0
 70
    32
  0
VERTEX
  5
4AD1
  8
241
 10
52.83620000000226
 20
12.74100000000002
 30
0.0
 70
    32
  0
VERTEX
  5
4AD2
  8
241
 10
52.85520000000226
 20
12.75550000000001
 30
0.0
 70
    32
  0
VERTEX
  5
4AD3
  8
241
 10
52.87430000000227
 20
12.76980000000002
 30
0.0
 70
    32
  0
VERTEX
  5
4AD4
  8
241
 10
52.89360000000226
 20
12.78400000000002
 30
0.0
 70
    32
  0
VERTEX
  5
4AD5
  8
241
 10
52.91310000000225
 20
12.79790000000002
 30
0.0
 70
    32
  0
VERTEX
  5
4AD6
  8
241
 10
52.93270000000227
 20
12.81170000000002
 30
0.0
 70
    32
  0
VERTEX
  5
4AD7
  8
241
 10
52.95250000000225
 20
12.82540000000002
 30
0.0
 70
    32
  0
VERTEX
  5
4AD8
  8
241
 10
52.97240000000225
 20
12.83890000000002
 30
0.0
 70
    32
  0
VERTEX
  5
4AD9
  8
241
 10
52.99250000000227
 20
12.85210000000002
 30
0.0
 70
    32
  0
VERTEX
  5
4ADA
  8
241
 10
53.01270000000226
 20
12.86530000000001
 30
0.0
 70
    32
  0
VERTEX
  5
4ADB
  8
241
 10
53.03310000000227
 20
12.87820000000001
 30
0.0
 70
    32
  0
VERTEX
  5
4ADC
  8
241
 10
53.05370000000227
 20
12.89100000000002
 30
0.0
 70
    32
  0
VERTEX
  5
4ADD
  8
241
 10
53.07440000000227
 20
12.90350000000002
 30
0.0
 70
    32
  0
VERTEX
  5
4ADE
  8
241
 10
53.09520000000226
 20
12.91590000000002
 30
0.0
 70
    32
  0
VERTEX
  5
4ADF
  8
241
 10
53.11620000000226
 20
12.92810000000002
 30
0.0
 70
    32
  0
VERTEX
  5
4AE0
  8
241
 10
53.13730000000226
 20
12.94020000000002
 30
0.0
 70
    32
  0
VERTEX
  5
4AE1
  8
241
 10
53.15860000000227
 20
12.95200000000002
 30
0.0
 70
    32
  0
VERTEX
  5
4AE2
  8
241
 10
53.18000000000225
 20
12.96370000000002
 30
0.0
 70
    32
  0
VERTEX
  5
4AE3
  8
241
 10
53.20150000000226
 20
12.97510000000001
 30
0.0
 70
    32
  0
VERTEX
  5
4AE4
  8
241
 10
53.22320000000226
 20
12.98640000000002
 30
0.0
 70
    32
  0
VERTEX
  5
4AE5
  8
241
 10
53.24500000000226
 20
12.99750000000002
 30
0.0
 70
    32
  0
VERTEX
  5
4AE6
  8
241
 10
53.26690000000225
 20
13.00840000000001
 30
0.0
 70
    32
  0
VERTEX
  5
4AE7
  8
241
 10
53.28900000000226
 20
13.01910000000002
 30
0.0
 70
    32
  0
VERTEX
  5
4AE8
  8
241
 10
53.31120000000225
 20
13.02960000000002
 30
0.0
 70
    32
  0
VERTEX
  5
4AE9
  8
241
 10
53.33350000000225
 20
13.03990000000001
 30
0.0
 70
    32
  0
VERTEX
  5
4AEA
  8
241
 10
53.35590000000227
 20
13.05000000000002
 30
0.0
 70
    32
  0
VERTEX
  5
4AEB
  8
241
 10
53.37840000000227
 20
13.06000000000002
 30
0.0
 70
    32
  0
VERTEX
  5
4AEC
  8
241
 10
53.40110000000225
 20
13.06970000000001
 30
0.0
 70
    32
  0
VERTEX
  5
4AED
  8
241
 10
53.42390000000226
 20
13.07920000000002
 30
0.0
 70
    32
  0
VERTEX
  5
4AEE
  8
241
 10
53.44670000000227
 20
13.08850000000002
 30
0.0
 70
    32
  0
VERTEX
  5
4AEF
  8
241
 10
53.46970000000226
 20
13.09770000000002
 30
0.0
 70
    32
  0
VERTEX
  5
4AF0
  8
241
 10
53.49280000000226
 20
13.10660000000002
 30
0.0
 70
    32
  0
VERTEX
  5
4AF1
  8
241
 10
53.51600000000226
 20
13.11530000000002
 30
0.0
 70
    32
  0
VERTEX
  5
4AF2
  8
241
 10
53.53930000000226
 20
13.12380000000002
 30
0.0
 70
    32
  0
VERTEX
  5
4AF3
  8
241
 10
53.56270000000225
 20
13.13210000000001
 30
0.0
 70
    32
  0
VERTEX
  5
4AF4
  8
241
 10
53.58620000000226
 20
13.14020000000002
 30
0.0
 70
    32
  0
VERTEX
  5
4AF5
  8
241
 10
53.60980000000227
 20
13.14810000000002
 30
0.0
 70
    32
  0
VERTEX
  5
4AF6
  8
241
 10
53.63340000000226
 20
13.15580000000001
 30
0.0
 70
    32
  0
VERTEX
  5
4AF7
  8
241
 10
53.65720000000226
 20
13.16330000000001
 30
0.0
 70
    32
  0
VERTEX
  5
4AF8
  8
241
 10
53.68100000000226
 20
13.17060000000002
 30
0.0
 70
    32
  0
VERTEX
  5
4AF9
  8
241
 10
53.70500000000227
 20
13.17770000000002
 30
0.0
 70
    32
  0
VERTEX
  5
4AFA
  8
241
 10
53.72900000000226
 20
13.18450000000002
 30
0.0
 70
    32
  0
VERTEX
  5
4AFB
  8
241
 10
53.75310000000226
 20
13.19120000000002
 30
0.0
 70
    32
  0
VERTEX
  5
4AFC
  8
241
 10
53.77720000000226
 20
13.19760000000002
 30
0.0
 70
    32
  0
VERTEX
  5
4AFD
  8
241
 10
53.80150000000226
 20
13.20380000000002
 30
0.0
 70
    32
  0
VERTEX
  5
4AFE
  8
241
 10
53.82580000000226
 20
13.20980000000002
 30
0.0
 70
    32
  0
VERTEX
  5
4AFF
  8
241
 10
53.85020000000226
 20
13.21560000000002
 30
0.0
 70
    32
  0
VERTEX
  5
4B00
  8
241
 10
53.87460000000226
 20
13.22120000000001
 30
0.0
 70
    32
  0
VERTEX
  5
4B01
  8
241
 10
53.89910000000226
 20
13.22660000000001
 30
0.0
 70
    32
  0
VERTEX
  5
4B02
  8
241
 10
53.92370000000227
 20
13.23180000000002
 30
0.0
 70
    32
  0
VERTEX
  5
4B03
  8
241
 10
53.94830000000226
 20
13.23670000000002
 30
0.0
 70
    32
  0
VERTEX
  5
4B04
  8
241
 10
53.97300000000226
 20
13.24140000000002
 30
0.0
 70
    32
  0
VERTEX
  5
4B05
  8
241
 10
53.99780000000227
 20
13.24590000000002
 30
0.0
 70
    32
  0
VERTEX
  5
4B06
  8
241
 10
54.02260000000226
 20
13.25020000000002
 30
0.0
 70
    32
  0
VERTEX
  5
4B07
  8
241
 10
54.04740000000226
 20
13.25430000000002
 30
0.0
 70
    32
  0
VERTEX
  5
4B08
  8
241
 10
54.07230000000226
 20
13.25810000000002
 30
0.0
 70
    32
  0
VERTEX
  5
4B09
  8
241
 10
54.09720000000226
 20
13.26180000000001
 30
0.0
 70
    32
  0
VERTEX
  5
4B0A
  8
241
 10
54.12220000000225
 20
13.26520000000002
 30
0.0
 70
    32
  0
VERTEX
  5
4B0B
  8
241
 10
54.14720000000226
 20
13.26840000000002
 30
0.0
 70
    32
  0
VERTEX
  5
4B0C
  8
241
 10
54.17230000000227
 20
13.27140000000001
 30
0.0
 70
    32
  0
VERTEX
  5
4B0D
  8
241
 10
54.19730000000226
 20
13.27410000000002
 30
0.0
 70
    32
  0
VERTEX
  5
4B0E
  8
241
 10
54.22250000000226
 20
13.27670000000002
 30
0.0
 70
    32
  0
VERTEX
  5
4B0F
  8
241
 10
54.24760000000226
 20
13.27900000000002
 30
0.0
 70
    32
  0
VERTEX
  5
4B10
  8
241
 10
54.27280000000227
 20
13.28110000000002
 30
0.0
 70
    32
  0
VERTEX
  5
4B11
  8
241
 10
54.29800000000226
 20
13.28300000000002
 30
0.0
 70
    32
  0
VERTEX
  5
4B12
  8
241
 10
54.32320000000227
 20
13.28460000000001
 30
0.0
 70
    32
  0
VERTEX
  5
4B13
  8
241
 10
54.34840000000226
 20
13.28610000000002
 30
0.0
 70
    32
  0
VERTEX
  5
4B14
  8
241
 10
54.37360000000226
 20
13.28730000000002
 30
0.0
 70
    32
  0
VERTEX
  5
4B15
  8
241
 10
54.39890000000226
 20
13.28830000000001
 30
0.0
 70
    32
  0
VERTEX
  5
4B16
  8
241
 10
54.42420000000226
 20
13.28910000000002
 30
0.0
 70
    32
  0
VERTEX
  5
4B17
  8
241
 10
54.44940000000226
 20
13.28960000000002
 30
0.0
 70
    32
  0
VERTEX
  5
4B18
  8
241
 10
54.47470000000226
 20
13.29000000000001
 30
0.0
 70
    32
  0
VERTEX
  5
4B19
  8
241
 10
54.50000000000225
 20
13.29010000000002
 30
0.0
 70
    32
  0
SEQEND
  5
4B1A
  8
241
  0
POLYLINE
  5
4B1B
  8
241
  6
CONTINUOUS
 10
0.0
 20
0.0
 30
0.0
 66
     1
 70
     8
  0
VERTEX
  5
4B1C
  8
241
 10
60.50000000000226
 20
13.29010000000002
 30
0.0
 70
    32
  0
VERTEX
  5
4B1D
  8
241
 10
60.52530000000226
 20
13.29000000000001
 30
0.0
 70
    32
  0
VERTEX
  5
4B1E
  8
241
 10
60.55060000000226
 20
13.28960000000002
 30
0.0
 70
    32
  0
VERTEX
  5
4B1F
  8
241
 10
60.57580000000226
 20
13.28910000000002
 30
0.0
 70
    32
  0
VERTEX
  5
4B20
  8
241
 10
60.60110000000226
 20
13.28830000000001
 30
0.0
 70
    32
  0
VERTEX
  5
4B21
  8
241
 10
60.62640000000226
 20
13.28730000000002
 30
0.0
 70
    32
  0
VERTEX
  5
4B22
  8
241
 10
60.65160000000226
 20
13.28610000000002
 30
0.0
 70
    32
  0
VERTEX
  5
4B23
  8
241
 10
60.67680000000225
 20
13.28460000000001
 30
0.0
 70
    32
  0
VERTEX
  5
4B24
  8
241
 10
60.70200000000227
 20
13.28300000000002
 30
0.0
 70
    32
  0
VERTEX
  5
4B25
  8
241
 10
60.72720000000226
 20
13.28110000000002
 30
0.0
 70
    32
  0
VERTEX
  5
4B26
  8
241
 10
60.75240000000226
 20
13.27900000000002
 30
0.0
 70
    32
  0
VERTEX
  5
4B27
  8
241
 10
60.77750000000226
 20
13.27670000000002
 30
0.0
 70
    32
  0
VERTEX
  5
4B28
  8
241
 10
60.80270000000226
 20
13.27410000000002
 30
0.0
 70
    32
  0
VERTEX
  5
4B29
  8
241
 10
60.82770000000226
 20
13.27140000000001
 30
0.0
 70
    32
  0
VERTEX
  5
4B2A
  8
241
 10
60.85280000000226
 20
13.26840000000002
 30
0.0
 70
    32
  0
VERTEX
  5
4B2B
  8
241
 10
60.87780000000226
 20
13.26520000000002
 30
0.0
 70
    32
  0
VERTEX
  5
4B2C
  8
241
 10
60.90280000000227
 20
13.26180000000001
 30
0.0
 70
    32
  0
VERTEX
  5
4B2D
  8
241
 10
60.92770000000226
 20
13.25810000000002
 30
0.0
 70
    32
  0
VERTEX
  5
4B2E
  8
241
 10
60.95260000000227
 20
13.25430000000002
 30
0.0
 70
    32
  0
VERTEX
  5
4B2F
  8
241
 10
60.97740000000226
 20
13.25020000000002
 30
0.0
 70
    32
  0
VERTEX
  5
4B30
  8
241
 10
61.00220000000226
 20
13.24590000000002
 30
0.0
 70
    32
  0
VERTEX
  5
4B31
  8
241
 10
61.02700000000226
 20
13.24140000000002
 30
0.0
 70
    32
  0
VERTEX
  5
4B32
  8
241
 10
61.05170000000226
 20
13.23670000000002
 30
0.0
 70
    32
  0
VERTEX
  5
4B33
  8
241
 10
61.07630000000226
 20
13.23180000000002
 30
0.0
 70
    32
  0
VERTEX
  5
4B34
  8
241
 10
61.10090000000226
 20
13.22660000000001
 30
0.0
 70
    32
  0
VERTEX
  5
4B35
  8
241
 10
61.12540000000226
 20
13.22120000000001
 30
0.0
 70
    32
  0
VERTEX
  5
4B36
  8
241
 10
61.14980000000226
 20
13.21560000000002
 30
0.0
 70
    32
  0
VERTEX
  5
4B37
  8
241
 10
61.17420000000226
 20
13.20980000000002
 30
0.0
 70
    32
  0
VERTEX
  5
4B38
  8
241
 10
61.19850000000226
 20
13.20380000000002
 30
0.0
 70
    32
  0
VERTEX
  5
4B39
  8
241
 10
61.22280000000227
 20
13.19760000000002
 30
0.0
 70
    32
  0
VERTEX
  5
4B3A
  8
241
 10
61.24690000000226
 20
13.19120000000002
 30
0.0
 70
    32
  0
VERTEX
  5
4B3B
  8
241
 10
61.27100000000226
 20
13.18450000000002
 30
0.0
 70
    32
  0
VERTEX
  5
4B3C
  8
241
 10
61.29500000000226
 20
13.17770000000002
 30
0.0
 70
    32
  0
VERTEX
  5
4B3D
  8
241
 10
61.31900000000226
 20
13.17060000000002
 30
0.0
 70
    32
  0
VERTEX
  5
4B3E
  8
241
 10
61.34280000000226
 20
13.16330000000001
 30
0.0
 70
    32
  0
VERTEX
  5
4B3F
  8
241
 10
61.36660000000226
 20
13.15580000000001
 30
0.0
 70
    32
  0
VERTEX
  5
4B40
  8
241
 10
61.39020000000225
 20
13.14810000000002
 30
0.0
 70
    32
  0
VERTEX
  5
4B41
  8
241
 10
61.41380000000226
 20
13.14020000000002
 30
0.0
 70
    32
  0
VERTEX
  5
4B42
  8
241
 10
61.43730000000226
 20
13.13210000000001
 30
0.0
 70
    32
  0
VERTEX
  5
4B43
  8
241
 10
61.46070000000226
 20
13.12380000000002
 30
0.0
 70
    32
  0
VERTEX
  5
4B44
  8
241
 10
61.48400000000226
 20
13.11530000000002
 30
0.0
 70
    32
  0
VERTEX
  5
4B45
  8
241
 10
61.50720000000227
 20
13.10660000000002
 30
0.0
 70
    32
  0
VERTEX
  5
4B46
  8
241
 10
61.53030000000226
 20
13.09770000000002
 30
0.0
 70
    32
  0
VERTEX
  5
4B47
  8
241
 10
61.55330000000225
 20
13.08850000000002
 30
0.0
 70
    32
  0
VERTEX
  5
4B48
  8
241
 10
61.57610000000226
 20
13.07920000000002
 30
0.0
 70
    32
  0
VERTEX
  5
4B49
  8
241
 10
61.59890000000226
 20
13.06970000000001
 30
0.0
 70
    32
  0
VERTEX
  5
4B4A
  8
241
 10
61.62160000000226
 20
13.06000000000002
 30
0.0
 70
    32
  0
VERTEX
  5
4B4B
  8
241
 10
61.64410000000226
 20
13.05000000000002
 30
0.0
 70
    32
  0
VERTEX
  5
4B4C
  8
241
 10
61.66650000000228
 20
13.03990000000001
 30
0.0
 70
    32
  0
VERTEX
  5
4B4D
  8
241
 10
61.68880000000226
 20
13.02960000000002
 30
0.0
 70
    32
  0
VERTEX
  5
4B4E
  8
241
 10
61.71100000000226
 20
13.01910000000002
 30
0.0
 70
    32
  0
VERTEX
  5
4B4F
  8
241
 10
61.73310000000226
 20
13.00840000000001
 30
0.0
 70
    32
  0
VERTEX
  5
4B50
  8
241
 10
61.75500000000226
 20
12.99750000000002
 30
0.0
 70
    32
  0
VERTEX
  5
4B51
  8
241
 10
61.77680000000226
 20
12.98640000000002
 30
0.0
 70
    32
  0
VERTEX
  5
4B52
  8
241
 10
61.79850000000226
 20
12.97510000000001
 30
0.0
 70
    32
  0
VERTEX
  5
4B53
  8
241
 10
61.82000000000225
 20
12.96370000000002
 30
0.0
 70
    32
  0
VERTEX
  5
4B54
  8
241
 10
61.84140000000225
 20
12.95200000000002
 30
0.0
 70
    32
  0
VERTEX
  5
4B55
  8
241
 10
61.86270000000226
 20
12.94020000000002
 30
0.0
 70
    32
  0
VERTEX
  5
4B56
  8
241
 10
61.88380000000226
 20
12.92810000000002
 30
0.0
 70
    32
  0
VERTEX
  5
4B57
  8
241
 10
61.90480000000226
 20
12.91590000000002
 30
0.0
 70
    32
  0
VERTEX
  5
4B58
  8
241
 10
61.92560000000226
 20
12.90350000000002
 30
0.0
 70
    32
  0
VERTEX
  5
4B59
  8
241
 10
61.94630000000226
 20
12.89100000000002
 30
0.0
 70
    32
  0
VERTEX
  5
4B5A
  8
241
 10
61.96690000000226
 20
12.87820000000001
 30
0.0
 70
    32
  0
VERTEX
  5
4B5B
  8
241
 10
61.98730000000226
 20
12.86530000000001
 30
0.0
 70
    32
  0
VERTEX
  5
4B5C
  8
241
 10
62.00750000000225
 20
12.85210000000002
 30
0.0
 70
    32
  0
VERTEX
  5
4B5D
  8
241
 10
62.02760000000225
 20
12.83890000000002
 30
0.0
 70
    32
  0
VERTEX
  5
4B5E
  8
241
 10
62.04750000000227
 20
12.82540000000002
 30
0.0
 70
    32
  0
VERTEX
  5
4B5F
  8
241
 10
62.06730000000226
 20
12.81170000000002
 30
0.0
 70
    32
  0
VERTEX
  5
4B60
  8
241
 10
62.08690000000226
 20
12.79790000000002
 30
0.0
 70
    32
  0
VERTEX
  5
4B61
  8
241
 10
62.10640000000226
 20
12.78400000000002
 30
0.0
 70
    32
  0
VERTEX
  5
4B62
  8
241
 10
62.12570000000225
 20
12.76980000000002
 30
0.0
 70
    32
  0
VERTEX
  5
4B63
  8
241
 10
62.14480000000226
 20
12.75550000000001
 30
0.0
 70
    32
  0
VERTEX
  5
4B64
  8
241
 10
62.16380000000226
 20
12.74100000000002
 30
0.0
 70
    32
  0
VERTEX
  5
4B65
  8
241
 10
62.18260000000226
 20
12.72630000000002
 30
0.0
 70
    32
  0
VERTEX
  5
4B66
  8
241
 10
62.20120000000226
 20
12.71150000000002
 30
0.0
 70
    32
  0
VERTEX
  5
4B67
  8
241
 10
62.21960000000225
 20
12.69650000000002
 30
0.0
 70
    32
  0
VERTEX
  5
4B68
  8
241
 10
62.23790000000226
 20
12.68140000000002
 30
0.0
 70
    32
  0
VERTEX
  5
4B69
  8
241
 10
62.25600000000226
 20
12.66610000000002
 30
0.0
 70
    32
  0
VERTEX
  5
4B6A
  8
241
 10
62.27390000000227
 20
12.65060000000002
 30
0.0
 70
    32
  0
VERTEX
  5
4B6B
  8
241
 10
62.29160000000226
 20
12.63500000000002
 30
0.0
 70
    32
  0
VERTEX
  5
4B6C
  8
241
 10
62.30910000000226
 20
12.61920000000001
 30
0.0
 70
    32
  0
VERTEX
  5
4B6D
  8
241
 10
62.32650000000226
 20
12.60330000000002
 30
0.0
 70
    32
  0
VERTEX
  5
4B6E
  8
241
 10
62.34370000000226
 20
12.58730000000002
 30
0.0
 70
    32
  0
VERTEX
  5
4B6F
  8
241
 10
62.36060000000226
 20
12.57100000000002
 30
0.0
 70
    32
  0
VERTEX
  5
4B70
  8
241
 10
62.37740000000226
 20
12.55470000000002
 30
0.0
 70
    32
  0
VERTEX
  5
4B71
  8
241
 10
62.39400000000227
 20
12.53810000000002
 30
0.0
 70
    32
  0
VERTEX
  5
4B72
  8
241
 10
62.41040000000226
 20
12.52150000000002
 30
0.0
 70
    32
  0
VERTEX
  5
4B73
  8
241
 10
62.42660000000226
 20
12.50470000000001
 30
0.0
 70
    32
  0
VERTEX
  5
4B74
  8
241
 10
62.44270000000226
 20
12.48770000000002
 30
0.0
 70
    32
  0
VERTEX
  5
4B75
  8
241
 10
62.45850000000226
 20
12.47070000000002
 30
0.0
 70
    32
  0
VERTEX
  5
4B76
  8
241
 10
62.47410000000225
 20
12.45340000000002
 30
0.0
 70
    32
  0
VERTEX
  5
4B77
  8
241
 10
62.48950000000227
 20
12.43610000000002
 30
0.0
 70
    32
  0
VERTEX
  5
4B78
  8
241
 10
62.50470000000227
 20
12.41860000000001
 30
0.0
 70
    32
  0
VERTEX
  5
4B79
  8
241
 10
62.51970000000226
 20
12.40100000000001
 30
0.0
 70
    32
  0
VERTEX
  5
4B7A
  8
241
 10
62.53450000000226
 20
12.38320000000002
 30
0.0
 70
    32
  0
VERTEX
  5
4B7B
  8
241
 10
62.54910000000226
 20
12.36530000000002
 30
0.0
 70
    32
  0
VERTEX
  5
4B7C
  8
241
 10
62.56350000000226
 20
12.34730000000002
 30
0.0
 70
    32
  0
VERTEX
  5
4B7D
  8
241
 10
62.57760000000226
 20
12.32920000000002
 30
0.0
 70
    32
  0
VERTEX
  5
4B7E
  8
241
 10
62.59160000000225
 20
12.31090000000002
 30
0.0
 70
    32
  0
VERTEX
  5
4B7F
  8
241
 10
62.60530000000225
 20
12.29250000000002
 30
0.0
 70
    32
  0
VERTEX
  5
4B80
  8
241
 10
62.61890000000226
 20
12.27400000000002
 30
0.0
 70
    32
  0
VERTEX
  5
4B81
  8
241
 10
62.63220000000226
 20
12.25540000000002
 30
0.0
 70
    32
  0
VERTEX
  5
4B82
  8
241
 10
62.64530000000227
 20
12.23670000000002
 30
0.0
 70
    32
  0
VERTEX
  5
4B83
  8
241
 10
62.65810000000226
 20
12.21780000000002
 30
0.0
 70
    32
  0
VERTEX
  5
4B84
  8
241
 10
62.67080000000227
 20
12.19890000000002
 30
0.0
 70
    32
  0
VERTEX
  5
4B85
  8
241
 10
62.68320000000225
 20
12.17980000000002
 30
0.0
 70
    32
  0
VERTEX
  5
4B86
  8
241
 10
62.69540000000225
 20
12.16060000000002
 30
0.0
 70
    32
  0
VERTEX
  5
4B87
  8
241
 10
62.70740000000227
 20
12.14140000000002
 30
0.0
 70
    32
  0
VERTEX
  5
4B88
  8
241
 10
62.71920000000226
 20
12.12200000000002
 30
0.0
 70
    32
  0
VERTEX
  5
4B89
  8
241
 10
62.73070000000227
 20
12.10250000000002
 30
0.0
 70
    32
  0
VERTEX
  5
4B8A
  8
241
 10
62.74200000000226
 20
12.08290000000002
 30
0.0
 70
    32
  0
VERTEX
  5
4B8B
  8
241
 10
62.75310000000226
 20
12.06320000000002
 30
0.0
 70
    32
  0
VERTEX
  5
4B8C
  8
241
 10
62.76390000000225
 20
12.04340000000002
 30
0.0
 70
    32
  0
VERTEX
  5
4B8D
  8
241
 10
62.77450000000226
 20
12.02360000000002
 30
0.0
 70
    32
  0
VERTEX
  5
4B8E
  8
241
 10
62.78490000000226
 20
12.00360000000002
 30
0.0
 70
    32
  0
VERTEX
  5
4B8F
  8
241
 10
62.79500000000226
 20
11.98350000000002
 30
0.0
 70
    32
  0
VERTEX
  5
4B90
  8
241
 10
62.80500000000227
 20
11.96340000000001
 30
0.0
 70
    32
  0
VERTEX
  5
4B91
  8
241
 10
62.81460000000226
 20
11.94320000000002
 30
0.0
 70
    32
  0
VERTEX
  5
4B92
  8
241
 10
62.82410000000226
 20
11.92280000000002
 30
0.0
 70
    32
  0
VERTEX
  5
4B93
  8
241
 10
62.83330000000225
 20
11.90240000000001
 30
0.0
 70
    32
  0
VERTEX
  5
4B94
  8
241
 10
62.84220000000226
 20
11.88200000000001
 30
0.0
 70
    32
  0
VERTEX
  5
4B95
  8
241
 10
62.85090000000226
 20
11.86140000000001
 30
0.0
 70
    32
  0
VERTEX
  5
4B96
  8
241
 10
62.85940000000226
 20
11.84080000000002
 30
0.0
 70
    32
  0
VERTEX
  5
4B97
  8
241
 10
62.86770000000228
 20
11.82010000000001
 30
0.0
 70
    32
  0
VERTEX
  5
4B98
  8
241
 10
62.87570000000226
 20
11.79930000000002
 30
0.0
 70
    32
  0
VERTEX
  5
4B99
  8
241
 10
62.88340000000226
 20
11.77850000000002
 30
0.0
 70
    32
  0
VERTEX
  5
4B9A
  8
241
 10
62.89090000000226
 20
11.75760000000002
 30
0.0
 70
    32
  0
VERTEX
  5
4B9B
  8
241
 10
62.89820000000226
 20
11.73660000000001
 30
0.0
 70
    32
  0
VERTEX
  5
4B9C
  8
241
 10
62.90520000000226
 20
11.71560000000002
 30
0.0
 70
    32
  0
SEQEND
  5
4B9D
  8
241
  0
LINE
  5
4B9E
  8
241
  6
CONTINUOUS
 10
54.49999999999985
 20
13.29006350946085
 30
0.0
 11
60.50000000000007
 21
13.29006350946085
 31
0.0
  0
LINE
  5
4B9F
  8
240
  6
CONTINUOUS
 10
75.70000000000014
 20
20.78867513459476
 30
0.0
 11
71.00132076354876
 21
23.5014588565956
 31
0.0
  0
ARC
  5
4BA0
  8
240
  6
CONTINUOUS
 10
69.50132076354882
 20
20.90338264524227
 30
0.0
 40
3.0
 50
60.0000000000007
 51
87.0000000000042
1001
ASK_MEN_XD
1005
4765
1070
     1
1005
4983
1070
     1
  0
ARC
  5
4BA1
  8
240
  6
CONTINUOUS
 10
75.20000000000014
 20
19.92264973081029
 30
0.0
 40
1.0
 50
0.0
 51
60.0000000000007
1001
ASK_MEN_XD
1005
0
1070
     1
1005
0
1070
     1
  0
LINE
  5
4BA2
  8
243
  6
HIDDEN2
 10
12.06602540378224
 20
-9.525000000000086
 30
0.0
 11
76.19999999999793
 21
-9.524999999999906
 31
0.0
1001
GRPNAME
1000
PASTMD1D
  0
LINE
  5
4BA3
  8
241
  6
CONTINUOUS
 10
54.4999999999998
 20
10.14104656429966
 30
0.0
 11
60.50000000000004
 21
10.14104656429968
 31
0.0
  0
LINE
  5
4BA4
  8
241
  6
CONTINUOUS
 10
32.40000000000268
 20
-22.89999999999984
 30
0.0
 11
32.400000000002
 21
22.89999999999988
 31
0.0
  0
LINE
  5
4BA5
  8
240
  6
CONTINUOUS
 10
32.400000000002
 20
22.89999999999986
 30
0.0
 11
32.40000000000274
 21
25.34999999999845
 31
0.0
  0
LINE
  5
4BA6
  8
240
  6
CONTINUOUS
 10
32.40000000000268
 20
-22.89999999999965
 30
0.0
 11
32.40000000000268
 21
-25.34999999999843
 31
0.0
  0
TEXT
  5
4BA7
  8
241
  6
CONTINUOUS
 10
-48.39999999999999
 20
57.66666666666666
 30
0.0
 40
5.0
  1
BBT30-HMC.750S-3
  7
YOKO
 11
-48.39999999999999
 21
56.0
 31
0.0
 73
     1
  0
LINE
  5
4BDE
  8
240
  6
CONTINUOUS
 10
21.99999999999994
 20
-22.90000000000015
 30
0.0
 11
32.40000000000268
 21
-22.89999999999965
 31
0.0
  0
LINE
  5
4BDF
  8
241
  6
CONTINUOUS
 10
31.89999999999918
 20
22.89999999999951
 30
0.0
 11
31.90000000000209
 21
-22.89999999999967
 31
0.0
  0
LINE
  5
4BE1
  8
241
  6
CONTINUOUS
 10
28.50000000000225
 20
-22.89999999999978
 30
0.0
 11
28.49999999999872
 21
22.89999999999977
 31
0.0
  0
LINE
  5
4BE2
  8
241
  6
CONTINUOUS
 10
27.30000000000231
 20
-22.89999999999978
 30
0.0
 11
27.30000000000249
 21
22.89999999999983
 31
0.0
  0
LINE
  5
4BE4
  8
240
  6
CONTINUOUS
 10
22.00000000000103
 20
22.90000000000046
 30
0.0
 11
32.40000000000377
 21
22.89999999999946
 31
0.0
  0
LINE
  5
4C4F
  8
250
  6
CONTINUOUS
 10
4.70000000000067
 20
10.52500000000003
 30
0.0
 11
4.700000000000672
 21
36.0
 31
0.0
  0
LINE
  5
4C50
  8
250
  6
CONTINUOUS
 10
76.20000000000014
 20
20.4226497308103
 30
0.0
 11
76.20000000000014
 21
36.0
 31
0.0
  0
LINE
  5
4C51
  8
250
  6
CONTINUOUS
 10
6.930000000000672
 20
35.0
 30
0.0
 11
73.97000000000014
 21
35.0
 31
0.0
  0
LINE
  5
4C55
  8
250
  6
CONTINUOUS
 10
0.0
 20
16.375
 30
0.0
 11
0.0000000000000017
 21
43.0
 31
0.0
  0
LINE
  5
4C56
  8
250
  6
CONTINUOUS
 10
76.20000000000014
 20
20.4226497308103
 30
0.0
 11
76.20000000000014
 21
43.0
 31
0.0
  0
LINE
  5
4C57
  8
250
  6
CONTINUOUS
 10
2.230000000000001
 20
42.0
 30
0.0
 11
73.97000000000014
 21
42.0
 31
0.0
  0
TEXT
  5
4C5B
  8
250
  6
CONTINUOUS
 10
34.45000000000041
 20
36.0
 30
0.0
 40
2.799999999999999
  1
(max.2.81)
  0
LINE
  5
4C5C
  8
250
  6
CONTINUOUS
 10
73.97000000000014
 20
35.37166666666667
 30
0.0
 11
76.20000000000014
 21
35.0
 31
0.0
  0
LINE
  5
4C5D
  8
250
  6
CONTINUOUS
 10
73.97000000000014
 20
34.62833333333333
 30
0.0
 11
76.20000000000014
 21
35.0
 31
0.0
  0
LINE
  5
4C5E
  8
250
  6
CONTINUOUS
 10
76.20000000000014
 20
35.0
 30
0.0
 11
73.97000000000014
 21
35.0
 31
0.0
  0
LINE
  5
4C5F
  8
250
  6
CONTINUOUS
 10
6.930000000000672
 20
34.62833333333333
 30
0.0
 11
4.700000000000672
 21
35.0
 31
0.0
  0
LINE
  5
4C60
  8
250
  6
CONTINUOUS
 10
6.930000000000672
 20
35.37166666666667
 30
0.0
 11
4.700000000000672
 21
35.0
 31
0.0
  0
LINE
  5
4C61
  8
250
  6
CONTINUOUS
 10
4.700000000000672
 20
35.0
 30
0.0
 11
6.930000000000672
 21
35.0
 31
0.0
  0
TEXT
  5
4C62
  8
250
  6
CONTINUOUS
 10
36.76666666666675
 20
43.0
 30
0.0
 40
2.799999999999999
  1
3.00
  0
LINE
  5
4C63
  8
250
  6
CONTINUOUS
 10
73.97000000000014
 20
42.37166666666666
 30
0.0
 11
76.20000000000014
 21
42.0
 31
0.0
  0
LINE
  5
4C64
  8
250
  6
CONTINUOUS
 10
73.97000000000014
 20
41.62833333333333
 30
0.0
 11
76.20000000000014
 21
42.0
 31
0.0
  0
LINE
  5
4C65
  8
250
  6
CONTINUOUS
 10
76.20000000000014
 20
42.0
 30
0.0
 11
73.97000000000014
 21
42.0
 31
0.0
  0
LINE
  5
4C66
  8
250
  6
CONTINUOUS
 10
2.230000000000001
 20
41.62833333333333
 30
0.0
 11
0.0000000000000016
 21
42.0
 31
0.0
  0
LINE
  5
4C67
  8
250
  6
CONTINUOUS
 10
2.230000000000001
 20
42.37166666666666
 30
0.0
 11
0.0000000000000016
 21
42.0
 31
0.0
  0
LINE
  5
4C68
  8
250
  6
CONTINUOUS
 10
0.0000000000000016
 20
42.0
 30
0.0
 11
2.230000000000001
 21
42.0
 31
0.0
  0
VIEWPORT
  5
22
 67
     1
  8
0
 10
261.5176991150442
 20
148.5
 30
0.0
 40
523.0353982300885
 41
297.0
 68
     1
 69
    -1
1001
GENIUS_GENODEF_13
1002
{
1000
HIER
1070
     0
1002
}
1002
{
1000
MANEDIT
1070
     0
1002
}
1002
{
1000
NOSEL
1070
     0
1002
}
1002
{
1000
BEHIND
1070
     0
1002
}
1002
{
1000
OTHER
1070
     0
1002
}
1002
{
1000
REACTOR
1002
}
1001
GENIUS_GENOBJ-N-SDF_13
1002
{
1000
OWNER
1000
GEN
1002
}
1001
GENIUS_GENSCREG_15
1000
PF
1040
1.0
1000
DF
1040
1.0
1000
MIN
1011
0.0
1021
0.0
1031
0.0
1021
0.0
1031
0.0
1000
MAX
1011
523.0353982300885
1021
297.0
1031
0.0
1021
297.0
1031
0.0
1000
FLAGS
1070
     4
1001
ACAD
1000
MVIEW
1002
{
1070
    16
1010
0.0
1020
0.0
1030
0.0
1020
0.0
1030
0.0
1010
0.0
1020
0.0
1030
1.0
1020
0.0
1030
1.0
1040
0.0
1040
297.0
1040
261.5176991150442
1040
148.5
1040
50.0
1040
0.0
1040
0.0
1070
     0
1070
   100
1070
     1
1070
     1
1070
     0
1070
     0
1070
     0
1070
     0
1040
0.0
1040
0.0
1040
0.0
1040
1.0
1040
1.0
1040
10.0
1040
10.0
1070
     0
1002
{
1002
}
1002
}
  0
ENDSEC
  0
EOF
