  0
SECTION
  2
HEADER
  9
$ACADVER
  1
AC1009
  9
$INSBASE
 10
0.0
 20
0.0
 30
0.0
  9
$EXTMIN
 10
-49.400000000000013
 20
-26.50000000000081
 30
0.0
  9
$EXTMAX
 10
120.0
 20
68.0
 30
0.0
  9
$LIMMIN
 10
0.0
 20
0.0
  9
$LIMMAX
 10
297.0
 20
210.0
  9
$ORTHOMODE
 70
     1
  9
$REGENMODE
 70
     1
  9
$FILLMODE
 70
     1
  9
$QTEXTMODE
 70
     0
  9
$MIRRTEXT
 70
     1
  9
$DRAGMODE
 70
     2
  9
$LTSCALE
 40
10.0
  9
$OSMODE
 70
    37
  9
$ATTMODE
 70
     1
  9
$TEXTSIZE
 40
3.0
  9
$TRACEWID
 40
1.0
  9
$TEXTSTYLE
  7
YOKO
  9
$CLAYER
  8
240
  9
$CELTYPE
  6
BYLAYER
  9
$CECOLOR
 62
   256
  9
$DIMSCALE
 40
1.0
  9
$DIMASZ
 40
2.2299999999999991
  9
$DIMEXO
 40
0.5
  9
$DIMDLI
 40
7.0
  9
$DIMRND
 40
0.0
  9
$DIMDLE
 40
0.0
  9
$DIMEXE
 40
1.0
  9
$DIMTP
 40
0.0
  9
$DIMTM
 40
0.01
  9
$DIMTXT
 40
2.7999999999999989
  9
$DIMCEN
 40
0.0
  9
$DIMTSZ
 40
0.0
  9
$DIMTOL
 70
     0
  9
$DIMLIM
 70
     0
  9
$DIMTIH
 70
     0
  9
$DIMTOH
 70
     0
  9
$DIMSE1
 70
     0
  9
$DIMSE2
 70
     0
  9
$DIMTAD
 70
     3
  9
$DIMZIN
 70
     9
  9
$DIMBLK
  1
OPEN
  9
$DIMASO
 70
     1
  9
$DIMSHO
 70
     1
  9
$DIMPOST
  1

  9
$DIMAPOST
  1

  9
$DIMALT
 70
     0
  9
$DIMALTD
 70
     2
  9
$DIMALTF
 40
25.399999999999999
  9
$DIMLFAC
 40
1.0
  9
$DIMTOFL
 70
     1
  9
$DIMTVP
 40
0.0
  9
$DIMTIX
 70
     1
  9
$DIMSOXD
 70
     0
  9
$DIMSAH
 70
     0
  9
$DIMBLK1
  1

  9
$DIMBLK2
  1

  9
$DIMSTYLE
  2
BIGT
  9
$DIMCLRD
 70
   256
  9
$DIMCLRE
 70
   256
  9
$DIMCLRT
 70
    40
  9
$DIMTFAC
 40
1.0
  9
$DIMGAP
 40
1.0
  9
$LUNITS
 70
     2
  9
$LUPREC
 70
     6
  9
$SKETCHINC
 40
1.0
  9
$FILLETRAD
 40
0.0
  9
$AUNITS
 70
     0
  9
$AUPREC
 70
     6
  9
$MENU
  1
.
  9
$ELEVATION
 40
0.0
  9
$PELEVATION
 40
0.0
  9
$THICKNESS
 40
0.0
  9
$LIMCHECK
 70
     0
  9
$BLIPMODE
 70
     0
  9
$CHAMFERA
 40
0.2
  9
$CHAMFERB
 40
0.2
  9
$SKPOLY
 70
     0
  9
$TDCREATE
 40
2458137.397379363
  9
$TDUPDATE
 40
2458138.593106505
  9
$TDINDWG
 40
0.0102705324
  9
$TDUSRTIMER
 40
0.0102705093
  9
$USRTIMER
 70
     1
  9
$ANGBASE
 50
0.0
  9
$ANGDIR
 70
     0
  9
$PDMODE
 70
     1
  9
$PDSIZE
 40
0.0
  9
$PLINEWID
 40
0.0
  9
$COORDS
 70
     1
  9
$SPLFRAME
 70
     0
  9
$SPLINETYPE
 70
     6
  9
$SPLINESEGS
 70
     4
  9
$ATTDIA
 70
     1
  9
$ATTREQ
 70
     1
  9
$HANDLING
 70
     1
  9
$HANDSEED
  5
45D3
  9
$SURFTAB1
 70
     6
  9
$SURFTAB2
 70
     6
  9
$SURFTYPE
 70
     6
  9
$SURFU
 70
     6
  9
$SURFV
 70
     6
  9
$UCSNAME
  2

  9
$UCSORG
 10
0.0
 20
0.0
 30
0.0
  9
$UCSXDIR
 10
1.0
 20
0.0
 30
0.0
  9
$UCSYDIR
 10
0.0
 20
1.0
 30
0.0
  9
$PUCSNAME
  2

  9
$PUCSORG
 10
0.0
 20
0.0
 30
0.0
  9
$PUCSXDIR
 10
1.0
 20
0.0
 30
0.0
  9
$PUCSYDIR
 10
0.0
 20
1.0
 30
0.0
  9
$USERI1
 70
     1
  9
$USERI2
 70
     0
  9
$USERI3
 70
     0
  9
$USERI4
 70
     0
  9
$USERI5
 70
     0
  9
$USERR1
 40
0.0
  9
$USERR2
 40
0.0
  9
$USERR3
 40
0.0
  9
$USERR4
 40
0.0
  9
$USERR5
 40
0.0
  9
$WORLDVIEW
 70
     1
  9
$SHADEDGE
 70
     3
  9
$SHADEDIF
 70
    70
  9
$TILEMODE
 70
     1
  9
$MAXACTVP
 70
    16
  9
$PLIMCHECK
 70
     0
  9
$PEXTMIN
 10
1.0000000000000000E+020
 20
1.0000000000000000E+020
 30
1.0000000000000000E+020
  9
$PEXTMAX
 10
-1.0000000000000000E+020
 20
-1.0000000000000000E+020
 30
-1.0000000000000000E+020
  9
$PLIMMIN
 10
0.0
 20
0.0
  9
$PLIMMAX
 10
420.0
 20
297.0
  9
$UNITMODE
 70
     0
  9
$VISRETAIN
 70
     1
  9
$PLINEGEN
 70
     0
  9
$PSLTSCALE
 70
     1
  0
ENDSEC
  0
SECTION
  2
TABLES
  0
TABLE
  2
VPORT
 70
     1
  0
VPORT
  2
*ACTIVE
 70
     0
 10
0.0
 20
0.0
 11
1.0
 21
1.0
 12
51.376948377536131
 22
20.640870206093808
 13
0.0
 23
0.0
 14
7.0
 24
7.0
 15
7.0
 25
7.0
 16
0.0
 26
0.0
 36
1.0
 17
0.0
 27
0.0
 37
0.0
 40
206.3531212697377
 41
1.4533622559652919
 42
50.0
 43
0.0
 44
0.0
 50
0.0
 51
0.0
 71
     0
 72
  2000
 73
     1
 74
     0
 75
     0
 76
     1
 77
     0
 78
     0
  0
ENDTAB
  0
TABLE
  2
LTYPE
 70
    21
  0
LTYPE
  2
CONTINUOUS
 70
     0
  3
Solid line
 72
    65
 73
     0
 40
0.0
  0
LTYPE
  2
CENTER2
 70
     0
  3
___ _ ___ _ ___ _ ___ _ ___ _ ___ _ ___ _ ___ _
 72
    65
 73
     4
 40
1.125
 49
0.75
 49
-0.125
 49
0.125
 49
-0.125
  0
LTYPE
  2
HIDDEN2
 70
     0
  3
_ _ _ _ _ _ _ _ _ _ _ _ _ _ _ _ _ _ _ _ _ _ _ _
 72
    65
 73
     2
 40
0.1875
 49
0.125
 49
-0.0625
  0
LTYPE
  2
AM_ISO02W050
 70
     0
  3
__ __ __ __ __ __ __ __ __ __ __ __ __ __ __
 72
    65
 73
     2
 40
7.5
 49
6.0
 49
-1.5
  0
LTYPE
  2
AMCONSTR
 70
     0
  3
_______________________
 72
    65
 73
     2
 40
9999.0
 49
9999.0
 49
0.0
  0
LTYPE
  2
ACISOWELD
 70
     0
  3
_ _ _ _ _
 72
    65
 73
     2
 40
2.0
 49
2.0
 49
-1.0
  0
LTYPE
  2
ACISOTGB
 70
     0
  3
__ . . __ . .
 72
    65
 73
     6
 40
9.0
 49
4.0
 49
-1.0
 49
1.0
 49
-1.0
 49
1.0
 49
-1.0
  0
LTYPE
  2
ACISOTGL
 70
     0
  3
_ _ _ _ _
 72
    65
 73
     2
 40
3.0
 49
2.0
 49
-1.0
  0
LTYPE
  2
AM_ISO08W050
 70
     0
  3
____ . ____ . ____ . ____ . ____ . ____ . ____
 72
    65
 73
     4
 40
18.0
 49
12.0
 49
-1.5
 49
3.0
 49
-1.5
  0
LTYPE
  2
AM_ISO09W050
 70
     0
  3
_____ . . _____ . . _____ . . ____ .. ____
 72
    65
 73
     6
 40
22.5
 49
12.0
 49
-1.5
 49
3.0
 49
-1.5
 49
3.0
 49
-1.5
  0
LTYPE
  2
AM_ISO08W050X2
 70
     0
  3
__ . __ . __ . __ . __ . __
 72
    65
 73
     4
 40
9.0
 49
6.0
 49
-0.75
 49
1.5
 49
-0.75
  0
LTYPE
  2
AM_ISO02W050X2
 70
     0
  3
 _ _ _ _ _ _ _ _ _ _ _ _
 72
    65
 73
     2
 40
3.75
 49
3.0
 49
-0.75
  0
LTYPE
  2
AMZIGZAG
 70
     0
  3
/\/-/\/-/\/-/\/-/\/-/\/
 72
    65
 73
     2
 40
11.0001
 49
0.0001
 49
-11.0
  0
ENDTAB
  0
TABLE
  2
LAYER
 70
     8
  0
LAYER
  2
0
 70
     0
 62
     7
  6
CONTINUOUS
  0
LAYER
  2
DEFPOINTS
 70
     0
 62
     7
  6
CONTINUOUS
  0
LAYER
  2
245
 70
     0
 62
     2
  6
CENTER2
  0
LAYER
  2
240
 70
     0
 62
     4
  6
CONTINUOUS
  0
LAYER
  2
241
 70
     0
 62
   211
  6
CONTINUOUS
  0
LAYER
  2
243
 70
     0
 62
   211
  6
HIDDEN2
  0
LAYER
  2
247
 70
     0
 62
    60
  6
CONTINUOUS
  0
LAYER
  2
250
 70
     0
 62
     3
  6
CONTINUOUS
  0
ENDTAB
  0
TABLE
  2
STYLE
 70
     8
  0
STYLE
  2
STANDARD
 70
     0
 40
0.0
 41
1.0
 50
0.0
 71
     0
 42
3.0
  3
romans.shx
  4
extfont.shx
  0
STYLE
  2
ACISOGDT
 70
     0
 40
0.0
 41
1.0
 50
0.0
 71
     0
 42
3.0
  3
amgdt.shx
  4
extfont.shx
  0
STYLE
  2
YOKO
 70
     0
 40
0.0
 41
1.0
 50
0.0
 71
     0
 42
3.0
  3
romans.shx
  4
extfont.shx
  0
STYLE
  2

 70
     1
 40
0.0
 41
1.0
 50
0.0
 71
     0
 42
3.0
  3
genltshp.shx
  4

  0
ENDTAB
  0
TABLE
  2
VIEW
 70
     0
  0
ENDTAB
  0
TABLE
  2
UCS
 70
     0
  0
ENDTAB
  0
TABLE
  2
APPID
 70
    41
  0
APPID
  2
ACAD
 70
     0
  0
APPID
  2
GLOBAL
 70
     0
  0
APPID
  2
DETAIL
 70
     0
  0
APPID
  2
GRPNAME
 70
     0
  0
APPID
  2
GPARA
 70
     0
  0
APPID
  2
MCAD_NO_VIS
 70
     0
  0
APPID
  2
ACAD_TEMP_GRAPHIC
 70
     0
  0
APPID
  2
ACATTRIBSERVICES
 70
     0
  0
APPID
  2
GENIUS_GENSCREG_15
 70
     0
  0
APPID
  2
GENIUS_GENODEF_13
 70
     0
  0
APPID
  2
GENIUS_GENOBJ-N-SDF_13
 70
     0
  0
APPID
  2
GENIUS_GENREC_14
 70
     0
  0
APPID
  2
GENIUS_GENOBJ-N-REC_13
 70
     0
  0
APPID
  2
GENIUS_GENDIMSH_14
 70
     0
  0
APPID
  2
GENIUS_GENOBJ-N-DIM_13
 70
     0
  0
APPID
  2
GENIUS_GENDIM_13
 70
     0
  0
APPID
  2
GENIUS_GENDTOL_13
 70
     0
  0
APPID
  2
GENIUS_GENOLIS_13
 70
     0
  0
APPID
  2
GENIUS_GENOENT_13
 70
     0
  0
APPID
  2
GENIUS_GENOBJ-F-FEM_13
 70
     0
  0
APPID
  2
GENIUS_GENOREF_13
 70
     0
  0
APPID
  2
GENIUS_GEFFEM_13
 70
     0
  0
APPID
  2
GENIUS_GEFFEMP_13
 70
     0
  0
APPID
  2
AD_DRAW
 70
     0
  0
APPID
  2
DESIGNERASSEMBLIES
 70
     0
  0
APPID
  2
ACADM_DIM_EDIT
 70
     0
  0
APPID
  2
AMDT_DM_ADJ
 70
     0
  0
APPID
  2
ITEMNAME
 70
     0
  0
APPID
  2
GENIUS_GENOBJ-N-FIL_13
 70
     0
  0
APPID
  2
GENIUS_GENFIL_13
 70
     0
  0
APPID
  2
GENIUS_GENOBJ-N-CHA_13
 70
     0
  0
APPID
  2
ACAECLAYERSTANDARD
 70
     0
  0
APPID
  2
ACAD_NAV_VCDISPLAY
 70
     0
  0
APPID
  2
LAYER_SCALE
 70
     0
  0
APPID
  2
ACAD_PSEXT
 70
     0
  0
APPID
  2
ASK_MEN_XD
 70
     0
  0
APPID
  2
ACAD_DSTYLE_DIMJAG
 70
     0
  0
APPID
  2
ACAD_DSTYLE_DIMBREAK
 70
     0
  0
APPID
  2
ACAD_EXEMPT_FROM_CAD_STANDARDS
 70
     0
  0
APPID
  2
ACAD_DSTYLE_DIMINSPECT
 70
     0
  0
APPID
  2
ACAD_MLEADERVER
 70
     0
  0
ENDTAB
  0
TABLE
  2
DIMSTYLE
 70
    30
  0
DIMSTYLE
  2
BIGT
 70
     0
  3

  4

  5
OPEN
  6

  7

 40
1.0
 41
2.2299999999999991
 42
0.5
 43
7.0
 44
1.0
 45
0.0
 46
0.0
 47
0.0
 48
0.01
140
2.7999999999999989
141
0.0
142
0.0
143
25.399999999999999
144
1.0
145
0.0
146
1.0
147
1.0
 71
     0
 72
     0
 73
     0
 74
     0
 75
     0
 76
     0
 77
     3
 78
     9
170
     0
171
     2
172
     1
173
     0
174
     1
175
     0
176
   256
177
   256
178
    40
  0
DIMSTYLE
  2
AM_ISO
 70
     0
  3

  4
"
  5

  6

  7

 40
1.0
 41
2.5
 42
1.0
 43
10.0
 44
1.0
 45
0.0
 46
0.0
 47
0.1
 48
0.1
140
3.5
141
0.0
142
0.0
143
0.0393701
144
1.0
145
0.0
146
0.71
147
1.5
 71
     0
 72
     0
 73
     0
 74
     0
 75
     0
 76
     0
 77
     1
 78
     8
170
     0
171
     2
172
     1
173
     0
174
     0
175
     0
176
   256
177
   256
178
     2
  0
DIMSTYLE
  2
AM_ISO$3
 70
     0
  3

  4
"
  5

  6

  7

 40
1.0
 41
2.5
 42
1.0
 43
10.0
 44
1.0
 45
0.0
 46
0.0
 47
0.1
 48
0.1
140
3.5
141
0.0
142
0.0
143
0.0393701
144
1.0
145
0.0
146
0.71
147
1.5
 71
     0
 72
     0
 73
     0
 74
     1
 75
     0
 76
     0
 77
     1
 78
     8
170
     0
171
     2
172
     0
173
     0
174
     0
175
     0
176
   256
177
   256
178
     2
  0
DIMSTYLE
  2
AM_ISO$4
 70
     0
  3

  4
"
  5

  6

  7

 40
1.0
 41
2.5
 42
1.0
 43
10.0
 44
1.0
 45
0.0
 46
0.0
 47
0.1
 48
0.1
140
3.5
141
0.0
142
0.0
143
0.0393701
144
1.0
145
0.0
146
0.71
147
1.5
 71
     0
 72
     0
 73
     0
 74
     1
 75
     0
 76
     0
 77
     1
 78
     8
170
     0
171
     2
172
     0
173
     0
174
     0
175
     0
176
   256
177
   256
178
     2
  0
DIMSTYLE
  2
AM_ISO$6
 70
     0
  3

  4
"
  5

  6

  7

 40
1.0
 41
2.5
 42
1.0
 43
10.0
 44
1.0
 45
0.0
 46
0.0
 47
0.1
 48
0.1
140
3.5
141
0.0
142
0.0
143
0.0393701
144
1.0
145
0.0
146
0.71
147
1.5
 71
     0
 72
     0
 73
     0
 74
     0
 75
     0
 76
     0
 77
     0
 78
     8
170
     0
171
     2
172
     1
173
     0
174
     0
175
     0
176
   256
177
   256
178
     2
  0
DIMSTYLE
  2
AM_ISO$7
 70
     0
  3

  4
"
  5

  6

  7

 40
1.0
 41
2.5
 42
1.0
 43
10.0
 44
1.0
 45
0.0
 46
0.0
 47
0.1
 48
0.1
140
5.0
141
0.0
142
0.0
143
0.0393701
144
1.0
145
0.0
146
0.71
147
1.5
 71
     0
 72
     0
 73
     0
 74
     0
 75
     0
 76
     0
 77
     1
 78
     8
170
     0
171
     2
172
     1
173
     0
174
     0
175
     0
176
   256
177
   256
178
     2
  0
DIMSTYLE
  2
AM_ISO$SF
 70
     0
  3

  4
"
  5

  6

  7

 40
1.0
 41
2.5
 42
1.0
 43
10.0
 44
1.0
 45
0.0
 46
0.0
 47
0.1
 48
0.1
140
3.5
141
0.0
142
0.0
143
0.0393701
144
1.0
145
0.0
146
0.71
147
1.5
 71
     0
 72
     0
 73
     0
 74
     0
 75
     1
 76
     1
 77
     1
 78
     8
170
     0
171
     2
172
     1
173
     0
174
     0
175
     0
176
   256
177
   256
178
     2
  0
DIMSTYLE
  2
AM_ISO$SH
 70
     0
  3

  4
"
  5

  6
GENAXEH
  7

 40
1.0
 41
2.5
 42
1.0
 43
10.0
 44
1.0
 45
0.0
 46
0.0
 47
0.1
 48
0.1
140
3.5
141
0.0
142
0.0
143
0.0393701
144
2.0
145
0.0
146
0.71
147
1.5
 71
     0
 72
     0
 73
     0
 74
     0
 75
     1
 76
     1
 77
     1
 78
     8
170
     0
171
     2
172
     1
173
     1
174
     0
175
     0
176
   256
177
   256
178
     2
  0
DIMSTYLE
  2
STANDARD
 70
     0
  3

  4

  5

  6

  7

 40
1.0
 41
0.18
 42
0.0625
 43
0.38
 44
0.18
 45
0.0
 46
0.0
 47
0.0
 48
0.0
140
0.18
141
0.09
142
0.0
143
25.399999999999999
144
1.0
145
0.0
146
1.0
147
0.09
 71
     0
 72
     0
 73
     1
 74
     1
 75
     0
 76
     0
 77
     0
 78
     0
170
     0
171
     2
172
     0
173
     0
174
     0
175
     0
176
     0
177
     0
178
     0
  0
ENDTAB
  0
ENDSEC
  0
SECTION
  2
BLOCKS
  0
BLOCK
  8
0
  2
$MODEL_SPACE
 70
     0
 10
0.0
 20
0.0
 30
0.0
  3
$MODEL_SPACE
  1

  0
ENDBLK
  5
1C
  8
0
  0
BLOCK
 67
     1
  8
0
  2
$PAPER_SPACE
 70
     0
 10
0.0
 20
0.0
 30
0.0
  3
$PAPER_SPACE
  1

  0
ENDBLK
  5
19
 67
     1
  8
0
  0
BLOCK
  8
0
  2
_OPEN
 70
     0
 10
0.0
 20
0.0
 30
0.0
  3
_OPEN
  1

  0
LINE
  5
3E1A
  8
0
  6
BYBLOCK
 62
     0
 10
-1.0
 20
0.1666666666666666
 30
0.0
 11
0.0
 21
0.0
 31
0.0
  0
LINE
  5
3E1B
  8
0
  6
BYBLOCK
 62
     0
 10
-1.0
 20
-0.1666666666666666
 30
0.0
 11
0.0
 21
0.0
 31
0.0
  0
LINE
  5
3E1C
  8
0
  6
BYBLOCK
 62
     0
 10
0.0
 20
0.0
 30
0.0
 11
-1.0
 21
0.0
 31
0.0
  0
ENDBLK
  5
3E1D
  8
0
  0
BLOCK
  8
0
  2
GENAXEH
 70
     0
 10
0.0
 20
0.0
 30
0.0
  3
GENAXEH
  1

  0
LINE
  5
3E45
  8
0
 10
-1.0
 20
0.0
 30
0.0
 11
1.0
 21
0.0
 31
0.0
  0
ENDBLK
  5
3E46
  8
0
  0
ENDSEC
  0
SECTION
  2
ENTITIES
  0
LINE
  5
42A1
  8
240
  6
CONTINUOUS
 10
17.599999999999991
 20
23.0
 30
0.0
 11
22.0
 21
23.0
 31
0.0
  0
LINE
  5
42A2
  8
243
  6
HIDDEN2
 10
19.0
 20
16.300000000000011
 30
0.0
 11
1.0
 21
16.300000000000011
 31
0.0
  0
LINE
  5
42A3
  8
240
  6
CONTINUOUS
 10
17.599999999999991
 20
-23.0
 30
0.0
 11
22.0
 21
-23.0
 31
0.0
  0
LINE
  5
42A4
  8
243
  6
HIDDEN2
 10
19.0
 20
-16.300000000000011
 30
0.0
 11
1.0
 21
-16.300000000000011
 31
0.0
  0
LINE
  5
42A5
  8
245
  6
CENTER2
 10
-49.400000000000013
 20
0.0
 30
0.0
 11
103.11114782433719
 21
0.0
 31
0.0
  0
LINE
  5
42A6
  8
240
  6
CONTINUOUS
 10
-48.399999999999977
 20
-8.8165000019866966
 30
0.0
 11
0.0
 21
-15.875
 31
0.0
  0
LINE
  5
42A7
  8
240
  6
CONTINUOUS
 10
-48.399999999999977
 20
-8.8165000019866966
 30
0.0
 11
-48.399999999999977
 21
8.8165000019866966
 31
0.0
  0
LINE
  5
42A8
  8
240
  6
CONTINUOUS
 10
15.29059892000001
 20
-19.0
 30
0.0
 11
17.599999999999991
 21
-23.0
 31
0.0
  0
LINE
  5
42A9
  8
240
  6
CONTINUOUS
 10
11.909401080000009
 20
-19.0
 30
0.0
 11
9.5999999999999943
 21
-23.0
 31
0.0
  0
LINE
  5
42AA
  8
240
  6
CONTINUOUS
 10
1.0
 20
-15.875
 30
0.0
 11
1.0
 21
-23.0
 31
0.0
  0
LINE
  5
42AB
  8
241
  6
CONTINUOUS
 10
17.59999999999998
 20
23.00000000000006
 30
0.0
 11
17.599999999999991
 21
-23.0
 31
0.0
  0
LINE
  5
42AC
  8
241
  6
CONTINUOUS
 10
9.5999999999999943
 20
-23.0
 30
0.0
 11
9.5999999999999943
 21
23.0
 31
0.0
  0
LINE
  5
42AD
  8
240
  6
CONTINUOUS
 10
9.5999999999999943
 20
-23.0
 30
0.0
 11
1.0
 21
-23.0
 31
0.0
  0
LINE
  5
42AE
  8
241
  6
CONTINUOUS
 10
15.29059892000001
 20
-19.0
 30
0.0
 11
15.29059891999999
 21
19.0
 31
0.0
  0
LINE
  5
42AF
  8
241
  6
CONTINUOUS
 10
11.909401080000009
 20
-19.0
 30
0.0
 11
11.909401079999981
 21
19.0
 31
0.0
  0
LINE
  5
42B0
  8
241
  6
CONTINUOUS
 10
0.0
 20
-15.875
 30
0.0
 11
0.0
 21
15.875
 31
0.0
  0
LINE
  5
42B1
  8
241
  6
CONTINUOUS
 10
1.0
 20
15.875
 30
0.0
 11
1.0
 21
-15.875
 31
0.0
  0
LINE
  5
42B2
  8
240
  6
CONTINUOUS
 10
0.0
 20
-15.875
 30
0.0
 11
1.0
 21
-15.875
 31
0.0
  0
LINE
  5
42B3
  8
240
  6
CONTINUOUS
 10
11.909401080000009
 20
-19.0
 30
0.0
 11
15.29059892000001
 21
-19.0
 31
0.0
  0
LINE
  5
42B4
  8
240
  6
CONTINUOUS
 10
-48.399999999999977
 20
8.8165000019866966
 30
0.0
 11
0.0
 21
15.875
 31
0.0
  0
LINE
  5
42B5
  8
240
  6
CONTINUOUS
 10
15.29059892000001
 20
19.0
 30
0.0
 11
17.599999999999991
 21
23.0
 31
0.0
  0
LINE
  5
42B6
  8
240
  6
CONTINUOUS
 10
11.909401080000009
 20
19.0
 30
0.0
 11
9.5999999999999943
 21
23.0
 31
0.0
  0
LINE
  5
42B7
  8
240
  6
CONTINUOUS
 10
1.0
 20
15.875
 30
0.0
 11
1.0
 21
23.0
 31
0.0
  0
LINE
  5
42B8
  8
240
  6
CONTINUOUS
 10
0.0
 20
15.875
 30
0.0
 11
1.0
 21
15.875
 31
0.0
  0
LINE
  5
42B9
  8
240
  6
CONTINUOUS
 10
11.909401080000009
 20
19.0
 30
0.0
 11
15.29059892000001
 21
19.0
 31
0.0
  0
LINE
  5
42BA
  8
240
  6
CONTINUOUS
 10
9.5999999999999943
 20
23.0
 30
0.0
 11
1.0
 21
23.0
 31
0.0
  0
LINE
  5
42BB
  8
241
  6
CONTINUOUS
 10
22.0
 20
-23.0
 30
0.0
 11
22.0
 21
23.0
 31
0.0
  0
LINE
  5
42BC
  8
243
  6
HIDDEN2
 10
19.0
 20
-16.300000000000011
 30
0.0
 11
19.0
 21
-23.0
 31
0.0
  0
LINE
  5
42BD
  8
243
  6
HIDDEN2
 10
19.0
 20
16.300000000000011
 30
0.0
 11
19.0
 21
23.0
 31
0.0
  0
LINE
  5
42BE
  8
247
  6
CONTINUOUS
 10
6.4999999999999432
 20
-13.75
 30
0.0
 11
6.5
 21
-9.1153846156699974
 31
0.0
  0
LINE
  5
42BF
  8
247
  6
CONTINUOUS
 10
4.0
 20
-12.95489349998792
 30
0.0
 11
6.0999999999160082
 21
-13.557058810057351
 31
0.0
  0
LINE
  5
42C0
  8
247
  6
CONTINUOUS
 10
4.996153846113998
 20
-12.32515140351904
 30
0.0
 11
4.996153846113998
 21
-13.240536018867029
 31
0.0
  0
ARC
  5
42C1
  8
247
  6
CONTINUOUS
 10
4.3847190672940961
 20
-12.08726340194675
 30
0.0
 40
0.3876715809326743
 50
72.99788967529301
 51
172.92416621851351
  0
ARC
  5
42C2
  8
247
  6
CONTINUOUS
 10
4.305223131028014
 20
-12.382477556804069
 30
0.0
 40
0.6933047965358772
 50
4.7429368522022122
 51
73.849226273266751
1001
GENIUS_GENOBJ-N-FIL_13
1002
{
1000
OWNER
1000
GEN
1002
}
1001
GENIUS_GENODEF_13
1002
{
1000
HIER
1070
     0
1002
}
1002
{
1000
MANEDIT
1070
     0
1002
}
1002
{
1000
NOSEL
1070
     0
1002
}
1002
{
1000
BEHIND
1070
     0
1002
}
1002
{
1000
OTHER
1070
     0
1002
}
1002
{
1000
REACTOR
1002
}
  0
LINE
  5
42C3
  8
247
  6
CONTINUOUS
 10
6.0999999999160082
 20
-12.64167419470936
 30
0.0
 11
6.0999999999160082
 21
-13.557058810057351
 31
0.0
  0
LINE
  5
42C4
  8
247
  6
CONTINUOUS
 10
4.0
 20
-12.95489349998792
 30
0.0
 11
4.0
 21
-12.039508884639931
 31
0.0
  0
ARC
  5
42C5
  8
247
  6
CONTINUOUS
 10
5.3874169627678707
 20
-12.3783064762668
 30
0.0
 40
0.394857301075386
 50
65.990941652528889
 51
172.26344345906909
  0
ARC
  5
42C6
  8
247
  6
CONTINUOUS
 10
5.391200327332565
 20
-12.71244661042692
 30
0.0
 40
0.7123241612361686
 50
5.701985164256504
 51
77.277338436822006
1001
GENIUS_GENOBJ-N-FIL_13
1002
{
1000
OWNER
1000
GEN
1002
}
1001
GENIUS_GENODEF_13
1002
{
1000
HIER
1070
     0
1002
}
1002
{
1000
MANEDIT
1070
     0
1002
}
1002
{
1000
NOSEL
1070
     0
1002
}
1002
{
1000
BEHIND
1070
     0
1002
}
1002
{
1000
OTHER
1070
     0
1002
}
1002
{
1000
REACTOR
1002
}
  0
LINE
  5
42C7
  8
247
  6
CONTINUOUS
 10
6.0999999999160082
 20
-11.683981887063339
 30
0.0
 11
4.0
 21
-11.08181657699396
 31
0.0
  0
LINE
  5
42C8
  8
247
  6
CONTINUOUS
 10
4.0
 20
-9.5856627309079272
 30
0.0
 11
4.0
 21
-9.9816783643035496
 31
0.0
  0
LINE
  5
42C9
  8
247
  6
CONTINUOUS
 10
6.0999999999160082
 20
-10.60873965394393
 30
0.0
 11
6.0999999999160082
 21
-10.17797042319193
 31
0.0
  0
ARC
  5
42CA
  8
247
  6
CONTINUOUS
 10
5.4582995950833562
 20
-9.3818165770699125
 30
0.0
 40
1.576855057639547
 50
202.3594881415294
 51
254.99324854284691
  0
ARC
  5
42CB
  8
247
  6
CONTINUOUS
 10
4.5658188585381341
 20
-9.8475113661331761
 30
0.0
 40
0.6234706797009447
 50
94.994589319075317
 51
155.1663289573041
1001
GENIUS_GENOBJ-N-FIL_13
1002
{
1000
OWNER
1000
GEN
1002
}
1001
GENIUS_GENODEF_13
1002
{
1000
HIER
1070
     0
1002
}
1002
{
1000
MANEDIT
1070
     0
1002
}
1002
{
1000
NOSEL
1070
     0
1002
}
1002
{
1000
BEHIND
1070
     0
1002
}
1002
{
1000
OTHER
1070
     0
1002
}
1002
{
1000
REACTOR
1002
}
  0
ARC
  5
42CC
  8
247
  6
CONTINUOUS
 10
5.1621021219694381
 20
-10.44418395103275
 30
0.0
 40
0.9749472149106983
 50
15.846096555780679
 51
82.325137004169278
  0
ARC
  5
42CD
  8
247
  6
CONTINUOUS
 10
5.3714704019710631
 20
-10.03521163877218
 30
0.0
 40
0.9271945638692009
 50
249.7136016704969
 51
321.78874565641092
1001
GENIUS_GENOBJ-N-FIL_13
1002
{
1000
OWNER
1000
GEN
1002
}
1001
GENIUS_GENODEF_13
1002
{
1000
HIER
1070
     0
1002
}
1002
{
1000
MANEDIT
1070
     0
1002
}
1002
{
1000
NOSEL
1070
     0
1002
}
1002
{
1000
BEHIND
1070
     0
1002
}
1002
{
1000
OTHER
1070
     0
1002
}
1002
{
1000
REACTOR
1002
}
  0
LINE
  5
42CE
  8
247
  6
CONTINUOUS
 10
5.2923076922559744
 20
-9.9625858078159126
 30
0.0
 11
5.2923076922559744
 21
-9.4779704232199702
 31
0.0
  0
ARC
  5
42CF
  8
247
  6
CONTINUOUS
 10
5.25
 20
-13.75
 30
0.0
 40
1.25
 50
180.0
 51
0.0
  0
LINE
  5
42D0
  8
247
  6
CONTINUOUS
 10
4.0
 20
-13.75
 30
0.0
 11
4.0
 21
-13.30384615391398
 31
0.0
  0
ARC
  5
42D1
  8
247
  6
CONTINUOUS
 10
5.25
 20
-9.1153846156699974
 30
0.0
 40
1.25
 50
0.0
 51
180.0
  0
LINE
  5
42D2
  8
250
  6
CONTINUOUS
 10
-29.192645999999971
 20
-20.993266540993321
 30
0.0
 11
-46.925979329999961
 21
-20.993266540993321
 31
0.0
1001
ITEMNAME
1000
LNSP2
  0
TEXT
  5
42D3
  8
250
  6
CONTINUOUS
 10
-44.659312663333303
 20
-19.993266540993321
 30
0.0
 40
2.799999999999998
  1
BBT30
  7
YOKO
1001
ITEMNAME
1000
LNSP3
1001
ACAD
1000
MTEXTBEGIN
1070
    73
1070
     1
1070
    44
1040
1.0
1070
    74
1070
     0
1000
MTEXTEND
1000
MTEXTBEGIN
1070
    73
1070
     1
1070
    44
1040
1.0
1070
    74
1070
     0
1000
MTEXTEND
1000
MTEXTBEGIN
1070
    73
1070
     1
1070
    44
1040
1.0
1070
    74
1070
     0
1000
MTEXTEND
1000
MTEXTBEGIN
1070
    73
1070
     1
1070
    44
1040
1.0
1070
    74
1070
     0
1000
MTEXTEND
  0
LINE
  5
42D4
  8
250
  6
CONTINUOUS
 10
-25.314999999633049
 20
-14.276986651644499
 30
0.0
 11
-29.192645999999971
 21
-20.993266540993321
 31
0.0
1001
ACAD
1000
DSTYLE
1002
{
1070
     6
1000
OPEN
1070
   343
1005
0
1002
}
  0
LINE
  5
42D5
  8
250
  6
CONTINUOUS
 10
-25.636872774741558
 20
-14.09115331837233
 30
0.0
 11
-24.199999999999989
 21
-12.34575000099335
 31
0.0
  0
LINE
  5
42D6
  8
250
  6
CONTINUOUS
 10
-24.993127224524532
 20
-14.462819984916679
 30
0.0
 11
-24.199999999999989
 21
-12.34575000099335
 31
0.0
  0
LINE
  5
42D7
  8
250
  6
CONTINUOUS
 10
-24.199999999999989
 20
-12.34575000099335
 30
0.0
 11
-25.314999999633049
 21
-14.276986651644499
 31
0.0
  0
LINE
  5
430F
  8
240
  6
CONTINUOUS
 10
101.59999999999989
 20
-19.0
 30
0.0
 11
101.60000000000009
 21
19.0
 31
0.0
1001
GRPNAME
1000
PASTMD0F
  0
LINE
  5
4310
  8
243
  6
HIDDEN2
 10
58.600000000000072
 20
9.5250000000000341
 30
0.0
 11
101.59999999999999
 21
9.5250000000000341
 31
0.0
  0
LINE
  5
4311
  8
240
  6
CONTINUOUS
 10
101.60000000000009
 20
19.0
 30
0.0
 11
70.599999999999213
 21
19.000000000000082
 31
0.0
  0
LINE
  5
4313
  8
240
  6
CONTINUOUS
 10
101.59999999999989
 20
-19.0
 30
0.0
 11
70.599999999999909
 21
-18.999999999999972
 31
0.0
  0
LINE
  5
4314
  8
241
  6
CONTINUOUS
 10
70.600000000000136
 20
19.000000000000089
 30
0.0
 11
70.599999999999909
 21
-18.999999999999972
 31
0.0
  0
LINE
  5
4315
  8
241
  6
CONTINUOUS
 10
48.230000000002299
 20
22.965103405400029
 30
0.0
 11
48.230000000002519
 21
-22.965103405399852
 31
0.0
  0
LINE
  5
4316
  8
240
  6
CONTINUOUS
 10
47.75721354225135
 20
-23.518890165955501
 30
0.0
 11
46.036068977081349
 21
-26.50000000000081
 31
0.0
  0
LINE
  5
4317
  8
241
  6
CONTINUOUS
 10
46.036068977081413
 20
-26.31649658092849
 30
0.0
 11
46.036068977081392
 21
-0.0000000000000284
 31
0.0
  0
LINE
  5
4318
  8
240
  6
CONTINUOUS
 10
47.757213542251293
 20
23.51889016595555
 30
0.0
 11
46.036068977081392
 21
26.500000000000799
 31
0.0
  0
LINE
  5
4319
  8
240
  6
CONTINUOUS
 10
49.162898278687891
 20
-22.545698541299291
 30
0.0
 11
70.599999999999909
 21
-18.999999999999972
 31
0.0
  0
ARC
  5
431B
  8
240
  6
CONTINUOUS
 10
49.489264349820189
 20
-24.518890165955561
 30
0.0
 40
2.0
 50
99.391699545726297
 51
149.99999999999801
1001
ASK_MEN_XD
1005
4316
1070
     1
1005
4319
1070
     1
  0
LINE
  5
431D
  8
240
  6
CONTINUOUS
 10
49.162898278687891
 20
22.54569854129932
 30
0.0
 11
70.599999999999213
 21
19.000000000000082
 31
0.0
  0
ARC
  5
431E
  8
240
  6
CONTINUOUS
 10
49.489264349820189
 20
24.518890165955579
 30
0.0
 40
2.0
 50
210.00000000000051
 51
260.60830045427372
1001
ASK_MEN_XD
1005
4316
1070
     1
1005
4319
1070
     1
  0
LINE
  5
431F
  8
241
  6
CONTINUOUS
 10
76.599999999996726
 20
19.000000000000071
 30
0.0
 11
76.599999999997181
 21
-18.99999999999903
 31
0.0
  0
LINE
  5
4320
  8
241
  6
CONTINUOUS
 10
82.59999999999701
 20
-19.000000000000622
 30
0.0
 11
82.599999999997024
 21
19.00000000000005
 31
0.0
  0
LINE
  5
4321
  8
241
  6
CONTINUOUS
 10
84.600000000032196
 20
-19.00000000000065
 30
0.0
 11
84.600000000032196
 21
19.000000000000039
 31
0.0
  0
LINE
  5
4322
  8
241
  6
CONTINUOUS
 10
90.599999999999909
 20
-19.0
 30
0.0
 11
90.600000000000591
 21
19.000000000000021
 31
0.0
  0
LINE
  5
4324
  8
241
  6
CONTINUOUS
 10
53.061411058943861
 20
-21.900884178896579
 30
0.0
 11
53.061411058943968
 21
21.900884178896561
 31
0.0
  0
LINE
  5
4325
  8
241
  6
CONTINUOUS
 10
51.877496084150152
 20
-22.096703821575911
 30
0.0
 11
51.877496084150152
 21
22.096703821575939
 31
0.0
  0
LINE
  5
4334
  8
241
  6
CONTINUOUS
 10
34.193931022920438
 20
-26.499999999999929
 30
0.0
 11
34.193931022916203
 21
26.499999999999929
 31
0.0
  0
LINE
  5
4335
  8
241
  6
CONTINUOUS
 10
32.000000000002473
 20
22.700000000004259
 30
0.0
 11
32.000000000002423
 21
-22.70000000000427
 31
0.0
  0
LINE
  5
4336
  8
240
  6
CONTINUOUS
 10
34.193931022920282
 20
-26.499999999999929
 30
0.0
 11
46.036068977081349
 21
-26.50000000000081
 31
0.0
  0
LINE
  5
4338
  8
240
  6
CONTINUOUS
 10
32.00000000000216
 20
-22.70000000000427
 30
0.0
 11
34.193931022920282
 21
-26.499999999999929
 31
0.0
  0
LINE
  5
433A
  8
241
  6
CONTINUOUS
 10
46.036068977081399
 20
-26.50000000000081
 30
0.0
 11
46.036068977081356
 21
26.50000000000081
 31
0.0
  0
LINE
  5
4344
  8
240
  6
CONTINUOUS
 10
21.999999999999972
 20
-23.00000000000102
 30
0.0
 11
22.299999999999041
 21
-22.70000000000201
 31
0.0
  0
LINE
  5
4345
  8
240
  6
CONTINUOUS
 10
22.299999999999041
 20
-22.70000000000201
 30
0.0
 11
32.00000000000216
 21
-22.70000000000427
 31
0.0
  0
LINE
  5
4346
  8
240
  6
CONTINUOUS
 10
34.193931022920282
 20
26.499999999999918
 30
0.0
 11
46.036068977081392
 21
26.500000000000799
 31
0.0
  0
LINE
  5
4348
  8
240
  6
CONTINUOUS
 10
32.00000000000216
 20
22.700000000004259
 30
0.0
 11
34.193931022920282
 21
26.499999999999918
 31
0.0
  0
LINE
  5
434A
  8
240
  6
CONTINUOUS
 10
21.999999999999972
 20
23.000000000001009
 30
0.0
 11
22.299999999999041
 21
22.700000000001999
 31
0.0
  0
LINE
  5
434B
  8
240
  6
CONTINUOUS
 10
22.299999999999041
 20
22.700000000001999
 30
0.0
 11
32.00000000000216
 21
22.700000000004259
 31
0.0
  0
LINE
  5
4355
  8
243
  6
HIDDEN2
 10
58.600000000000072
 20
-9.5250000000000341
 30
0.0
 11
101.59999999999999
 21
-9.5250000000000341
 31
0.0
  0
INSERT
  5
442B
  8
250
  6
CONTINUOUS
  2
_OPEN
 10
39.999999999999453
 20
28.031839846013781
 30
0.0
 41
1.999999999999996
 42
1.999999999999996
 43
1.999999999999996
 50
269.99999999999977
1001
ACAD
1000
DSTYLE
1002
{
1070
    41
1040
2.0
1070
   140
1040
2.799999999999998
1002
}
  0
POLYLINE
  5
442C
  8
250
  6
CONTINUOUS
 66
     1
 10
0.0
 20
0.0
 30
0.0
1001
ACAD
1000
DSTYLE
1002
{
1070
    41
1040
2.0
1070
   140
1040
2.799999999999998
1002
}
  0
VERTEX
  5
45D0
  8
250
  6
CONTINUOUS
 10
39.999999999999481
 20
30.031839846013732
 30
0.0
  0
VERTEX
  5
45D1
  8
250
  6
CONTINUOUS
 10
39.999999999999517
 20
36.021138633066499
 30
0.0
  0
SEQEND
  5
45D2
  8
250
  6
CONTINUOUS
  0
TEXT
  5
442D
  8
250
  6
CONTINUOUS
 10
35.4331063569375
 20
37.19446561503193
 30
0.0
 40
3.0
  1
Screw
  7
YOKO
 11
35.4331063569375
 21
37.19446561503193
 31
0.0
 73
     1
  0
TEXT
  5
4448
  8
241
  6
CONTINUOUS
 10
-48.399999999999977
 20
63.0
 30
0.0
 40
5.0
  1
BBT30-HDC.750-4
  7
YOKO
 11
-48.399999999999977
 21
63.0
 31
0.0
 73
     1
  0
LINE
  5
4498
  8
250
  6
CONTINUOUS
 10
102.09999999999999
 20
9.5250000000000341
 30
0.0
 11
113.0
 21
9.5250000000000323
 31
0.0
  0
LINE
  5
4499
  8
250
  6
CONTINUOUS
 10
102.09999999999999
 20
-9.5250000000000341
 30
0.0
 11
113.0
 21
-9.5250000000000359
 31
0.0
  0
LINE
  5
449A
  8
250
  6
CONTINUOUS
 10
112.0
 20
7.295000000000031
 30
0.0
 11
112.0
 21
-7.2950000000000346
 31
0.0
  0
LINE
  5
449E
  8
250
  6
CONTINUOUS
 10
102.10000000000009
 20
19.0
 30
0.0
 11
120.0
 21
18.999999999999989
 31
0.0
  0
LINE
  5
449F
  8
250
  6
CONTINUOUS
 10
102.09999999999989
 20
-19.0
 30
0.0
 11
120.0
 21
-19.000000000000011
 31
0.0
  0
LINE
  5
44A0
  8
250
  6
CONTINUOUS
 10
119.0
 20
16.769999999999989
 30
0.0
 11
119.0
 21
-16.77
 31
0.0
  0
LINE
  5
44A4
  8
250
  6
CONTINUOUS
 10
101.60000000000009
 20
19.5
 30
0.0
 11
101.60000000000009
 21
43.000000000000291
 31
0.0
  0
LINE
  5
44A5
  8
250
  6
CONTINUOUS
 10
24.399999999999981
 20
8.2999999999997822
 30
0.0
 11
24.399999999999981
 21
43.000000000000291
 31
0.0
  0
LINE
  5
44A6
  8
250
  6
CONTINUOUS
 10
99.370000000000104
 20
42.000000000000291
 30
0.0
 11
26.629999999999981
 21
42.000000000000291
 31
0.0
  0
LINE
  5
44AA
  8
250
  6
CONTINUOUS
 10
0.0
 20
16.375
 30
0.0
 11
0.0000000000000021
 21
50.0
 31
0.0
  0
LINE
  5
44AB
  8
250
  6
CONTINUOUS
 10
101.60000000000009
 20
19.5
 30
0.0
 11
101.60000000000009
 21
50.0
 31
0.0
  0
LINE
  5
44AC
  8
250
  6
CONTINUOUS
 10
2.2300000000000022
 20
49.0
 30
0.0
 11
99.370000000000104
 21
49.0
 31
0.0
  0
TEXT
  5
44B0
  8
250
  6
CONTINUOUS
 10
54.448666910840181
 20
43.000000000000277
 30
0.0
 40
2.7999999999999989
  1
(max.3.03)
  0
LINE
  5
44B1
  8
250
  6
CONTINUOUS
 10
26.629999999999981
 20
41.628333333333622
 30
0.0
 11
24.399999999999981
 21
42.000000000000291
 31
0.0
  0
LINE
  5
44B2
  8
250
  6
CONTINUOUS
 10
26.629999999999981
 20
42.371666666666961
 30
0.0
 11
24.399999999999981
 21
42.000000000000291
 31
0.0
  0
LINE
  5
44B3
  8
250
  6
CONTINUOUS
 10
24.399999999999981
 20
42.000000000000291
 30
0.0
 11
26.629999999999981
 21
42.000000000000291
 31
0.0
  0
LINE
  5
44B4
  8
250
  6
CONTINUOUS
 10
99.370000000000104
 20
42.371666666666961
 30
0.0
 11
101.60000000000009
 21
42.000000000000291
 31
0.0
  0
LINE
  5
44B5
  8
250
  6
CONTINUOUS
 10
99.370000000000104
 20
41.628333333333622
 30
0.0
 11
101.60000000000009
 21
42.000000000000291
 31
0.0
  0
LINE
  5
44B6
  8
250
  6
CONTINUOUS
 10
101.60000000000009
 20
42.000000000000291
 30
0.0
 11
99.370000000000104
 21
42.000000000000291
 31
0.0
  0
TEXT
  5
44B7
  8
250
  6
CONTINUOUS
 10
49.400000000000048
 20
50.0
 30
0.0
 40
2.7999999999999989
  1
4.00
  0
LINE
  5
44B8
  8
250
  6
CONTINUOUS
 10
99.370000000000104
 20
49.37166666666667
 30
0.0
 11
101.60000000000009
 21
49.0
 31
0.0
  0
LINE
  5
44B9
  8
250
  6
CONTINUOUS
 10
99.370000000000104
 20
48.62833333333333
 30
0.0
 11
101.60000000000009
 21
49.0
 31
0.0
  0
LINE
  5
44BA
  8
250
  6
CONTINUOUS
 10
101.60000000000009
 20
49.0
 30
0.0
 11
99.370000000000104
 21
49.0
 31
0.0
  0
LINE
  5
44BB
  8
250
  6
CONTINUOUS
 10
2.2300000000000022
 20
48.62833333333333
 30
0.0
 11
0.000000000000002
 21
49.0
 31
0.0
  0
LINE
  5
44BC
  8
250
  6
CONTINUOUS
 10
2.2300000000000022
 20
49.37166666666667
 30
0.0
 11
0.000000000000002
 21
49.0
 31
0.0
  0
LINE
  5
44BD
  8
250
  6
CONTINUOUS
 10
0.000000000000002
 20
49.0
 30
0.0
 11
2.2300000000000022
 21
49.0
 31
0.0
  0
TEXT
  5
44BE
  8
250
  6
CONTINUOUS
 10
111.0
 20
-5.9333333333333149
 30
0.0
 40
2.7999999999999989
  1
\U+2205.750
 50
90.0
  0
LINE
  5
44BF
  8
250
  6
CONTINUOUS
 10
112.3716666666666
 20
-7.2950000000000346
 30
0.0
 11
112.0
 21
-9.5250000000000359
 31
0.0
  0
LINE
  5
44C0
  8
250
  6
CONTINUOUS
 10
111.6283333333333
 20
-7.2950000000000346
 30
0.0
 11
112.0
 21
-9.5250000000000359
 31
0.0
  0
LINE
  5
44C1
  8
250
  6
CONTINUOUS
 10
112.0
 20
-9.5250000000000359
 30
0.0
 11
112.0
 21
-7.2950000000000346
 31
0.0
  0
LINE
  5
44C2
  8
250
  6
CONTINUOUS
 10
111.6283333333333
 20
7.295000000000031
 30
0.0
 11
112.0
 21
9.5250000000000323
 31
0.0
  0
LINE
  5
44C3
  8
250
  6
CONTINUOUS
 10
112.3716666666666
 20
7.295000000000031
 30
0.0
 11
112.0
 21
9.5250000000000323
 31
0.0
  0
LINE
  5
44C4
  8
250
  6
CONTINUOUS
 10
112.0
 20
9.5250000000000323
 30
0.0
 11
112.0
 21
7.295000000000031
 31
0.0
  0
TEXT
  5
44C5
  8
250
  6
CONTINUOUS
 10
118.0
 20
-7.2666666666666506
 30
0.0
 40
2.7999999999999989
  1
\U+22051.496
 50
90.0
  0
LINE
  5
44C6
  8
250
  6
CONTINUOUS
 10
119.3716666666666
 20
-16.77
 30
0.0
 11
119.0
 21
-19.0
 31
0.0
  0
LINE
  5
44C7
  8
250
  6
CONTINUOUS
 10
118.6283333333333
 20
-16.77
 30
0.0
 11
119.0
 21
-19.0
 31
0.0
  0
LINE
  5
44C8
  8
250
  6
CONTINUOUS
 10
119.0
 20
-19.0
 30
0.0
 11
119.0
 21
-16.77
 31
0.0
  0
LINE
  5
44C9
  8
250
  6
CONTINUOUS
 10
118.6283333333333
 20
16.769999999999989
 30
0.0
 11
119.0
 21
18.999999999999989
 31
0.0
  0
LINE
  5
44CA
  8
250
  6
CONTINUOUS
 10
119.3716666666666
 20
16.769999999999989
 30
0.0
 11
119.0
 21
18.999999999999989
 31
0.0
  0
LINE
  5
44CB
  8
250
  6
CONTINUOUS
 10
119.0
 20
18.999999999999989
 30
0.0
 11
119.0
 21
16.769999999999989
 31
0.0
  0
VIEWPORT
  5
22
 67
     1
  8
0
 10
261.51769911504419
 20
148.5
 30
0.0
 40
523.0353982300885
 41
297.0
 68
     1
 69
     1
1001
ACAD
1000
MVIEW
1002
{
1070
    16
1010
0.0
1020
0.0
1030
0.0
1010
0.0
1020
0.0
1030
1.0
1040
0.0
1040
297.0
1040
261.51769911504419
1040
148.5
1040
50.0
1040
0.0
1040
0.0
1070
     0
1070
   100
1070
     1
1070
     1
1070
     0
1070
     0
1070
     0
1070
     0
1040
0.0
1040
0.0
1040
0.0
1040
1.0
1040
1.0
1040
10.0
1040
10.0
1070
     0
1002
{
1002
}
1002
}
1001
GENIUS_GENODEF_13
1002
{
1000
HIER
1070
     0
1002
}
1002
{
1000
MANEDIT
1070
     0
1002
}
1002
{
1000
NOSEL
1070
     0
1002
}
1002
{
1000
BEHIND
1070
     0
1002
}
1002
{
1000
OTHER
1070
     0
1002
}
1002
{
1000
REACTOR
1002
}
1001
GENIUS_GENOBJ-N-SDF_13
1002
{
1000
OWNER
1000
GEN
1002
}
1001
GENIUS_GENSCREG_15
1000
PF
1040
1.0
1000
DF
1040
1.0
1000
MIN
1011
0.0
1021
0.0
1031
4.3297110814543945E+262
1021
0.0
1031
0.0
1000
MAX
1011
523.0353982300885
1021
0.0
1031
4.3297110814543945E+262
1021
297.0
1031
0.0
1000
FLAGS
1070
     4
  0
ENDSEC
  0
EOF
