  0
SECTION
  2
HEADER
  9
$ACADVER
  1
AC1009
  9
$INSBASE
 10
0.0
 20
0.0
 30
0.0
  9
$EXTMIN
 10
-49.4000000000000128
 20
-23.0000000000020997
 30
0.0
  9
$EXTMAX
 10
85.0
 20
68.0
 30
0.0
  9
$LIMMIN
 10
0.0
 20
0.0
  9
$LIMMAX
 10
297.0
 20
210.0
  9
$ORTHOMODE
 70
     1
  9
$REGENMODE
 70
     1
  9
$FILLMODE
 70
     1
  9
$QTEXTMODE
 70
     0
  9
$MIRRTEXT
 70
     1
  9
$DRAGMODE
 70
     2
  9
$LTSCALE
 40
10.0
  9
$OSMODE
 70
   807
  9
$ATTMODE
 70
     1
  9
$TEXTSIZE
 40
3.0
  9
$TRACEWID
 40
1.0
  9
$TEXTSTYLE
  7
YOKO
  9
$CLAYER
  8
240
  9
$CELTYPE
  6
BYLAYER
  9
$CECOLOR
 62
   256
  9
$DIMSCALE
 40
1.0
  9
$DIMASZ
 40
2.2299999999999991
  9
$DIMEXO
 40
0.5
  9
$DIMDLI
 40
7.0
  9
$DIMRND
 40
0.0
  9
$DIMDLE
 40
0.0
  9
$DIMEXE
 40
1.0
  9
$DIMTP
 40
0.0
  9
$DIMTM
 40
0.01
  9
$DIMTXT
 40
2.799999999999998
  9
$DIMCEN
 40
0.0
  9
$DIMTSZ
 40
0.0
  9
$DIMTOL
 70
     0
  9
$DIMLIM
 70
     0
  9
$DIMTIH
 70
     0
  9
$DIMTOH
 70
     0
  9
$DIMSE1
 70
     0
  9
$DIMSE2
 70
     0
  9
$DIMTAD
 70
     3
  9
$DIMZIN
 70
     9
  9
$DIMBLK
  1
OPEN
  9
$DIMASO
 70
     1
  9
$DIMSHO
 70
     1
  9
$DIMPOST
  1

  9
$DIMAPOST
  1

  9
$DIMALT
 70
     0
  9
$DIMALTD
 70
     2
  9
$DIMALTF
 40
25.3999999999999986
  9
$DIMLFAC
 40
1.0
  9
$DIMTOFL
 70
     1
  9
$DIMTVP
 40
0.0
  9
$DIMTIX
 70
     1
  9
$DIMSOXD
 70
     0
  9
$DIMSAH
 70
     0
  9
$DIMBLK1
  1

  9
$DIMBLK2
  1

  9
$DIMSTYLE
  2
BIGT
  9
$DIMCLRD
 70
   256
  9
$DIMCLRE
 70
   256
  9
$DIMCLRT
 70
    40
  9
$DIMTFAC
 40
1.0
  9
$DIMGAP
 40
1.0
  9
$LUNITS
 70
     2
  9
$LUPREC
 70
     6
  9
$SKETCHINC
 40
1.0
  9
$FILLETRAD
 40
0.0
  9
$AUNITS
 70
     0
  9
$AUPREC
 70
     6
  9
$MENU
  1
.
  9
$ELEVATION
 40
0.0
  9
$PELEVATION
 40
0.0
  9
$THICKNESS
 40
0.0
  9
$LIMCHECK
 70
     0
  9
$BLIPMODE
 70
     0
  9
$CHAMFERA
 40
0.2
  9
$CHAMFERB
 40
0.2
  9
$SKPOLY
 70
     0
  9
$TDCREATE
 40
2458137.3654282409697771
  9
$TDUPDATE
 40
2458152.7232060190290213
  9
$TDINDWG
 40
0.0122459838
  9
$TDUSRTIMER
 40
0.0122459491
  9
$USRTIMER
 70
     1
  9
$ANGBASE
 50
0.0
  9
$ANGDIR
 70
     0
  9
$PDMODE
 70
     1
  9
$PDSIZE
 40
0.0
  9
$PLINEWID
 40
0.0
  9
$COORDS
 70
     1
  9
$SPLFRAME
 70
     0
  9
$SPLINETYPE
 70
     6
  9
$SPLINESEGS
 70
     4
  9
$ATTDIA
 70
     1
  9
$ATTREQ
 70
     1
  9
$HANDLING
 70
     1
  9
$HANDSEED
  5
47E0
  9
$SURFTAB1
 70
     6
  9
$SURFTAB2
 70
     6
  9
$SURFTYPE
 70
     6
  9
$SURFU
 70
     6
  9
$SURFV
 70
     6
  9
$UCSNAME
  2

  9
$UCSORG
 10
0.0
 20
0.0
 30
0.0
  9
$UCSXDIR
 10
1.0
 20
0.0
 30
0.0
  9
$UCSYDIR
 10
0.0
 20
1.0
 30
0.0
  9
$PUCSNAME
  2

  9
$PUCSORG
 10
0.0
 20
0.0
 30
0.0
  9
$PUCSXDIR
 10
1.0
 20
0.0
 30
0.0
  9
$PUCSYDIR
 10
0.0
 20
1.0
 30
0.0
  9
$USERI1
 70
     1
  9
$USERI2
 70
     0
  9
$USERI3
 70
     0
  9
$USERI4
 70
     0
  9
$USERI5
 70
     0
  9
$USERR1
 40
0.0
  9
$USERR2
 40
0.0
  9
$USERR3
 40
0.0
  9
$USERR4
 40
0.0
  9
$USERR5
 40
0.0
  9
$WORLDVIEW
 70
     1
  9
$SHADEDGE
 70
     3
  9
$SHADEDIF
 70
    70
  9
$TILEMODE
 70
     1
  9
$MAXACTVP
 70
    16
  9
$PLIMCHECK
 70
     0
  9
$PEXTMIN
 10
1.0000000000000000E+20
 20
1.0000000000000000E+20
 30
1.0000000000000000E+20
  9
$PEXTMAX
 10
-1.0000000000000000E+20
 20
-1.0000000000000000E+20
 30
-1.0000000000000000E+20
  9
$PLIMMIN
 10
0.0
 20
0.0
  9
$PLIMMAX
 10
420.0
 20
297.0
  9
$UNITMODE
 70
     0
  9
$VISRETAIN
 70
     1
  9
$PLINEGEN
 70
     0
  9
$PSLTSCALE
 70
     1
  0
ENDSEC
  0
SECTION
  2
TABLES
  0
TABLE
  2
VPORT
 70
     1
  0
VPORT
  2
*ACTIVE
 70
     0
 10
0.0
 20
0.0
 11
1.0
 21
1.0
 12
44.9772935454487666
 22
20.6884055819225416
 13
0.0
 23
0.0
 14
7.0
 24
7.0
 15
7.0
 25
7.0
 16
0.0
 26
0.0
 36
1.0
 17
0.0
 27
0.0
 37
0.0
 40
115.5299008522201945
 41
1.9861809045226131
 42
50.0
 43
0.0
 44
0.0
 50
0.0
 51
0.0
 71
     0
 72
  2000
 73
     1
 74
     0
 75
     0
 76
     1
 77
     0
 78
     0
  0
ENDTAB
  0
TABLE
  2
LTYPE
 70
    20
  0
LTYPE
  2
CONTINUOUS
 70
     0
  3
Solid line
 72
    65
 73
     0
 40
0.0
  0
LTYPE
  2
CENTER2
 70
     0
  3
___ _ ___ _ ___ _ ___ _ ___ _ ___ _ ___ _ ___ _
 72
    65
 73
     4
 40
1.125
 49
0.75
 49
-0.125
 49
0.125
 49
-0.125
  0
LTYPE
  2
HIDDEN2
 70
     0
  3
_ _ _ _ _ _ _ _ _ _ _ _ _ _ _ _ _ _ _ _ _ _ _ _
 72
    65
 73
     2
 40
0.1875
 49
0.125
 49
-0.0625
  0
LTYPE
  2
AMCONSTR
 70
     0
  3
_______________________
 72
    65
 73
     2
 40
9999.0
 49
9999.0
 49
0.0
  0
LTYPE
  2
HIDDEN
 70
     0
  3
Hidden __ __ __ __ __ __ __ __ __ __ __ __ __ _
 72
    65
 73
     2
 40
0.375
 49
0.25
 49
-0.125
  0
LTYPE
  2
PHANTOM2
 70
     0
  3
Phantom (.5x) ___ _ _ ___ _ _ ___ _ _ ___ _ _
 72
    65
 73
     6
 40
1.25
 49
0.625
 49
-0.125
 49
0.125
 49
-0.125
 49
0.125
 49
-0.125
  0
LTYPE
  2
CENTER
 70
     0
  3
Center ____ _ ____ _ ____ _ ____ _ ____ _ ____
 72
    65
 73
     4
 40
2.0
 49
1.25
 49
-0.25
 49
0.25
 49
-0.25
  0
LTYPE
  2
AMZIGZAG2
 70
     0
  3
/\/-/\/-/\/-/\/-/\/-/\/
 72
    65
 73
     2
 40
0.4401
 49
0.0001
 49
-0.4400000000000001
  0
LTYPE
  2
ACANSTGB
 70
     0
  3
__ . . __ . .
 72
    65
 73
     6
 40
0.35433070866
 49
0.15748031496
 49
-0.03937007874
 49
0.03937007874
 49
-0.03937007874
 49
0.03937007874
 49
-0.03937007874
  0
LTYPE
  2
ACANSTGL
 70
     0
  3
_ _ _ _ _
 72
    65
 73
     2
 40
0.11811023622
 49
0.07874015748
 49
-0.03937007874
  0
ENDTAB
  0
TABLE
  2
LAYER
 70
     8
  0
LAYER
  2
0
 70
     0
 62
     7
  6
CONTINUOUS
  0
LAYER
  2
240
 70
     0
 62
     4
  6
CONTINUOUS
  0
LAYER
  2
DEFPOINTS
 70
     0
 62
     7
  6
CONTINUOUS
  0
LAYER
  2
245
 70
     0
 62
     2
  6
CENTER2
  0
LAYER
  2
241
 70
     0
 62
   211
  6
CONTINUOUS
  0
LAYER
  2
243
 70
     0
 62
   211
  6
HIDDEN2
  0
LAYER
  2
247
 70
     0
 62
    60
  6
CONTINUOUS
  0
LAYER
  2
250
 70
     0
 62
     3
  6
CONTINUOUS
  0
ENDTAB
  0
TABLE
  2
STYLE
 70
     7
  0
STYLE
  2
STANDARD
 70
     0
 40
0.0
 41
1.0
 50
0.0
 71
     0
 42
3.0
  3
romans.shx
  4
extfont.shx
  0
STYLE
  2
YOKO
 70
     0
 40
0.0
 41
1.0
 50
0.0
 71
     0
 42
3.0
  3
romans.shx
  4
extfont.shx
  0
STYLE
  2

 70
     1
 40
0.0
 41
1.0
 50
0.0
 71
     0
 42
3.0
  3
genltshp.shx
  4

  0
STYLE
  2
ACANSGDT
 70
     0
 40
0.0
 41
1.0
 50
0.0
 71
     0
 42
3.0
  3
amgdt.shx
  4

  0
ENDTAB
  0
TABLE
  2
VIEW
 70
     0
  0
ENDTAB
  0
TABLE
  2
UCS
 70
     0
  0
ENDTAB
  0
TABLE
  2
APPID
 70
    43
  0
APPID
  2
ACAD
 70
     0
  0
APPID
  2
ACADANNOTATIVE
 70
     0
  0
APPID
  2
GLOBAL
 70
     0
  0
APPID
  2
DETAIL
 70
     0
  0
APPID
  2
GRPNAME
 70
     0
  0
APPID
  2
GPARA
 70
     0
  0
APPID
  2
MCAD_NO_VIS
 70
     0
  0
APPID
  2
ACAD_TEMP_GRAPHIC
 70
     0
  0
APPID
  2
ACATTRIBSERVICES
 70
     0
  0
APPID
  2
GENIUS_GENSCREG_15
 70
     0
  0
APPID
  2
GENIUS_GENODEF_13
 70
     0
  0
APPID
  2
GENIUS_GENOBJ-N-SDF_13
 70
     0
  0
APPID
  2
GENIUS_GENREC_14
 70
     0
  0
APPID
  2
GENIUS_GENOBJ-N-REC_13
 70
     0
  0
APPID
  2
GENIUS_GENDIMSH_14
 70
     0
  0
APPID
  2
GENIUS_GENOBJ-N-DIM_13
 70
     0
  0
APPID
  2
GENIUS_GENDIM_13
 70
     0
  0
APPID
  2
GENIUS_GENDTOL_13
 70
     0
  0
APPID
  2
GENIUS_GENOLIS_13
 70
     0
  0
APPID
  2
GENIUS_GENOENT_13
 70
     0
  0
APPID
  2
GENIUS_GENOBJ-F-FEM_13
 70
     0
  0
APPID
  2
GENIUS_GENOREF_13
 70
     0
  0
APPID
  2
GENIUS_GEFFEM_13
 70
     0
  0
APPID
  2
GENIUS_GEFFEMP_13
 70
     0
  0
APPID
  2
AD_DRAW
 70
     0
  0
APPID
  2
DESIGNERASSEMBLIES
 70
     0
  0
APPID
  2
ACADM_DIM_EDIT
 70
     0
  0
APPID
  2
AMDT_DM_ADJ
 70
     0
  0
APPID
  2
ITEMNAME
 70
     0
  0
APPID
  2
GENIUS_GENOBJ-N-FIL_13
 70
     0
  0
APPID
  2
GENIUS_GENFIL_13
 70
     0
  0
APPID
  2
GENIUS_GENOBJ-N-CHA_13
 70
     0
  0
APPID
  2
ACAECLAYERSTANDARD
 70
     0
  0
APPID
  2
ACAD_NAV_VCDISPLAY
 70
     0
  0
APPID
  2
LAYER_SCALE
 70
     0
  0
APPID
  2
ACAD_PSEXT
 70
     0
  0
APPID
  2
ASK_MEN_XD
 70
     0
  0
APPID
  2
ACAD_DSTYLE_DIMJAG
 70
     0
  0
APPID
  2
ACAD_DSTYLE_DIMBREAK
 70
     0
  0
APPID
  2
ACAD_DSTYLE_DIMINSPECT
 70
     0
  0
APPID
  2
ACAD_DSTYLE_DIMANGULAR_EXT
 70
     0
  0
APPID
  2
ACAD_EXEMPT_FROM_CAD_STANDARDS
 70
     0
  0
APPID
  2
ACAD_MLEADERVER
 70
     0
  0
ENDTAB
  0
TABLE
  2
DIMSTYLE
 70
    17
  0
DIMSTYLE
  2
STANDARD
 70
     0
  3

  4

  5

  6

  7

 40
1.0
 41
0.18
 42
0.0625
 43
0.38
 44
0.18
 45
0.0
 46
0.0
 47
0.0
 48
0.0
140
0.18
141
0.09
142
0.0
143
25.3999999999999986
144
1.0
145
0.0
146
1.0
147
0.09
 71
     0
 72
     0
 73
     1
 74
     1
 75
     0
 76
     0
 77
     0
 78
     0
170
     0
171
     2
172
     0
173
     0
174
     0
175
     0
176
     0
177
     0
178
     0
  0
DIMSTYLE
  2
BIGT
 70
     0
  3

  4

  5

  6

  7

 40
1.0
 41
2.2299999999999991
 42
0.5
 43
7.0
 44
1.0
 45
0.0
 46
0.0
 47
0.0
 48
0.01
140
2.799999999999998
141
0.0
142
0.0
143
25.3999999999999986
144
1.0
145
0.0
146
1.0
147
1.0
 71
     0
 72
     0
 73
     0
 74
     0
 75
     0
 76
     0
 77
     3
 78
     9
170
     0
171
     2
172
     1
173
     0
174
     1
175
     0
176
   256
177
   256
178
    40
  0
DIMSTYLE
  2
AM_ANSI
 70
     0
  3

  4
mm
  5

  6

  7

 40
1.0
 41
0.12
 42
0.05
 43
0.5
 44
0.1
 45
0.0
 46
0.0
 47
0.1
 48
0.1
140
0.12
141
0.0
142
0.0
143
25.3999999999999986
144
1.0
145
0.0
146
0.71
147
0.06
 71
     0
 72
     0
 73
     1
 74
     1
 75
     0
 76
     0
 77
     0
 78
     7
170
     0
171
     2
172
     0
173
     0
174
     0
175
     0
176
   256
177
   256
178
     2
  0
DIMSTYLE
  2
AM_ANSI$3
 70
     0
  3

  4
mm
  5

  6

  7

 40
1.0
 41
0.12
 42
0.05
 43
0.5
 44
0.1
 45
0.0
 46
0.0
 47
0.1
 48
0.1
140
0.12
141
0.0
142
0.0
143
25.3999999999999986
144
1.0
145
0.0
146
0.71
147
0.06
 71
     0
 72
     0
 73
     1
 74
     1
 75
     0
 76
     0
 77
     0
 78
     7
170
     0
171
     2
172
     0
173
     0
174
     0
175
     0
176
   256
177
   256
178
     2
  0
DIMSTYLE
  2
AM_ANSI$4
 70
     0
  3

  4
mm
  5

  6

  7

 40
1.0
 41
0.12
 42
0.05
 43
0.5
 44
0.1
 45
0.0
 46
0.0
 47
0.1
 48
0.1
140
0.12
141
0.0
142
0.0
143
25.3999999999999986
144
1.0
145
0.0
146
0.71
147
0.06
 71
     0
 72
     0
 73
     1
 74
     1
 75
     0
 76
     0
 77
     0
 78
     7
170
     0
171
     2
172
     0
173
     0
174
     0
175
     0
176
   256
177
   256
178
     2
  0
DIMSTYLE
  2
AM_ANSI$7
 70
     0
  3

  4
mm
  5

  6

  7

 40
1.0
 41
0.12
 42
0.05
 43
0.5
 44
0.1
 45
0.0
 46
0.0
 47
0.1
 48
0.1
140
0.12
141
0.0
142
0.0
143
25.3999999999999986
144
1.0
145
0.0
146
0.71
147
0.06
 71
     0
 72
     0
 73
     1
 74
     1
 75
     0
 76
     0
 77
     0
 78
     7
170
     0
171
     2
172
     0
173
     0
174
     0
175
     0
176
   256
177
   256
178
     2
  0
DIMSTYLE
  2
AM_ANSI$SF
 70
     0
  3

  4
mm
  5

  6

  7

 40
1.0
 41
0.12
 42
0.05
 43
0.5
 44
0.1
 45
0.0
 46
0.0
 47
0.1
 48
0.1
140
0.12
141
0.0
142
0.0
143
25.3999999999999986
144
1.0
145
0.0
146
0.71
147
0.06
 71
     0
 72
     0
 73
     1
 74
     1
 75
     1
 76
     1
 77
     0
 78
     7
170
     0
171
     2
172
     0
173
     0
174
     0
175
     0
176
   256
177
   256
178
     2
  0
DIMSTYLE
  2
AM_ANSI$SH
 70
     0
  3

  4
mm
  5

  6
GENAXEH
  7

 40
1.0
 41
0.12
 42
0.05
 43
0.5
 44
0.1
 45
0.0
 46
0.0
 47
0.1
 48
0.1
140
0.12
141
0.0
142
0.0
143
25.3999999999999986
144
1.0
145
0.0
146
0.71
147
0.06
 71
     0
 72
     0
 73
     1
 74
     1
 75
     1
 76
     1
 77
     0
 78
     7
170
     0
171
     2
172
     0
173
     1
174
     0
175
     0
176
   256
177
   256
178
     2
  0
ENDTAB
  0
ENDSEC
  0
SECTION
  2
BLOCKS
  0
BLOCK
  8
0
  2
$MODEL_SPACE
 70
     0
 10
0.0
 20
0.0
 30
0.0
  3
$MODEL_SPACE
  1

  0
ENDBLK
  5
46AA
  8
0
  0
BLOCK
 67
     1
  8
0
  2
$PAPER_SPACE
 70
     0
 10
0.0
 20
0.0
 30
0.0
  3
$PAPER_SPACE
  1

  0
ENDBLK
  5
46A6
 67
     1
  8
0
  0
BLOCK
  8
0
  2
_OPEN
 70
     0
 10
0.0
 20
0.0
 30
0.0
  3
_OPEN
  1

  0
LINE
  5
3E1A
  8
0
  6
BYBLOCK
 62
     0
 10
-1.0
 20
0.1666666666666666
 30
0.0
 11
0.0
 21
0.0
 31
0.0
  0
LINE
  5
3E1B
  8
0
  6
BYBLOCK
 62
     0
 10
-1.0
 20
-0.1666666666666666
 30
0.0
 11
0.0
 21
0.0
 31
0.0
  0
LINE
  5
3E1C
  8
0
  6
BYBLOCK
 62
     0
 10
0.0
 20
0.0
 30
0.0
 11
-1.0
 21
0.0
 31
0.0
  0
ENDBLK
  5
3E1D
  8
0
  0
BLOCK
  8
0
  2
GENAXEH
 70
     0
 10
0.0
 20
0.0
 30
0.0
  3
GENAXEH
  1

  0
LINE
  5
3E45
  8
0
 10
-1.0
 20
0.0
 30
0.0
 11
1.0
 21
0.0
 31
0.0
  0
ENDBLK
  5
3E46
  8
0
  0
BLOCK
  8
0
  2
_ACMFILLEDHALF
 70
     0
 10
0.0
 20
0.0
 30
0.0
  3
_ACMFILLEDHALF
  1

  0
TRACE
  5
4759
  8
240
 62
     0
 10
-0.8
 20
0.0
 30
0.0
 11
-1.0
 21
0.166666666
 31
0.0
 12
0.0
 22
0.0
 32
0.0
 13
0.0
 23
0.0
 33
0.0
  0
LINE
  5
475A
  8
240
 62
     0
 10
-1.0
 20
0.0
 30
0.0
 11
-0.8
 21
0.0
 31
0.0
  0
ENDBLK
  5
4758
  8
0
  0
ENDSEC
  0
SECTION
  2
ENTITIES
  0
LINE
  5
42A1
  8
240
  6
CONTINUOUS
 10
17.5999999999999908
 20
23.0
 30
0.0
 11
22.0
 21
23.0
 31
0.0
  0
LINE
  5
42A2
  8
243
  6
HIDDEN2
 10
19.0
 20
16.3000000000000114
 30
0.0
 11
1.0
 21
16.3000000000000114
 31
0.0
  0
LINE
  5
42A3
  8
240
  6
CONTINUOUS
 10
17.5999999999999908
 20
-23.0
 30
0.0
 11
22.0
 21
-23.0
 31
0.0
  0
LINE
  5
42A4
  8
243
  6
HIDDEN2
 10
19.0
 20
-16.3000000000000114
 30
0.0
 11
1.0
 21
-16.3000000000000114
 31
0.0
  0
LINE
  5
42A5
  8
245
  6
CENTER2
 10
-49.4000000000000128
 20
0.0
 30
0.0
 11
65.5381833989225697
 21
0.0
 31
0.0
  0
LINE
  5
42A6
  8
240
  6
CONTINUOUS
 10
-48.3999999999999773
 20
-8.8165000019866966
 30
0.0
 11
0.0
 21
-15.875
 31
0.0
  0
LINE
  5
42A7
  8
240
  6
CONTINUOUS
 10
-48.3999999999999773
 20
-8.8165000019866966
 30
0.0
 11
-48.3999999999999773
 21
8.8165000019866966
 31
0.0
  0
LINE
  5
42A8
  8
240
  6
CONTINUOUS
 10
15.2905989200000096
 20
-19.0
 30
0.0
 11
17.5999999999999908
 21
-23.0
 31
0.0
  0
LINE
  5
42A9
  8
240
  6
CONTINUOUS
 10
11.9094010800000092
 20
-19.0
 30
0.0
 11
9.5999999999999943
 21
-23.0
 31
0.0
  0
LINE
  5
42AA
  8
240
  6
CONTINUOUS
 10
1.0
 20
-15.875
 30
0.0
 11
1.0
 21
-23.0
 31
0.0
  0
LINE
  5
42AB
  8
241
  6
CONTINUOUS
 10
17.5999999999999801
 20
23.0000000000000604
 30
0.0
 11
17.5999999999999908
 21
-23.0
 31
0.0
  0
LINE
  5
42AC
  8
241
  6
CONTINUOUS
 10
9.5999999999999943
 20
-23.0
 30
0.0
 11
9.5999999999999943
 21
23.0
 31
0.0
  0
LINE
  5
42AD
  8
240
  6
CONTINUOUS
 10
9.5999999999999943
 20
-23.0
 30
0.0
 11
1.0
 21
-23.0
 31
0.0
  0
LINE
  5
42AE
  8
241
  6
CONTINUOUS
 10
15.2905989200000096
 20
-19.0
 30
0.0
 11
15.2905989199999901
 21
19.0
 31
0.0
  0
LINE
  5
42AF
  8
241
  6
CONTINUOUS
 10
11.9094010800000092
 20
-19.0
 30
0.0
 11
11.9094010799999808
 21
19.0
 31
0.0
  0
LINE
  5
42B0
  8
241
  6
CONTINUOUS
 10
0.0
 20
-15.875
 30
0.0
 11
0.0
 21
15.875
 31
0.0
  0
LINE
  5
42B1
  8
241
  6
CONTINUOUS
 10
1.0
 20
15.875
 30
0.0
 11
1.0
 21
-15.875
 31
0.0
  0
LINE
  5
42B2
  8
240
  6
CONTINUOUS
 10
0.0
 20
-15.875
 30
0.0
 11
1.0
 21
-15.875
 31
0.0
  0
LINE
  5
42B3
  8
240
  6
CONTINUOUS
 10
11.9094010800000092
 20
-19.0
 30
0.0
 11
15.2905989200000096
 21
-19.0
 31
0.0
  0
LINE
  5
42B4
  8
240
  6
CONTINUOUS
 10
-48.3999999999999773
 20
8.8165000019866966
 30
0.0
 11
0.0
 21
15.875
 31
0.0
  0
LINE
  5
42B5
  8
240
  6
CONTINUOUS
 10
15.2905989200000096
 20
19.0
 30
0.0
 11
17.5999999999999908
 21
23.0
 31
0.0
  0
LINE
  5
42B6
  8
240
  6
CONTINUOUS
 10
11.9094010800000092
 20
19.0
 30
0.0
 11
9.5999999999999943
 21
23.0
 31
0.0
  0
LINE
  5
42B7
  8
240
  6
CONTINUOUS
 10
1.0
 20
15.875
 30
0.0
 11
1.0
 21
23.0
 31
0.0
  0
LINE
  5
42B8
  8
240
  6
CONTINUOUS
 10
0.0
 20
15.875
 30
0.0
 11
1.0
 21
15.875
 31
0.0
  0
LINE
  5
42B9
  8
240
  6
CONTINUOUS
 10
11.9094010800000092
 20
19.0
 30
0.0
 11
15.2905989200000096
 21
19.0
 31
0.0
  0
LINE
  5
42BA
  8
240
  6
CONTINUOUS
 10
9.5999999999999943
 20
23.0
 30
0.0
 11
1.0
 21
23.0
 31
0.0
  0
LINE
  5
42BB
  8
241
  6
CONTINUOUS
 10
22.0
 20
-23.0
 30
0.0
 11
22.0
 21
23.0
 31
0.0
  0
LINE
  5
42BC
  8
243
  6
HIDDEN2
 10
19.0
 20
-16.3000000000000114
 30
0.0
 11
19.0
 21
-23.0
 31
0.0
  0
LINE
  5
42BD
  8
243
  6
HIDDEN2
 10
19.0
 20
16.3000000000000114
 30
0.0
 11
19.0
 21
23.0
 31
0.0
  0
LINE
  5
42BE
  8
247
  6
CONTINUOUS
 10
6.4999999999999432
 20
-13.75
 30
0.0
 11
6.5
 21
-9.1153846156699974
 31
0.0
  0
LINE
  5
42BF
  8
247
  6
CONTINUOUS
 10
4.0
 20
-12.9548934999879197
 30
0.0
 11
6.0999999999160082
 21
-13.5570588100573506
 31
0.0
  0
LINE
  5
42C0
  8
247
  6
CONTINUOUS
 10
4.996153846113998
 20
-12.3251514035190404
 30
0.0
 11
4.996153846113998
 21
-13.2405360188670294
 31
0.0
  0
ARC
  5
42C1
  8
247
  6
CONTINUOUS
 10
4.3847190672940961
 20
-12.0872634019467498
 30
0.0
 40
0.3876715809326743
 50
72.9978896752930098
 51
172.9241662185135056
  0
ARC
  5
42C2
  8
247
  6
CONTINUOUS
 10
4.305223131028014
 20
-12.3824775568040693
 30
0.0
 40
0.6933047965358772
 50
4.7429368522022122
 51
73.8492262732667513
1001
GENIUS_GENOBJ-N-FIL_13
1002
{
1000
OWNER
1000
GEN
1002
}
1001
GENIUS_GENODEF_13
1002
{
1000
HIER
1070
     0
1002
}
1002
{
1000
MANEDIT
1070
     0
1002
}
1002
{
1000
NOSEL
1070
     0
1002
}
1002
{
1000
BEHIND
1070
     0
1002
}
1002
{
1000
OTHER
1070
     0
1002
}
1002
{
1000
REACTOR
1002
}
  0
LINE
  5
42C3
  8
247
  6
CONTINUOUS
 10
6.0999999999160082
 20
-12.6416741947093598
 30
0.0
 11
6.0999999999160082
 21
-13.5570588100573506
 31
0.0
  0
LINE
  5
42C4
  8
247
  6
CONTINUOUS
 10
4.0
 20
-12.9548934999879197
 30
0.0
 11
4.0
 21
-12.0395088846399307
 31
0.0
  0
ARC
  5
42C5
  8
247
  6
CONTINUOUS
 10
5.3874169627678707
 20
-12.3783064762668005
 30
0.0
 40
0.394857301075386
 50
65.990941652528889
 51
172.2634434590690944
  0
ARC
  5
42C6
  8
247
  6
CONTINUOUS
 10
5.391200327332565
 20
-12.7124466104269196
 30
0.0
 40
0.7123241612361686
 50
5.701985164256504
 51
77.2773384368220064
1001
GENIUS_GENOBJ-N-FIL_13
1002
{
1000
OWNER
1000
GEN
1002
}
1001
GENIUS_GENODEF_13
1002
{
1000
HIER
1070
     0
1002
}
1002
{
1000
MANEDIT
1070
     0
1002
}
1002
{
1000
NOSEL
1070
     0
1002
}
1002
{
1000
BEHIND
1070
     0
1002
}
1002
{
1000
OTHER
1070
     0
1002
}
1002
{
1000
REACTOR
1002
}
  0
LINE
  5
42C7
  8
247
  6
CONTINUOUS
 10
6.0999999999160082
 20
-11.6839818870633394
 30
0.0
 11
4.0
 21
-11.0818165769939601
 31
0.0
  0
LINE
  5
42C8
  8
247
  6
CONTINUOUS
 10
4.0
 20
-9.5856627309079272
 30
0.0
 11
4.0
 21
-9.9816783643035496
 31
0.0
  0
LINE
  5
42C9
  8
247
  6
CONTINUOUS
 10
6.0999999999160082
 20
-10.60873965394393
 30
0.0
 11
6.0999999999160082
 21
-10.1779704231919297
 31
0.0
  0
ARC
  5
42CA
  8
247
  6
CONTINUOUS
 10
5.4582995950833562
 20
-9.3818165770699125
 30
0.0
 40
1.576855057639547
 50
202.3594881415293969
 51
254.9932485428469136
  0
ARC
  5
42CB
  8
247
  6
CONTINUOUS
 10
4.5658188585381341
 20
-9.8475113661331761
 30
0.0
 40
0.6234706797009447
 50
94.9945893190753168
 51
155.1663289573041027
1001
GENIUS_GENOBJ-N-FIL_13
1002
{
1000
OWNER
1000
GEN
1002
}
1001
GENIUS_GENODEF_13
1002
{
1000
HIER
1070
     0
1002
}
1002
{
1000
MANEDIT
1070
     0
1002
}
1002
{
1000
NOSEL
1070
     0
1002
}
1002
{
1000
BEHIND
1070
     0
1002
}
1002
{
1000
OTHER
1070
     0
1002
}
1002
{
1000
REACTOR
1002
}
  0
ARC
  5
42CC
  8
247
  6
CONTINUOUS
 10
5.1621021219694381
 20
-10.4441839510327501
 30
0.0
 40
0.9749472149106982
 50
15.8460965557806794
 51
82.325137004169278
  0
ARC
  5
42CD
  8
247
  6
CONTINUOUS
 10
5.3714704019710631
 20
-10.0352116387721804
 30
0.0
 40
0.9271945638692008
 50
249.7136016704968995
 51
321.7887456564109243
1001
GENIUS_GENOBJ-N-FIL_13
1002
{
1000
OWNER
1000
GEN
1002
}
1001
GENIUS_GENODEF_13
1002
{
1000
HIER
1070
     0
1002
}
1002
{
1000
MANEDIT
1070
     0
1002
}
1002
{
1000
NOSEL
1070
     0
1002
}
1002
{
1000
BEHIND
1070
     0
1002
}
1002
{
1000
OTHER
1070
     0
1002
}
1002
{
1000
REACTOR
1002
}
  0
LINE
  5
42CE
  8
247
  6
CONTINUOUS
 10
5.2923076922559744
 20
-9.9625858078159126
 30
0.0
 11
5.2923076922559744
 21
-9.4779704232199702
 31
0.0
  0
ARC
  5
42CF
  8
247
  6
CONTINUOUS
 10
5.25
 20
-13.75
 30
0.0
 40
1.25
 50
180.0
 51
0.0
  0
LINE
  5
42D0
  8
247
  6
CONTINUOUS
 10
4.0
 20
-13.75
 30
0.0
 11
4.0
 21
-13.3038461539139803
 31
0.0
  0
ARC
  5
42D1
  8
247
  6
CONTINUOUS
 10
5.25
 20
-9.1153846156699974
 30
0.0
 40
1.25
 50
0.0
 51
180.0
  0
LINE
  5
42D2
  8
250
  6
CONTINUOUS
 10
-29.1926459999999715
 20
-20.9932665409933215
 30
0.0
 11
-46.9259793299999615
 21
-20.9932665409933215
 31
0.0
1001
ITEMNAME
1000
LNSP2
  0
TEXT
  5
42D3
  8
250
  6
CONTINUOUS
 10
-44.6593126633333029
 20
-19.9932665409933215
 30
0.0
 40
2.799999999999998
  1
BBT30
  7
YOKO
1001
ITEMNAME
1000
LNSP3
1001
ACAD
1000
MTEXTBEGIN
1070
    73
1070
     1
1070
    44
1040
1.0
1070
    74
1070
     0
1000
MTEXTEND
1000
MTEXTBEGIN
1070
    73
1070
     1
1070
    44
1040
1.0
1070
    74
1070
     0
1000
MTEXTEND
1000
MTEXTBEGIN
1070
    73
1070
     1
1070
    44
1040
1.0
1070
    74
1070
     0
1000
MTEXTEND
1000
MTEXTBEGIN
1070
    73
1070
     1
1070
    44
1040
1.0
1070
    74
1070
     0
1000
MTEXTEND
  0
LINE
  5
42D4
  8
250
  6
CONTINUOUS
 10
-25.3149999996330486
 20
-14.2769866516444992
 30
0.0
 11
-29.1926459999999715
 21
-20.9932665409933215
 31
0.0
1001
ACAD
1000
DSTYLE
1002
{
1070
     6
1000
OPEN
1070
   343
1005
0
1002
}
  0
LINE
  5
42D5
  8
250
  6
CONTINUOUS
 10
-25.6368727747415583
 20
-14.0911533183723297
 30
0.0
 11
-24.1999999999999886
 21
-12.3457500009933501
 31
0.0
  0
LINE
  5
42D6
  8
250
  6
CONTINUOUS
 10
-24.9931272245245317
 20
-14.4628199849166794
 30
0.0
 11
-24.1999999999999886
 21
-12.3457500009933501
 31
0.0
  0
LINE
  5
42D7
  8
250
  6
CONTINUOUS
 10
-24.1999999999999886
 20
-12.3457500009933501
 30
0.0
 11
-25.3149999996330486
 21
-14.2769866516444992
 31
0.0
  0
LINE
  5
4317
  8
240
  6
CONTINUOUS
 10
22.0500000000012584
 20
-22.9500000000000206
 30
0.0
 11
21.9999999999991509
 21
-23.0000000000020997
 31
0.0
  0
LINE
  5
4318
  8
240
  6
CONTINUOUS
 10
40.830253255118933
 20
-16.5000000000001101
 30
0.0
 11
47.1339250371653407
 21
-16.5000000000001386
 31
0.0
  0
ARC
  5
4319
  8
240
  6
CONTINUOUS
 10
40.8302532551188619
 20
-19.5000000000001101
 30
0.0
 40
3.0
 50
89.99999999999838
 51
165.0000000000003979
1001
ASK_MEN_XD
1005
4329
1070
     1
1005
4318
1070
     1
  0
LINE
  5
431B
  8
241
  6
CONTINUOUS
 10
47.1339250371653407
 20
-16.5000000000003588
 30
0.0
 11
47.1339250371653407
 21
16.5000000000003588
 31
0.0
  0
LINE
  5
431C
  8
240
  6
CONTINUOUS
 10
47.1339250371653407
 20
-16.5000000000001386
 30
0.0
 11
63.500000000001279
 21
-14.3453653554406504
 31
0.0
  0
LINE
  5
431D
  8
243
  6
HIDDEN2
 10
25.4000000000012918
 20
6.3499999999999917
 30
0.0
 11
63.5000000000011795
 21
6.3499999999999952
 31
0.0
  0
LINE
  5
431E
  8
240
  6
CONTINUOUS
 10
47.1339250371653407
 20
16.5000000000000817
 30
0.0
 11
63.500000000001279
 21
14.3453653554406007
 31
0.0
  0
LINE
  5
4320
  8
240
  6
CONTINUOUS
 10
63.500000000001279
 20
14.3453653554406007
 30
0.0
 11
63.500000000001279
 21
-14.3453653554406504
 31
0.0
  0
LINE
  5
4321
  8
241
  6
CONTINUOUS
 10
36.8000000000013472
 20
22.2325120561135599
 30
0.0
 11
36.8000000000012903
 21
-22.2325120561135599
 31
0.0
  0
LINE
  5
4322
  8
241
  6
CONTINUOUS
 10
38.5282722911820201
 20
17.5762319158297906
 30
0.0
 11
38.5282722911820201
 21
-17.5762319158297906
 31
0.0
  0
LINE
  5
4323
  8
240
  6
CONTINUOUS
 10
40.8302532551188619
 20
16.5000000000001101
 30
0.0
 11
47.1339250371653407
 21
16.5000000000000817
 31
0.0
  0
LINE
  5
4324
  8
241
  6
CONTINUOUS
 10
43.6000000000013728
 20
-16.5000000000001705
 30
0.0
 11
43.6000000000013728
 21
16.5000000000001705
 31
0.0
  0
LINE
  5
4325
  8
241
  6
CONTINUOUS
 10
42.4000000000012776
 20
-16.5000000000001386
 30
0.0
 11
42.4000000000012776
 21
16.5000000000001386
 31
0.0
  0
LINE
  5
4328
  8
240
  6
CONTINUOUS
 10
22.0500000000012584
 20
-22.9500000000000206
 30
0.0
 11
36.800000000001333
 21
-22.9500000000000206
 31
0.0
  0
LINE
  5
4329
  8
240
  6
CONTINUOUS
 10
36.800000000001333
 20
-22.9500000000000206
 30
0.0
 11
37.9324757762516569
 21
-18.7235428646925506
 31
0.0
  0
ARC
  5
432A
  8
240
  6
CONTINUOUS
 10
40.8302532551188619
 20
19.5000000000001101
 30
0.0
 40
3.0
 50
195.0000000000011084
 51
270.0
1001
ASK_MEN_XD
1005
4329
1070
     1
1005
4318
1070
     1
  0
LINE
  5
432B
  8
240
  6
CONTINUOUS
 10
22.0500000000012193
 20
22.9500000000000206
 30
0.0
 11
36.800000000001333
 21
22.9500000000000206
 31
0.0
  0
LINE
  5
432C
  8
240
  6
CONTINUOUS
 10
36.800000000001333
 20
22.9500000000000206
 30
0.0
 11
37.9324757762516569
 21
18.7235428646925506
 31
0.0
  0
LINE
  5
433D
  8
240
  6
CONTINUOUS
 10
22.0500000000012193
 20
22.9500000000000206
 30
0.0
 11
21.9999999999991083
 21
23.0000000000020997
 31
0.0
  0
LINE
  5
4341
  8
243
  6
HIDDEN2
 10
25.4000000000012918
 20
-6.3499999999999917
 30
0.0
 11
63.5000000000011795
 21
-6.3499999999999952
 31
0.0
  0
INSERT
  5
442D
  8
250
  6
CONTINUOUS
  2
_OPEN
 10
30.0000000000002096
 20
25.0687081981803885
 30
0.0
 41
1.9999999999999949
 42
1.9999999999999949
 43
1.9999999999999949
 50
269.9999999999997158
1001
ACAD
1000
DSTYLE
1002
{
1070
    41
1040
2.0
1070
   140
1040
2.799999999999998
1002
}
  0
POLYLINE
  5
442E
  8
250
  6
CONTINUOUS
 66
     1
 10
0.0
 20
0.0
 30
0.0
1001
ACAD
1000
DSTYLE
1002
{
1070
    41
1040
2.0
1070
   140
1040
2.799999999999998
1002
}
  0
VERTEX
  5
4637
  8
250
  6
CONTINUOUS
 10
30.0000000000002309
 20
27.0687081981803388
 30
0.0
  0
VERTEX
  5
4638
  8
250
  6
CONTINUOUS
 10
30.00000000000027
 20
35.3317492761142731
 30
0.0
  0
SEQEND
  5
4639
  8
250
  6
CONTINUOUS
  0
TEXT
  5
442F
  8
250
  6
CONTINUOUS
 10
25.4331063569382501
 20
36.505076258079697
 30
0.0
 40
3.0
  1
Screw
  7
YOKO
 11
25.4331063569382501
 21
36.505076258079697
 31
0.0
 73
     1
  0
TEXT
  5
447E
  8
241
  6
CONTINUOUS
 10
-48.3999999999999773
 20
63.0
 30
0.0
 40
5.0
  1
BBT30-HDC.500-2.5
  7
YOKO
 11
-48.3999999999999773
 21
63.0
 31
0.0
 73
     1
  0
LINE
  5
44A3
  8
250
  6
CONTINUOUS
 10
1.3000000000028531
 20
6.70000000000047
 30
0.0
 11
1.3000000000028551
 21
43.0
 31
0.0
  0
LINE
  5
44A4
  8
250
  6
CONTINUOUS
 10
63.500000000001279
 20
14.8453653554406007
 30
0.0
 11
63.500000000001279
 21
43.0
 31
0.0
  0
LINE
  5
44A5
  8
250
  6
CONTINUOUS
 10
3.530000000002854
 20
42.0
 30
0.0
 11
61.2700000000012679
 21
42.0
 31
0.0
  0
LINE
  5
44A9
  8
250
  6
CONTINUOUS
 10
0.0
 20
16.375
 30
0.0
 11
0.0000000000000021
 21
50.0
 31
0.0
  0
LINE
  5
44AA
  8
250
  6
CONTINUOUS
 10
63.500000000001279
 20
14.8453653554406007
 30
0.0
 11
63.500000000001279
 21
50.0
 31
0.0
  0
LINE
  5
44AB
  8
250
  6
CONTINUOUS
 10
2.2300000000000022
 20
49.0
 30
0.0
 11
61.2700000000012679
 21
49.0
 31
0.0
  0
LINE
  5
44AF
  8
250
  6
CONTINUOUS
 10
64.0000000000012079
 20
6.3499999999999952
 30
0.0
 11
78.0000000000000711
 21
6.349999999999989
 31
0.0
  0
LINE
  5
44B0
  8
250
  6
CONTINUOUS
 10
64.000000000001279
 20
-6.3499999999999952
 30
0.0
 11
78.0000000000000711
 21
-6.3499999999999979
 31
0.0
  0
LINE
  5
44B1
  8
250
  6
CONTINUOUS
 10
77.0000000000000711
 20
4.1199999999999912
 30
0.0
 11
77.0000000000000711
 21
-4.1199999999999983
 31
0.0
  0
LINE
  5
44B5
  8
250
  6
CONTINUOUS
 10
47.6339250371653193
 20
16.5000000000003588
 30
0.0
 11
85.0
 21
16.5000000000003588
 31
0.0
  0
LINE
  5
44B6
  8
250
  6
CONTINUOUS
 10
47.6339250371653193
 20
-16.5000000000003588
 30
0.0
 11
85.0
 21
-16.5000000000003801
 31
0.0
  0
LINE
  5
44B7
  8
250
  6
CONTINUOUS
 10
84.0
 20
14.2700000000003602
 30
0.0
 11
84.0
 21
-14.2700000000003797
 31
0.0
  0
TEXT
  5
44BB
  8
250
  6
CONTINUOUS
 10
76.0000000000000426
 20
-6.1227381418837812
 30
0.0
 40
2.799999999999998
  1
\U+2205.500
 50
90.0
  0
LINE
  5
44BC
  8
250
  6
CONTINUOUS
 10
77.3716666666667408
 20
-4.1199999999999992
 30
0.0
 11
77.0000000000000711
 21
-6.349999999999997
 31
0.0
  0
LINE
  5
44BD
  8
250
  6
CONTINUOUS
 10
76.6283333333334014
 20
-4.1199999999999992
 30
0.0
 11
77.0000000000000711
 21
-6.349999999999997
 31
0.0
  0
LINE
  5
44BE
  8
250
  6
CONTINUOUS
 10
77.0000000000000711
 20
-6.349999999999997
 30
0.0
 11
77.0000000000000711
 21
-4.1199999999999992
 31
0.0
  0
LINE
  5
44BF
  8
250
  6
CONTINUOUS
 10
76.6283333333334014
 20
4.1199999999999921
 30
0.0
 11
77.0000000000000711
 21
6.3499999999999899
 31
0.0
  0
LINE
  5
44C0
  8
250
  6
CONTINUOUS
 10
77.3716666666667408
 20
4.1199999999999921
 30
0.0
 11
77.0000000000000711
 21
6.3499999999999899
 31
0.0
  0
LINE
  5
44C1
  8
250
  6
CONTINUOUS
 10
77.0000000000000711
 20
6.3499999999999899
 30
0.0
 11
77.0000000000000711
 21
4.1199999999999921
 31
0.0
  0
TEXT
  5
44C2
  8
250
  6
CONTINUOUS
 10
82.9999999999999858
 20
-7.1999999999999931
 30
0.0
 40
2.799999999999998
  1
\U+22051.299
 50
90.0
  0
LINE
  5
44C3
  8
250
  6
CONTINUOUS
 10
84.3716666666666839
 20
-14.2700000000003797
 30
0.0
 11
84.0
 21
-16.5000000000003801
 31
0.0
  0
LINE
  5
44C4
  8
250
  6
CONTINUOUS
 10
83.6283333333333161
 20
-14.2700000000003797
 30
0.0
 11
84.0
 21
-16.5000000000003801
 31
0.0
  0
LINE
  5
44C5
  8
250
  6
CONTINUOUS
 10
84.0
 20
-16.5000000000003801
 30
0.0
 11
84.0
 21
-14.2700000000003797
 31
0.0
  0
LINE
  5
44C6
  8
250
  6
CONTINUOUS
 10
83.6283333333333161
 20
14.2700000000003602
 30
0.0
 11
84.0
 21
16.5000000000003588
 31
0.0
  0
LINE
  5
44C7
  8
250
  6
CONTINUOUS
 10
84.3716666666666839
 20
14.2700000000003602
 30
0.0
 11
84.0
 21
16.5000000000003588
 31
0.0
  0
LINE
  5
44C8
  8
250
  6
CONTINUOUS
 10
84.0
 20
16.5000000000003588
 30
0.0
 11
84.0
 21
14.2700000000003602
 31
0.0
  0
TEXT
  5
44C9
  8
250
  6
CONTINUOUS
 10
24.0294632455595512
 20
43.0
 30
0.0
 40
2.799999999999998
  1
(max.2.44)
  0
LINE
  5
44CA
  8
250
  6
CONTINUOUS
 10
61.2700000000012679
 20
42.3716666666666626
 30
0.0
 11
63.500000000001279
 21
42.0
 31
0.0
  0
LINE
  5
44CB
  8
250
  6
CONTINUOUS
 10
61.2700000000012679
 20
41.6283333333333303
 30
0.0
 11
63.500000000001279
 21
42.0
 31
0.0
  0
LINE
  5
44CC
  8
250
  6
CONTINUOUS
 10
63.500000000001279
 20
42.0
 30
0.0
 11
61.2700000000012679
 21
42.0
 31
0.0
  0
LINE
  5
44CD
  8
250
  6
CONTINUOUS
 10
3.530000000002854
 20
41.6283333333333303
 30
0.0
 11
1.3000000000028551
 21
42.0
 31
0.0
  0
LINE
  5
44CE
  8
250
  6
CONTINUOUS
 10
3.530000000002854
 20
42.3716666666666626
 30
0.0
 11
1.3000000000028551
 21
42.0
 31
0.0
  0
LINE
  5
44CF
  8
250
  6
CONTINUOUS
 10
1.3000000000028551
 20
42.0
 30
0.0
 11
3.530000000002854
 21
42.0
 31
0.0
  0
TEXT
  5
44D0
  8
250
  6
CONTINUOUS
 10
28.4166666666673109
 20
50.0
 30
0.0
 40
2.799999999999998
  1
2.50
  0
LINE
  5
44D1
  8
250
  6
CONTINUOUS
 10
61.2700000000012679
 20
49.3716666666666697
 30
0.0
 11
63.500000000001279
 21
49.0
 31
0.0
  0
LINE
  5
44D2
  8
250
  6
CONTINUOUS
 10
61.2700000000012679
 20
48.6283333333333303
 30
0.0
 11
63.500000000001279
 21
49.0
 31
0.0
  0
LINE
  5
44D3
  8
250
  6
CONTINUOUS
 10
63.500000000001279
 20
49.0
 30
0.0
 11
61.2700000000012679
 21
49.0
 31
0.0
  0
LINE
  5
44D4
  8
250
  6
CONTINUOUS
 10
2.2300000000000022
 20
48.6283333333333303
 30
0.0
 11
0.000000000000002
 21
49.0
 31
0.0
  0
LINE
  5
44D5
  8
250
  6
CONTINUOUS
 10
2.2300000000000022
 20
49.3716666666666697
 30
0.0
 11
0.000000000000002
 21
49.0
 31
0.0
  0
LINE
  5
44D6
  8
250
  6
CONTINUOUS
 10
0.000000000000002
 20
49.0
 30
0.0
 11
2.2300000000000022
 21
49.0
 31
0.0
  0
VIEWPORT
  5
22
 67
     1
  8
0
 10
261.517699115044195
 20
148.5
 30
0.0
 40
523.0353982300885036
 41
297.0
 68
     1
 69
     1
1001
ACAD
1000
MVIEW
1002
{
1070
    16
1010
0.0
1020
0.0
1030
0.0
1010
0.0
1020
0.0
1030
1.0
1040
0.0
1040
297.0
1040
261.517699115044195
1040
148.5
1040
50.0
1040
0.0
1040
0.0
1070
     0
1070
   100
1070
     1
1070
     1
1070
     0
1070
     0
1070
     0
1070
     0
1040
0.0
1040
0.0
1040
0.0
1040
1.0
1040
1.0
1040
10.0
1040
10.0
1070
     0
1002
{
1002
}
1002
}
1001
GENIUS_GENODEF_13
1002
{
1000
HIER
1070
     0
1002
}
1002
{
1000
MANEDIT
1070
     0
1002
}
1002
{
1000
NOSEL
1070
     0
1002
}
1002
{
1000
BEHIND
1070
     0
1002
}
1002
{
1000
OTHER
1070
     0
1002
}
1002
{
1000
REACTOR
1002
}
1001
GENIUS_GENOBJ-N-SDF_13
1002
{
1000
OWNER
1000
GEN
1002
}
1001
GENIUS_GENSCREG_15
1000
PF
1040
1.0
1000
DF
1040
1.0
1000
MIN
1011
0.0
1021
0.0
1031
0.0
1021
0.0
1031
0.0
1000
MAX
1011
523.0353982300885036
1021
0.0
1031
0.0
1021
297.0
1031
0.0
1000
FLAGS
1070
     4
  0
ENDSEC
  0
EOF
