ISO-10303-21;
HEADER;
FILE_DESCRIPTION((''),'1');
FILE_NAME('V:/90_\X2\53D65F9730C730FC30BF\X0\/00_\X2\6DE18DEF30C730FC30BF\X0\/ALL/BBT-BKUS\X2\FF76FF80FF9BFF78FF9E752852A05DE556F3\X0\201801/BBT30-HDC/BBT30-HDC.375-2.5.stp','2018-02-07T04:19:07',(''),(''),'Spatial Interop R21 SP3','Kubotek KeyCreator 2011 V10.0.2 (22737)',' ');
FILE_SCHEMA(('automotive_design'));
ENDSEC;
DATA;
#1=MECHANICAL_DESIGN_GEOMETRIC_PRESENTATION_REPRESENTATION(' ',(#10,#11,#12,#13,#14,#15,#16,#17,#18,#19,#20,#21,#22,#23,#24,#25,#26,#27,#28,#29,#30,#31,#32,#33,#34,#35,#36,#37,#38,#39,#40,#41),#6);
#2=PRODUCT_DEFINITION_CONTEXT('',#42,'design');
#3=APPLICATION_PROTOCOL_DEFINITION('INTERNATIONAL STANDARD','automotive_design',1994,#42);
#4=PRODUCT_CATEGORY_RELATIONSHIP('NONE','NONE',#43,#44);
#5=SHAPE_DEFINITION_REPRESENTATION(#45,#46);
#6= (GEOMETRIC_REPRESENTATION_CONTEXT(3)GLOBAL_UNCERTAINTY_ASSIGNED_CONTEXT((#49))GLOBAL_UNIT_ASSIGNED_CONTEXT((#51,#52,#53))REPRESENTATION_CONTEXT('NONE','WORKSPACE'));
#10=STYLED_ITEM('',(#55,#56),#57);
#11=STYLED_ITEM('',(#58,#59),#60);
#12=STYLED_ITEM('',(#61),#62);
#13=STYLED_ITEM('',(#63,#64),#65);
#14=STYLED_ITEM('',(#66,#67),#68);
#15=STYLED_ITEM('',(#69,#70),#71);
#16=STYLED_ITEM('',(#72),#73);
#17=STYLED_ITEM('',(#74),#75);
#18=STYLED_ITEM('',(#76),#77);
#19=STYLED_ITEM('',(#78),#79);
#20=STYLED_ITEM('',(#80),#81);
#21=STYLED_ITEM('',(#82,#83),#84);
#22=STYLED_ITEM('',(#85),#86);
#23=STYLED_ITEM('',(#87),#88);
#24=STYLED_ITEM('',(#89,#90),#91);
#25=STYLED_ITEM('',(#92,#93),#94);
#26=STYLED_ITEM('',(#95,#96),#97);
#27=STYLED_ITEM('',(#98,#99),#100);
#28=STYLED_ITEM('',(#101),#102);
#29=STYLED_ITEM('',(#103,#104),#105);
#30=STYLED_ITEM('',(#106),#107);
#31=STYLED_ITEM('',(#108,#109),#110);
#32=STYLED_ITEM('',(#111,#112),#113);
#33=STYLED_ITEM('',(#114),#115);
#34=STYLED_ITEM('',(#116,#117),#118);
#35=STYLED_ITEM('',(#119,#120),#121);
#36=STYLED_ITEM('',(#122),#123);
#37=STYLED_ITEM('',(#124,#125),#126);
#38=STYLED_ITEM('',(#127),#128);
#39=STYLED_ITEM('',(#129),#130);
#40=STYLED_ITEM('',(#131),#132);
#41=STYLED_ITEM('',(#133,#134),#135);
#42=APPLICATION_CONTEXT(' ');
#43=PRODUCT_CATEGORY('part','NONE');
#44=PRODUCT_RELATED_PRODUCT_CATEGORY('detail',' ',(#136));
#45=PRODUCT_DEFINITION_SHAPE('NONE','NONE',#137);
#46=ADVANCED_BREP_SHAPE_REPRESENTATION('Unnamed[1]',(#94,#138),#6);
#49=UNCERTAINTY_MEASURE_WITH_UNIT(LENGTH_MEASURE(1.0E-006),#51,'','');
#51= (CONVERSION_BASED_UNIT('MILLIMETRE',#141)LENGTH_UNIT()NAMED_UNIT(#144));
#52= (NAMED_UNIT(#146)PLANE_ANGLE_UNIT()SI_UNIT($,.RADIAN.));
#53= (NAMED_UNIT(#146)SOLID_ANGLE_UNIT()SI_UNIT($,.STERADIAN.));
#55=PRESENTATION_STYLE_ASSIGNMENT((#152));
#56=PRESENTATION_STYLE_ASSIGNMENT((#153));
#57=ADVANCED_FACE('Unnamed[1]',(#154,#155),#156,.T.);
#58=PRESENTATION_STYLE_ASSIGNMENT((#157));
#59=PRESENTATION_STYLE_ASSIGNMENT((#158));
#60=ADVANCED_FACE('Unnamed[1]',(#159),#160,.T.);
#61=PRESENTATION_STYLE_ASSIGNMENT((#161));
#62=EDGE_CURVE('Unnamed[1]',#162,#162,#163,.T.);
#63=PRESENTATION_STYLE_ASSIGNMENT((#164));
#64=PRESENTATION_STYLE_ASSIGNMENT((#165));
#65=ADVANCED_FACE('Unnamed[1]',(#166,#167),#168,.T.);
#66=PRESENTATION_STYLE_ASSIGNMENT((#169));
#67=PRESENTATION_STYLE_ASSIGNMENT((#170));
#68=ADVANCED_FACE('Unnamed[1]',(#171,#172),#173,.T.);
#69=PRESENTATION_STYLE_ASSIGNMENT((#174));
#70=PRESENTATION_STYLE_ASSIGNMENT((#175));
#71=ADVANCED_FACE('Unnamed[1]',(#176,#177),#178,.T.);
#72=PRESENTATION_STYLE_ASSIGNMENT((#179));
#73=EDGE_CURVE('Unnamed[1]',#180,#180,#181,.T.);
#74=PRESENTATION_STYLE_ASSIGNMENT((#182));
#75=EDGE_CURVE('Unnamed[1]',#183,#183,#184,.T.);
#76=PRESENTATION_STYLE_ASSIGNMENT((#185));
#77=EDGE_CURVE('Unnamed[1]',#186,#186,#187,.T.);
#78=PRESENTATION_STYLE_ASSIGNMENT((#188));
#79=EDGE_CURVE('Unnamed[1]',#189,#189,#190,.T.);
#80=PRESENTATION_STYLE_ASSIGNMENT((#191));
#81=EDGE_CURVE('Unnamed[1]',#192,#192,#193,.T.);
#82=PRESENTATION_STYLE_ASSIGNMENT((#194));
#83=PRESENTATION_STYLE_ASSIGNMENT((#195));
#84=ADVANCED_FACE('Unnamed[1]',(#196,#197),#198,.T.);
#85=PRESENTATION_STYLE_ASSIGNMENT((#199));
#86=EDGE_CURVE('Unnamed[1]',#200,#200,#201,.T.);
#87=PRESENTATION_STYLE_ASSIGNMENT((#202));
#88=EDGE_CURVE('Unnamed[1]',#203,#203,#204,.T.);
#89=PRESENTATION_STYLE_ASSIGNMENT((#205));
#90=PRESENTATION_STYLE_ASSIGNMENT((#206));
#91=ADVANCED_FACE('Unnamed[1]',(#207,#208),#209,.T.);
#92=PRESENTATION_STYLE_ASSIGNMENT((#210));
#93=PRESENTATION_STYLE_ASSIGNMENT((#211));
#94=MANIFOLD_SOLID_BREP('Unnamed[1]',#212);
#95=PRESENTATION_STYLE_ASSIGNMENT((#213));
#96=PRESENTATION_STYLE_ASSIGNMENT((#214));
#97=ADVANCED_FACE('Unnamed[1]',(#215,#216),#217,.T.);
#98=PRESENTATION_STYLE_ASSIGNMENT((#218));
#99=PRESENTATION_STYLE_ASSIGNMENT((#219));
#100=ADVANCED_FACE('Unnamed[1]',(#220,#221),#222,.T.);
#101=PRESENTATION_STYLE_ASSIGNMENT((#223));
#102=EDGE_CURVE('Unnamed[1]',#224,#224,#225,.T.);
#103=PRESENTATION_STYLE_ASSIGNMENT((#226));
#104=PRESENTATION_STYLE_ASSIGNMENT((#227));
#105=ADVANCED_FACE('Unnamed[1]',(#228,#229),#230,.T.);
#106=PRESENTATION_STYLE_ASSIGNMENT((#231));
#107=EDGE_CURVE('Unnamed[1]',#232,#232,#233,.T.);
#108=PRESENTATION_STYLE_ASSIGNMENT((#234));
#109=PRESENTATION_STYLE_ASSIGNMENT((#235));
#110=ADVANCED_FACE('Unnamed[1]',(#236,#237),#238,.T.);
#111=PRESENTATION_STYLE_ASSIGNMENT((#239));
#112=PRESENTATION_STYLE_ASSIGNMENT((#240));
#113=ADVANCED_FACE('Unnamed[1]',(#241,#242),#243,.T.);
#114=PRESENTATION_STYLE_ASSIGNMENT((#244));
#115=EDGE_CURVE('Unnamed[1]',#245,#245,#246,.T.);
#116=PRESENTATION_STYLE_ASSIGNMENT((#247));
#117=PRESENTATION_STYLE_ASSIGNMENT((#248));
#118=ADVANCED_FACE('Unnamed[1]',(#249,#250),#251,.T.);
#119=PRESENTATION_STYLE_ASSIGNMENT((#252));
#120=PRESENTATION_STYLE_ASSIGNMENT((#253));
#121=ADVANCED_FACE('Unnamed[1]',(#254,#255),#256,.T.);
#122=PRESENTATION_STYLE_ASSIGNMENT((#257));
#123=EDGE_CURVE('Unnamed[1]',#258,#258,#259,.T.);
#124=PRESENTATION_STYLE_ASSIGNMENT((#260));
#125=PRESENTATION_STYLE_ASSIGNMENT((#261));
#126=ADVANCED_FACE('Unnamed[1]',(#262,#263),#264,.T.);
#127=PRESENTATION_STYLE_ASSIGNMENT((#265));
#128=EDGE_CURVE('Unnamed[1]',#266,#266,#267,.T.);
#129=PRESENTATION_STYLE_ASSIGNMENT((#268));
#130=EDGE_CURVE('Unnamed[1]',#269,#269,#270,.T.);
#131=PRESENTATION_STYLE_ASSIGNMENT((#271));
#132=EDGE_CURVE('Unnamed[1]',#272,#272,#273,.T.);
#133=PRESENTATION_STYLE_ASSIGNMENT((#274));
#134=PRESENTATION_STYLE_ASSIGNMENT((#275));
#135=ADVANCED_FACE('Unnamed[1]',(#276),#277,.T.);
#136=PRODUCT('Unnamed[1]','Unnamed[1]','PART-Unnamed[1]-DESC',(#278));
#137=PRODUCT_DEFINITION('NONE','NONE',#279,#2);
#138=AXIS2_PLACEMENT_3D('',#280,#281,#282);
#141=LENGTH_MEASURE_WITH_UNIT(LENGTH_MEASURE(1.0),#283);
#144=DIMENSIONAL_EXPONENTS(1.0,0.0,0.0,0.0,0.0,0.0,0.0);
#146=DIMENSIONAL_EXPONENTS(0.0,0.0,0.0,0.0,0.0,0.0,0.0);
#152=SURFACE_STYLE_USAGE(.BOTH.,#284);
#153=CURVE_STYLE('',#285,POSITIVE_LENGTH_MEASURE(1000.0),#286);
#154=FACE_BOUND('',#287,.T.);
#155=FACE_BOUND('',#288,.T.);
#156=CYLINDRICAL_SURFACE('',#289,23.0);
#157=SURFACE_STYLE_USAGE(.BOTH.,#290);
#158=CURVE_STYLE('',#291,POSITIVE_LENGTH_MEASURE(1000.0),#292);
#159=FACE_OUTER_BOUND('',#293,.T.);
#160=PLANE('',#294);
#161=CURVE_STYLE('',#295,POSITIVE_LENGTH_MEASURE(1000.0),#296);
#162=VERTEX_POINT('',#297);
#163=CIRCLE('',#298,23.0);
#164=SURFACE_STYLE_USAGE(.BOTH.,#299);
#165=CURVE_STYLE('',#300,POSITIVE_LENGTH_MEASURE(1000.0),#301);
#166=FACE_BOUND('',#302,.T.);
#167=FACE_BOUND('',#303,.T.);
#168=CONICAL_SURFACE('',#304,19.7161809548971,1.30899693899574);
#169=SURFACE_STYLE_USAGE(.BOTH.,#305);
#170=CURVE_STYLE('',#306,POSITIVE_LENGTH_MEASURE(1000.0),#307);
#171=FACE_BOUND('',#308,.T.);
#172=FACE_BOUND('',#309,.T.);
#173=CYLINDRICAL_SURFACE('',#310,14.9999999999989);
#174=SURFACE_STYLE_USAGE(.BOTH.,#311);
#175=CURVE_STYLE('',#312,POSITIVE_LENGTH_MEASURE(1000.0),#313);
#176=FACE_BOUND('',#314,.T.);
#177=FACE_BOUND('',#315,.T.);
#178=CONICAL_SURFACE('',#316,15.7411809548967,0.654498469497915);
#179=CURVE_STYLE('',#317,POSITIVE_LENGTH_MEASURE(1000.0),#318);
#180=VERTEX_POINT('',#319);
#181=CIRCLE('',#320,15.875);
#182=CURVE_STYLE('',#321,POSITIVE_LENGTH_MEASURE(1000.0),#322);
#183=VERTEX_POINT('',#323);
#184=CIRCLE('',#324,23.0);
#185=CURVE_STYLE('',#325,POSITIVE_LENGTH_MEASURE(1000.0),#326);
#186=VERTEX_POINT('',#327);
#187=CIRCLE('',#328,19.0);
#188=CURVE_STYLE('',#329,POSITIVE_LENGTH_MEASURE(1000.0),#330);
#189=VERTEX_POINT('',#331);
#190=CIRCLE('',#332,22.95);
#191=CURVE_STYLE('',#333,POSITIVE_LENGTH_MEASURE(1000.0),#334);
#192=VERTEX_POINT('',#335);
#193=CIRCLE('',#336,22.9500000000001);
#194=SURFACE_STYLE_USAGE(.BOTH.,#337);
#195=CURVE_STYLE('',#338,POSITIVE_LENGTH_MEASURE(1000.0),#339);
#196=FACE_BOUND('',#340,.T.);
#197=FACE_BOUND('',#341,.T.);
#198=CONICAL_SURFACE('',#342,12.3457500009933,0.144815870013618);
#199=CURVE_STYLE('',#343,POSITIVE_LENGTH_MEASURE(1000.0),#344);
#200=VERTEX_POINT('',#345);
#201=CIRCLE('',#346,14.9999999999986);
#202=CURVE_STYLE('',#347,POSITIVE_LENGTH_MEASURE(1000.0),#348);
#203=VERTEX_POINT('',#349);
#204=CIRCLE('',#350,16.4823619097941);
#205=SURFACE_STYLE_USAGE(.BOTH.,#351);
#206=CURVE_STYLE('',#352,POSITIVE_LENGTH_MEASURE(1000.0),#353);
#207=FACE_BOUND('',#354,.T.);
#208=FACE_BOUND('',#355,.T.);
#209=CONICAL_SURFACE('',#356,21.0,1.04719755058882);
#210=SURFACE_STYLE_USAGE(.BOTH.,#357);
#211=CURVE_STYLE('',#358,POSITIVE_LENGTH_MEASURE(1000.0),#359);
#212=CLOSED_SHELL('',(#135,#84,#105,#113,#57,#110,#118,#91,#100,#126,#121,#65,#71,#68,#97,#60));
#213=SURFACE_STYLE_USAGE(.BOTH.,#360);
#214=CURVE_STYLE('',#361,POSITIVE_LENGTH_MEASURE(1000.0),#362);
#215=FACE_BOUND('',#363,.T.);
#216=FACE_BOUND('',#364,.T.);
#217=CONICAL_SURFACE('',#365,13.9226826777113,0.130899693901769);
#218=SURFACE_STYLE_USAGE(.BOTH.,#366);
#219=CURVE_STYLE('',#367,POSITIVE_LENGTH_MEASURE(1000.0),#368);
#220=FACE_BOUND('',#369,.T.);
#221=FACE_BOUND('',#370,.T.);
#222=CYLINDRICAL_SURFACE('',#371,23.0);
#223=CURVE_STYLE('',#372,POSITIVE_LENGTH_MEASURE(1000.0),#373);
#224=VERTEX_POINT('',#374);
#225=CIRCLE('',#375,12.845365355424);
#226=SURFACE_STYLE_USAGE(.BOTH.,#376);
#227=CURVE_STYLE('',#377,POSITIVE_LENGTH_MEASURE(1000.0),#378);
#228=FACE_BOUND('',#379,.T.);
#229=FACE_BOUND('',#380,.T.);
#230=CYLINDRICAL_SURFACE('',#381,15.875);
#231=CURVE_STYLE('',#382,POSITIVE_LENGTH_MEASURE(1000.0),#383);
#232=VERTEX_POINT('',#384);
#233=CIRCLE('',#385,15.875);
#234=SURFACE_STYLE_USAGE(.BOTH.,#386);
#235=CURVE_STYLE('',#387,POSITIVE_LENGTH_MEASURE(1000.0),#388);
#236=FACE_BOUND('',#389,.T.);
#237=FACE_BOUND('',#390,.T.);
#238=CONICAL_SURFACE('',#391,21.0,1.04719755058881);
#239=SURFACE_STYLE_USAGE(.BOTH.,#392);
#240=CURVE_STYLE('',#393,POSITIVE_LENGTH_MEASURE(1000.0),#394);
#241=FACE_OUTER_BOUND('',#395,.T.);
#242=FACE_BOUND('',#396,.T.);
#243=PLANE('',#397);
#244=CURVE_STYLE('',#398,POSITIVE_LENGTH_MEASURE(1000.0),#399);
#245=VERTEX_POINT('',#400);
#246=CIRCLE('',#401,23.0);
#247=SURFACE_STYLE_USAGE(.BOTH.,#402);
#248=CURVE_STYLE('',#403,POSITIVE_LENGTH_MEASURE(1000.0),#404);
#249=FACE_BOUND('',#405,.T.);
#250=FACE_BOUND('',#406,.T.);
#251=CYLINDRICAL_SURFACE('',#407,19.0);
#252=SURFACE_STYLE_USAGE(.BOTH.,#408);
#253=CURVE_STYLE('',#409,POSITIVE_LENGTH_MEASURE(1000.0),#410);
#254=FACE_BOUND('',#411,.T.);
#255=FACE_BOUND('',#412,.T.);
#256=CYLINDRICAL_SURFACE('',#413,22.95);
#257=CURVE_STYLE('',#414,POSITIVE_LENGTH_MEASURE(1000.0),#415);
#258=VERTEX_POINT('',#416);
#259=CIRCLE('',#417,19.0);
#260=SURFACE_STYLE_USAGE(.BOTH.,#418);
#261=CURVE_STYLE('',#419,POSITIVE_LENGTH_MEASURE(1000.0),#420);
#262=FACE_BOUND('',#421,.T.);
#263=FACE_BOUND('',#422,.T.);
#264=CONICAL_SURFACE('',#423,22.975,0.785398163893656);
#265=CURVE_STYLE('',#424,POSITIVE_LENGTH_MEASURE(1000.0),#425);
#266=VERTEX_POINT('',#426);
#267=CIRCLE('',#427,14.9999999999992);
#268=CURVE_STYLE('',#428,POSITIVE_LENGTH_MEASURE(1000.0),#429);
#269=VERTEX_POINT('',#430);
#270=CIRCLE('',#431,23.0);
#271=CURVE_STYLE('',#432,POSITIVE_LENGTH_MEASURE(1000.0),#433);
#272=VERTEX_POINT('',#434);
#273=CIRCLE('',#435,8.81650000198669);
#274=SURFACE_STYLE_USAGE(.BOTH.,#436);
#275=CURVE_STYLE('',#437,POSITIVE_LENGTH_MEASURE(1000.0),#438);
#276=FACE_OUTER_BOUND('',#439,.T.);
#277=PLANE('',#440);
#278=PRODUCT_CONTEXT('',#42,'mechanical');
#279=PRODUCT_DEFINITION_FORMATION_WITH_SPECIFIED_SOURCE(' ','NONE',#136,.NOT_KNOWN.);
#280=CARTESIAN_POINT('',(0.0,0.0,0.0));
#281=DIRECTION('',(0.0,0.0,1.0));
#282=DIRECTION('',(1.0,0.0,0.0));
#283= (NAMED_UNIT(#144)LENGTH_UNIT()SI_UNIT(.MILLI.,.METRE.));
#284=SURFACE_SIDE_STYLE('',(#442));
#285=DRAUGHTING_PRE_DEFINED_CURVE_FONT('continuous');
#286=COLOUR_RGB('',0.0,1.0,0.0);
#287=EDGE_LOOP('',(#443));
#288=EDGE_LOOP('',(#444));
#289=AXIS2_PLACEMENT_3D('',#445,#446,#447);
#290=SURFACE_SIDE_STYLE('',(#448));
#291=DRAUGHTING_PRE_DEFINED_CURVE_FONT('continuous');
#292=COLOUR_RGB('',0.0,1.0,0.0);
#293=EDGE_LOOP('',(#449));
#294=AXIS2_PLACEMENT_3D('',#450,#451,#452);
#295=DRAUGHTING_PRE_DEFINED_CURVE_FONT('continuous');
#296=COLOUR_RGB('',0.0,1.0,0.0);
#297=CARTESIAN_POINT('',(1.34711147906232E-015,23.0,-22.0000000000037));
#298=AXIS2_PLACEMENT_3D('',#453,#454,#455);
#299=SURFACE_SIDE_STYLE('',(#456));
#300=DRAUGHTING_PRE_DEFINED_CURVE_FONT('continuous');
#301=COLOUR_RGB('',0.0,1.0,0.0);
#302=EDGE_LOOP('',(#457));
#303=EDGE_LOOP('',(#458));
#304=AXIS2_PLACEMENT_3D('',#459,#460,#461);
#305=SURFACE_SIDE_STYLE('',(#462));
#306=DRAUGHTING_PRE_DEFINED_CURVE_FONT('continuous');
#307=COLOUR_RGB('',0.0,1.0,0.0);
#308=EDGE_LOOP('',(#463));
#309=EDGE_LOOP('',(#464));
#310=AXIS2_PLACEMENT_3D('',#465,#466,#467);
#311=SURFACE_SIDE_STYLE('',(#468));
#312=DRAUGHTING_PRE_DEFINED_CURVE_FONT('continuous');
#313=COLOUR_RGB('',0.0,1.0,0.0);
#314=EDGE_LOOP('',(#469));
#315=EDGE_LOOP('',(#470));
#316=AXIS2_PLACEMENT_3D('',#471,#472,#473);
#317=DRAUGHTING_PRE_DEFINED_CURVE_FONT('continuous');
#318=COLOUR_RGB('',0.0,1.0,0.0);
#319=CARTESIAN_POINT('',(-1.95674482349743E-031,15.875,1.94412679364642E-015));
#320=AXIS2_PLACEMENT_3D('',#474,#475,#476);
#321=DRAUGHTING_PRE_DEFINED_CURVE_FONT('continuous');
#322=COLOUR_RGB('',0.0,1.0,0.0);
#323=CARTESIAN_POINT('',(6.12323399573674E-017,23.0,-0.999999999999997));
#324=AXIS2_PLACEMENT_3D('',#477,#478,#479);
#325=DRAUGHTING_PRE_DEFINED_CURVE_FONT('continuous');
#326=COLOUR_RGB('',0.0,1.0,0.0);
#327=CARTESIAN_POINT('',(9.36279151221199E-016,19.0,-15.29059892));
#328=AXIS2_PLACEMENT_3D('',#480,#481,#482);
#329=DRAUGHTING_PRE_DEFINED_CURVE_FONT('continuous');
#330=COLOUR_RGB('',0.0,1.0,0.0);
#331=CARTESIAN_POINT('',(1.35017309605715E-015,22.95,-22.0499999999541));
#332=AXIS2_PLACEMENT_3D('',#483,#484,#485);
#333=DRAUGHTING_PRE_DEFINED_CURVE_FONT('continuous');
#334=COLOUR_RGB('',0.0,1.0,0.0);
#335=CARTESIAN_POINT('',(2.25335011043128E-015,22.9500000000001,-36.8000000000025));
#336=AXIS2_PLACEMENT_3D('',#486,#487,#488);
#337=SURFACE_SIDE_STYLE('',(#489));
#338=DRAUGHTING_PRE_DEFINED_CURVE_FONT('continuous');
#339=COLOUR_RGB('',0.0,1.0,0.0);
#340=EDGE_LOOP('',(#490));
#341=EDGE_LOOP('',(#491));
#342=AXIS2_PLACEMENT_3D('',#492,#493,#494);
#343=DRAUGHTING_PRE_DEFINED_CURVE_FONT('continuous');
#344=COLOUR_RGB('',0.0,1.0,0.0);
#345=CARTESIAN_POINT('',(2.88612052141102E-015,14.9999999999986,-47.1339250373325));
#346=AXIS2_PLACEMENT_3D('',#495,#496,#497);
#347=DRAUGHTING_PRE_DEFINED_CURVE_FONT('continuous');
#348=COLOUR_RGB('',0.0,1.0,0.0);
#349=CARTESIAN_POINT('',(2.35946565780206E-015,16.4823619097941,-38.53299840321));
#350=AXIS2_PLACEMENT_3D('',#498,#499,#500);
#351=SURFACE_SIDE_STYLE('',(#501));
#352=DRAUGHTING_PRE_DEFINED_CURVE_FONT('continuous');
#353=COLOUR_RGB('',0.0,1.0,0.0);
#354=EDGE_LOOP('',(#502));
#355=EDGE_LOOP('',(#503));
#356=AXIS2_PLACEMENT_3D('',#504,#505,#506);
#357=SURFACE_SIDE_STYLE('',(#507));
#358=DRAUGHTING_PRE_DEFINED_CURVE_FONT('continuous');
#359=COLOUR_RGB('',0.0,1.0,0.0);
#360=SURFACE_SIDE_STYLE('',(#508));
#361=DRAUGHTING_PRE_DEFINED_CURVE_FONT('continuous');
#362=COLOUR_RGB('',0.0,1.0,0.0);
#363=EDGE_LOOP('',(#509));
#364=EDGE_LOOP('',(#510));
#365=AXIS2_PLACEMENT_3D('',#511,#512,#513);
#366=SURFACE_SIDE_STYLE('',(#514));
#367=DRAUGHTING_PRE_DEFINED_CURVE_FONT('continuous');
#368=COLOUR_RGB('',0.0,1.0,0.0);
#369=EDGE_LOOP('',(#515));
#370=EDGE_LOOP('',(#516));
#371=AXIS2_PLACEMENT_3D('',#517,#518,#519);
#372=DRAUGHTING_PRE_DEFINED_CURVE_FONT('continuous');
#373=COLOUR_RGB('',0.0,1.0,0.0);
#374=CARTESIAN_POINT('',(3.888253587293E-015,12.845365355424,-63.5000000000025));
#375=AXIS2_PLACEMENT_3D('',#520,#521,#522);
#376=SURFACE_SIDE_STYLE('',(#523));
#377=DRAUGHTING_PRE_DEFINED_CURVE_FONT('continuous');
#378=COLOUR_RGB('',0.0,1.0,0.0);
#379=EDGE_LOOP('',(#524));
#380=EDGE_LOOP('',(#525));
#381=AXIS2_PLACEMENT_3D('',#526,#527,#528);
#382=DRAUGHTING_PRE_DEFINED_CURVE_FONT('continuous');
#383=COLOUR_RGB('',0.0,1.0,0.0);
#384=CARTESIAN_POINT('',(6.12323399573675E-017,15.875,-0.999999999999998));
#385=AXIS2_PLACEMENT_3D('',#529,#530,#531);
#386=SURFACE_SIDE_STYLE('',(#532));
#387=DRAUGHTING_PRE_DEFINED_CURVE_FONT('continuous');
#388=COLOUR_RGB('',0.0,1.0,0.0);
#389=EDGE_LOOP('',(#533));
#390=EDGE_LOOP('',(#534));
#391=AXIS2_PLACEMENT_3D('',#535,#536,#537);
#392=SURFACE_SIDE_STYLE('',(#538));
#393=DRAUGHTING_PRE_DEFINED_CURVE_FONT('continuous');
#394=COLOUR_RGB('',0.0,1.0,0.0);
#395=EDGE_LOOP('',(#539));
#396=EDGE_LOOP('',(#540));
#397=AXIS2_PLACEMENT_3D('',#541,#542,#543);
#398=DRAUGHTING_PRE_DEFINED_CURVE_FONT('continuous');
#399=COLOUR_RGB('',0.0,1.0,0.0);
#400=CARTESIAN_POINT('',(5.87830463590729E-016,23.0,-9.59999999999999));
#401=AXIS2_PLACEMENT_3D('',#544,#545,#546);
#402=SURFACE_SIDE_STYLE('',(#547));
#403=DRAUGHTING_PRE_DEFINED_CURVE_FONT('continuous');
#404=COLOUR_RGB('',0.0,1.0,0.0);
#405=EDGE_LOOP('',(#548));
#406=EDGE_LOOP('',(#549));
#407=AXIS2_PLACEMENT_3D('',#550,#551,#552);
#408=SURFACE_SIDE_STYLE('',(#553));
#409=DRAUGHTING_PRE_DEFINED_CURVE_FONT('continuous');
#410=COLOUR_RGB('',0.0,1.0,0.0);
#411=EDGE_LOOP('',(#554));
#412=EDGE_LOOP('',(#555));
#413=AXIS2_PLACEMENT_3D('',#556,#557,#558);
#414=DRAUGHTING_PRE_DEFINED_CURVE_FONT('continuous');
#415=COLOUR_RGB('',0.0,1.0,0.0);
#416=CARTESIAN_POINT('',(7.29240495619202E-016,19.0,-11.90940108));
#417=AXIS2_PLACEMENT_3D('',#559,#560,#561);
#418=SURFACE_SIDE_STYLE('',(#562));
#419=DRAUGHTING_PRE_DEFINED_CURVE_FONT('continuous');
#420=COLOUR_RGB('',0.0,1.0,0.0);
#421=EDGE_LOOP('',(#563));
#422=EDGE_LOOP('',(#564));
#423=AXIS2_PLACEMENT_3D('',#565,#566,#567);
#424=DRAUGHTING_PRE_DEFINED_CURVE_FONT('continuous');
#425=COLOUR_RGB('',0.0,1.0,0.0);
#426=CARTESIAN_POINT('',(2.47775745493991E-015,14.9999999999992,-40.4648500557879));
#427=AXIS2_PLACEMENT_3D('',#568,#569,#570);
#428=DRAUGHTING_PRE_DEFINED_CURVE_FONT('continuous');
#429=COLOUR_RGB('',0.0,1.0,0.0);
#430=CARTESIAN_POINT('',(1.07768918324967E-015,23.0,-17.6));
#431=AXIS2_PLACEMENT_3D('',#571,#572,#573);
#432=DRAUGHTING_PRE_DEFINED_CURVE_FONT('continuous');
#433=COLOUR_RGB('',0.0,1.0,0.0);
#434=CARTESIAN_POINT('',(-2.96364525393659E-015,8.81650000198669,48.4));
#435=AXIS2_PLACEMENT_3D('',#574,#575,#576);
#436=SURFACE_SIDE_STYLE('',(#577));
#437=DRAUGHTING_PRE_DEFINED_CURVE_FONT('continuous');
#438=COLOUR_RGB('',0.0,1.0,0.0);
#439=EDGE_LOOP('',(#578));
#440=AXIS2_PLACEMENT_3D('',#579,#580,#581);
#442=SURFACE_STYLE_FILL_AREA(#582);
#443=ORIENTED_EDGE('',*,*,#115,.F.);
#444=ORIENTED_EDGE('',*,*,#75,.T.);
#445=CARTESIAN_POINT('',(3.24531401774048E-016,6.49062803548097E-016,-5.3));
#446=DIRECTION('',(6.12323399573677E-017,1.22464679914735E-016,-1.0));
#447=DIRECTION('',(-1.23259516440783E-032,1.0,1.22464679914735E-016));
#448=SURFACE_STYLE_FILL_AREA(#583);
#449=ORIENTED_EDGE('',*,*,#102,.T.);
#450=CARTESIAN_POINT('',(3.888253587293E-015,6.42268267771199,-63.5000000000025));
#451=DIRECTION('',(6.12323399573677E-017,1.22464679914735E-016,-1.0));
#452=DIRECTION('',(-1.23259516440783E-032,1.0,1.22464679914735E-016));
#453=CARTESIAN_POINT('',(1.34711147906232E-015,2.69422295812463E-015,-22.0000000000037));
#454=DIRECTION('',(6.12323399573677E-017,1.22464679914735E-016,-1.0));
#455=DIRECTION('',(-1.23259516440783E-032,1.0,1.22464679914735E-016));
#456=SURFACE_STYLE_FILL_AREA(#584);
#457=ORIENTED_EDGE('',*,*,#88,.F.);
#458=ORIENTED_EDGE('',*,*,#81,.T.);
#459=CARTESIAN_POINT('',(2.30640788411667E-015,4.61281576823334E-015,-37.6664992016062));
#460=DIRECTION('',(-6.12323399573677E-017,-1.22464679914735E-016,1.0));
#461=DIRECTION('',(-1.23259516440783E-032,1.0,1.22464679914735E-016));
#462=SURFACE_STYLE_FILL_AREA(#585);
#463=ORIENTED_EDGE('',*,*,#86,.F.);
#464=ORIENTED_EDGE('',*,*,#128,.T.);
#465=CARTESIAN_POINT('',(2.68193898817547E-015,5.36387797635094E-015,-43.7993875465602));
#466=DIRECTION('',(6.12323399573676E-017,1.22464679914735E-016,-1.0));
#467=DIRECTION('',(-1.23259516440783E-032,1.0,1.22464679914735E-016));
#468=SURFACE_STYLE_FILL_AREA(#586);
#469=ORIENTED_EDGE('',*,*,#128,.F.);
#470=ORIENTED_EDGE('',*,*,#88,.T.);
#471=CARTESIAN_POINT('',(2.41861155637099E-015,4.83722311274197E-015,-39.4989242294989));
#472=DIRECTION('',(-6.12323399573677E-017,-1.22464679914735E-016,1.0));
#473=DIRECTION('',(-1.23259516440783E-032,1.0,1.22464679914735E-016));
#474=CARTESIAN_POINT('',(0.0,0.0,0.0));
#475=DIRECTION('',(6.12323399573677E-017,1.22464679914735E-016,-1.0));
#476=DIRECTION('',(-1.23259516440783E-032,1.0,1.22464679914735E-016));
#477=CARTESIAN_POINT('',(6.12323399573677E-017,1.22464679914735E-016,-1.0));
#478=DIRECTION('',(6.12323399573677E-017,1.22464679914735E-016,-1.0));
#479=DIRECTION('',(-1.23259516440783E-032,1.0,1.22464679914735E-016));
#480=CARTESIAN_POINT('',(9.36279151221199E-016,1.8725583024424E-015,-15.29059892));
#481=DIRECTION('',(6.12323399573677E-017,1.22464679914735E-016,-1.0));
#482=DIRECTION('',(-1.23259516440783E-032,1.0,1.22464679914735E-016));
#483=CARTESIAN_POINT('',(1.35017309605715E-015,2.7003461921143E-015,-22.0499999999542));
#484=DIRECTION('',(6.12323399573677E-017,1.22464679914735E-016,-1.0));
#485=DIRECTION('',(-1.23259516440783E-032,1.0,1.22464679914735E-016));
#486=CARTESIAN_POINT('',(2.25335011043128E-015,4.50670022086256E-015,-36.8000000000025));
#487=DIRECTION('',(6.12323399573677E-017,1.22464679914735E-016,-1.0));
#488=DIRECTION('',(-1.23259516440783E-032,1.0,1.22464679914735E-016));
#489=SURFACE_STYLE_FILL_AREA(#587);
#490=ORIENTED_EDGE('',*,*,#73,.F.);
#491=ORIENTED_EDGE('',*,*,#132,.T.);
#492=CARTESIAN_POINT('',(-1.4818226269683E-015,-2.96364525393659E-015,24.2));
#493=DIRECTION('',(6.12323399573677E-017,1.22464679914735E-016,-1.0));
#494=DIRECTION('',(-1.23259516440783E-032,1.0,1.22464679914735E-016));
#495=CARTESIAN_POINT('',(2.88612052141102E-015,5.77224104282205E-015,-47.1339250373325));
#496=DIRECTION('',(6.12323399573677E-017,1.22464679914735E-016,-1.0));
#497=DIRECTION('',(-1.23259516440783E-032,1.0,1.22464679914735E-016));
#498=CARTESIAN_POINT('',(2.35946565780206E-015,4.71893131560412E-015,-38.53299840321));
#499=DIRECTION('',(6.12323399573677E-017,1.22464679914735E-016,-1.0));
#500=DIRECTION('',(-1.23259516440783E-032,1.0,1.22464679914735E-016));
#501=SURFACE_STYLE_FILL_AREA(#588);
#502=ORIENTED_EDGE('',*,*,#130,.F.);
#503=ORIENTED_EDGE('',*,*,#77,.T.);
#504=CARTESIAN_POINT('',(1.00698416723543E-015,2.01396833447087E-015,-16.44529946));
#505=DIRECTION('',(6.12323399573677E-017,1.22464679914735E-016,-1.0));
#506=DIRECTION('',(-1.23259516440783E-032,1.0,1.22464679914735E-016));
#507=SURFACE_STYLE_FILL_AREA(#589);
#508=SURFACE_STYLE_FILL_AREA(#590);
#509=ORIENTED_EDGE('',*,*,#102,.F.);
#510=ORIENTED_EDGE('',*,*,#86,.T.);
#511=CARTESIAN_POINT('',(3.38718705435201E-015,6.77437410870402E-015,-55.3169625186675));
#512=DIRECTION('',(-6.12323399573677E-017,-1.22464679914735E-016,1.0));
#513=DIRECTION('',(-1.23259516440783E-032,1.0,1.22464679914735E-016));
#514=SURFACE_STYLE_FILL_AREA(#591);
#515=ORIENTED_EDGE('',*,*,#62,.F.);
#516=ORIENTED_EDGE('',*,*,#130,.T.);
#517=CARTESIAN_POINT('',(1.21240033115599E-015,2.42480066231199E-015,-19.8000000000019));
#518=DIRECTION('',(6.12323399573677E-017,1.22464679914735E-016,-1.0));
#519=DIRECTION('',(-1.23259516440783E-032,1.0,1.22464679914735E-016));
#520=CARTESIAN_POINT('',(3.888253587293E-015,7.77650717458599E-015,-63.5000000000025));
#521=DIRECTION('',(6.12323399573677E-017,1.22464679914735E-016,-1.0));
#522=DIRECTION('',(-1.23259516440783E-032,1.0,1.22464679914735E-016));
#523=SURFACE_STYLE_FILL_AREA(#592);
#524=ORIENTED_EDGE('',*,*,#107,.F.);
#525=ORIENTED_EDGE('',*,*,#73,.T.);
#526=CARTESIAN_POINT('',(3.06161699786838E-017,6.12323399573676E-017,-0.5));
#527=DIRECTION('',(6.12323399573677E-017,1.22464679914735E-016,-1.0));
#528=DIRECTION('',(-1.23259516440783E-032,1.0,1.22464679914735E-016));
#529=CARTESIAN_POINT('',(6.12323399573677E-017,1.22464679914735E-016,-1.0));
#530=DIRECTION('',(6.12323399573677E-017,1.22464679914735E-016,-1.0));
#531=DIRECTION('',(-1.23259516440783E-032,1.0,1.22464679914735E-016));
#532=SURFACE_STYLE_FILL_AREA(#593);
#533=ORIENTED_EDGE('',*,*,#123,.F.);
#534=ORIENTED_EDGE('',*,*,#115,.T.);
#535=CARTESIAN_POINT('',(6.58535479604966E-016,1.31707095920993E-015,-10.75470054));
#536=DIRECTION('',(-6.12323399573677E-017,-1.22464679914735E-016,1.0));
#537=DIRECTION('',(-1.23259516440783E-032,1.0,1.22464679914735E-016));
#538=SURFACE_STYLE_FILL_AREA(#594);
#539=ORIENTED_EDGE('',*,*,#75,.F.);
#540=ORIENTED_EDGE('',*,*,#107,.T.);
#541=CARTESIAN_POINT('',(6.12323399573674E-017,19.4375,-0.999999999999998));
#542=DIRECTION('',(-6.12323399573677E-017,-1.22464679914735E-016,1.0));
#543=DIRECTION('',(1.23259516440783E-032,-1.0,-1.22464679914735E-016));
#544=CARTESIAN_POINT('',(5.87830463590729E-016,1.17566092718146E-015,-9.59999999999999));
#545=DIRECTION('',(6.12323399573677E-017,1.22464679914735E-016,-1.0));
#546=DIRECTION('',(-1.23259516440783E-032,1.0,1.22464679914735E-016));
#547=SURFACE_STYLE_FILL_AREA(#595);
#548=ORIENTED_EDGE('',*,*,#77,.F.);
#549=ORIENTED_EDGE('',*,*,#123,.T.);
#550=CARTESIAN_POINT('',(8.32759823420201E-016,1.6655196468404E-015,-13.6));
#551=DIRECTION('',(6.12323399573677E-017,1.22464679914735E-016,-1.0));
#552=DIRECTION('',(-1.23259516440783E-032,1.0,1.22464679914735E-016));
#553=SURFACE_STYLE_FILL_AREA(#596);
#554=ORIENTED_EDGE('',*,*,#81,.F.);
#555=ORIENTED_EDGE('',*,*,#79,.T.);
#556=CARTESIAN_POINT('',(1.80176160324422E-015,3.60352320648843E-015,-29.4249999999783));
#557=DIRECTION('',(6.12323399573677E-017,1.22464679914735E-016,-1.0));
#558=DIRECTION('',(-1.23259516440783E-032,1.0,1.22464679914735E-016));
#559=CARTESIAN_POINT('',(7.29240495619202E-016,1.4584809912384E-015,-11.90940108));
#560=DIRECTION('',(6.12323399573677E-017,1.22464679914735E-016,-1.0));
#561=DIRECTION('',(-1.23259516440783E-032,1.0,1.22464679914735E-016));
#562=SURFACE_STYLE_FILL_AREA(#597);
#563=ORIENTED_EDGE('',*,*,#79,.F.);
#564=ORIENTED_EDGE('',*,*,#62,.T.);
#565=CARTESIAN_POINT('',(1.34864228755973E-015,2.69728457511947E-015,-22.0249999999789));
#566=DIRECTION('',(-6.12323399573676E-017,-1.22464679914735E-016,1.0));
#567=DIRECTION('',(-1.23259516440783E-032,1.0,1.22464679914735E-016));
#568=CARTESIAN_POINT('',(2.47775745493991E-015,4.95551490987982E-015,-40.4648500557879));
#569=DIRECTION('',(6.12323399573677E-017,1.22464679914735E-016,-1.0));
#570=DIRECTION('',(-1.23259516440783E-032,1.0,1.22464679914735E-016));
#571=CARTESIAN_POINT('',(1.07768918324967E-015,2.15537836649934E-015,-17.6));
#572=DIRECTION('',(6.12323399573677E-017,1.22464679914735E-016,-1.0));
#573=DIRECTION('',(-1.23259516440783E-032,1.0,1.22464679914735E-016));
#574=CARTESIAN_POINT('',(-2.96364525393659E-015,-5.92729050787319E-015,48.4));
#575=DIRECTION('',(6.12323399573677E-017,1.22464679914735E-016,-1.0));
#576=DIRECTION('',(-1.23259516440783E-032,1.0,1.22464679914735E-016));
#577=SURFACE_STYLE_FILL_AREA(#598);
#578=ORIENTED_EDGE('',*,*,#132,.F.);
#579=CARTESIAN_POINT('',(-2.96364525393659E-015,4.40825000099334,48.4));
#580=DIRECTION('',(-6.12323399573677E-017,-1.22464679914735E-016,1.0));
#581=DIRECTION('',(1.23259516440783E-032,-1.0,-1.22464679914735E-016));
#582=FILL_AREA_STYLE('',(#599));
#583=FILL_AREA_STYLE('',(#600));
#584=FILL_AREA_STYLE('',(#601));
#585=FILL_AREA_STYLE('',(#602));
#586=FILL_AREA_STYLE('',(#603));
#587=FILL_AREA_STYLE('',(#604));
#588=FILL_AREA_STYLE('',(#605));
#589=FILL_AREA_STYLE('',(#606));
#590=FILL_AREA_STYLE('',(#607));
#591=FILL_AREA_STYLE('',(#608));
#592=FILL_AREA_STYLE('',(#609));
#593=FILL_AREA_STYLE('',(#610));
#594=FILL_AREA_STYLE('',(#611));
#595=FILL_AREA_STYLE('',(#612));
#596=FILL_AREA_STYLE('',(#613));
#597=FILL_AREA_STYLE('',(#614));
#598=FILL_AREA_STYLE('',(#615));
#599=FILL_AREA_STYLE_COLOUR('',#616);
#600=FILL_AREA_STYLE_COLOUR('',#617);
#601=FILL_AREA_STYLE_COLOUR('',#618);
#602=FILL_AREA_STYLE_COLOUR('',#619);
#603=FILL_AREA_STYLE_COLOUR('',#620);
#604=FILL_AREA_STYLE_COLOUR('',#621);
#605=FILL_AREA_STYLE_COLOUR('',#622);
#606=FILL_AREA_STYLE_COLOUR('',#623);
#607=FILL_AREA_STYLE_COLOUR('',#624);
#608=FILL_AREA_STYLE_COLOUR('',#625);
#609=FILL_AREA_STYLE_COLOUR('',#626);
#610=FILL_AREA_STYLE_COLOUR('',#627);
#611=FILL_AREA_STYLE_COLOUR('',#628);
#612=FILL_AREA_STYLE_COLOUR('',#629);
#613=FILL_AREA_STYLE_COLOUR('',#630);
#614=FILL_AREA_STYLE_COLOUR('',#631);
#615=FILL_AREA_STYLE_COLOUR('',#632);
#616=COLOUR_RGB('',0.0,1.0,0.0);
#617=COLOUR_RGB('',0.0,1.0,0.0);
#618=COLOUR_RGB('',0.0,1.0,0.0);
#619=COLOUR_RGB('',0.0,1.0,0.0);
#620=COLOUR_RGB('',0.0,1.0,0.0);
#621=COLOUR_RGB('',0.0,1.0,0.0);
#622=COLOUR_RGB('',0.0,1.0,0.0);
#623=COLOUR_RGB('',0.0,1.0,0.0);
#624=COLOUR_RGB('',0.0,1.0,0.0);
#625=COLOUR_RGB('',0.0,1.0,0.0);
#626=COLOUR_RGB('',0.0,1.0,0.0);
#627=COLOUR_RGB('',0.0,1.0,0.0);
#628=COLOUR_RGB('',0.0,1.0,0.0);
#629=COLOUR_RGB('',0.0,1.0,0.0);
#630=COLOUR_RGB('',0.0,1.0,0.0);
#631=COLOUR_RGB('',0.0,1.0,0.0);
#632=COLOUR_RGB('',0.0,1.0,0.0);
ENDSEC;
END-ISO-10303-21;
