  0
SECTION
  2
HEADER
  9
$ACADVER
  1
AC1009
  9
$INSBASE
 10
0.0
 20
0.0
 30
0.0
  9
$EXTMIN
 10
-49.4000000000000128
 20
-23.0
 30
0.0
  9
$EXTMAX
 10
123.1160116168731946
 20
61.0
 30
0.0
  9
$LIMMIN
 10
0.0
 20
0.0
  9
$LIMMAX
 10
297.0
 20
210.0
  9
$ORTHOMODE
 70
     0
  9
$REGENMODE
 70
     1
  9
$FILLMODE
 70
     1
  9
$QTEXTMODE
 70
     0
  9
$MIRRTEXT
 70
     1
  9
$DRAGMODE
 70
     2
  9
$LTSCALE
 40
10.0
  9
$OSMODE
 70
   807
  9
$ATTMODE
 70
     1
  9
$TEXTSIZE
 40
3.0
  9
$TRACEWID
 40
1.0
  9
$TEXTSTYLE
  7
YOKO
  9
$CLAYER
  8
240
  9
$CELTYPE
  6
BYLAYER
  9
$CECOLOR
 62
   256
  9
$DIMSCALE
 40
1.0
  9
$DIMASZ
 40
2.2299999999999991
  9
$DIMEXO
 40
0.5
  9
$DIMDLI
 40
7.0
  9
$DIMRND
 40
0.0
  9
$DIMDLE
 40
0.0
  9
$DIMEXE
 40
1.0
  9
$DIMTP
 40
0.0
  9
$DIMTM
 40
0.01
  9
$DIMTXT
 40
2.7999999999999989
  9
$DIMCEN
 40
0.0
  9
$DIMTSZ
 40
0.0
  9
$DIMTOL
 70
     0
  9
$DIMLIM
 70
     0
  9
$DIMTIH
 70
     0
  9
$DIMTOH
 70
     0
  9
$DIMSE1
 70
     0
  9
$DIMSE2
 70
     0
  9
$DIMTAD
 70
     3
  9
$DIMZIN
 70
     9
  9
$DIMBLK
  1
OPEN
  9
$DIMASO
 70
     1
  9
$DIMSHO
 70
     1
  9
$DIMPOST
  1

  9
$DIMAPOST
  1

  9
$DIMALT
 70
     0
  9
$DIMALTD
 70
     2
  9
$DIMALTF
 40
25.3999999999999986
  9
$DIMLFAC
 40
1.0
  9
$DIMTOFL
 70
     1
  9
$DIMTVP
 40
0.0
  9
$DIMTIX
 70
     1
  9
$DIMSOXD
 70
     0
  9
$DIMSAH
 70
     0
  9
$DIMBLK1
  1

  9
$DIMBLK2
  1

  9
$DIMSTYLE
  2
BIGT
  9
$DIMCLRD
 70
   256
  9
$DIMCLRE
 70
   256
  9
$DIMCLRT
 70
    40
  9
$DIMTFAC
 40
1.0
  9
$DIMGAP
 40
1.0
  9
$LUNITS
 70
     2
  9
$LUPREC
 70
     3
  9
$SKETCHINC
 40
1.0
  9
$FILLETRAD
 40
0.0
  9
$AUNITS
 70
     0
  9
$AUPREC
 70
     3
  9
$MENU
  1
.
  9
$ELEVATION
 40
0.0
  9
$PELEVATION
 40
0.0
  9
$THICKNESS
 40
0.0
  9
$LIMCHECK
 70
     0
  9
$BLIPMODE
 70
     0
  9
$CHAMFERA
 40
0.25
  9
$CHAMFERB
 40
0.25
  9
$SKPOLY
 70
     0
  9
$TDCREATE
 40
2458152.4957986110821366
  9
$TDUPDATE
 40
2458152.7280671298503876
  9
$TDINDWG
 40
0.0926388889
  9
$TDUSRTIMER
 40
0.0926388889
  9
$USRTIMER
 70
     1
  9
$ANGBASE
 50
0.0
  9
$ANGDIR
 70
     0
  9
$PDMODE
 70
     1
  9
$PDSIZE
 40
0.0
  9
$PLINEWID
 40
0.0
  9
$COORDS
 70
     1
  9
$SPLFRAME
 70
     0
  9
$SPLINETYPE
 70
     6
  9
$SPLINESEGS
 70
     4
  9
$ATTDIA
 70
     1
  9
$ATTREQ
 70
     1
  9
$HANDLING
 70
     1
  9
$HANDSEED
  5
1B15
  9
$SURFTAB1
 70
     6
  9
$SURFTAB2
 70
     6
  9
$SURFTYPE
 70
     6
  9
$SURFU
 70
     6
  9
$SURFV
 70
     6
  9
$UCSNAME
  2

  9
$UCSORG
 10
0.0
 20
0.0
 30
0.0
  9
$UCSXDIR
 10
1.0
 20
0.0
 30
0.0
  9
$UCSYDIR
 10
0.0
 20
1.0
 30
0.0
  9
$PUCSNAME
  2

  9
$PUCSORG
 10
0.0
 20
0.0
 30
0.0
  9
$PUCSXDIR
 10
1.0
 20
0.0
 30
0.0
  9
$PUCSYDIR
 10
0.0
 20
1.0
 30
0.0
  9
$USERI1
 70
     1
  9
$USERI2
 70
     0
  9
$USERI3
 70
     0
  9
$USERI4
 70
     0
  9
$USERI5
 70
     0
  9
$USERR1
 40
0.0
  9
$USERR2
 40
0.0
  9
$USERR3
 40
0.0
  9
$USERR4
 40
0.0
  9
$USERR5
 40
0.0
  9
$WORLDVIEW
 70
     1
  9
$SHADEDGE
 70
     3
  9
$SHADEDIF
 70
    70
  9
$TILEMODE
 70
     1
  9
$MAXACTVP
 70
    16
  9
$PLIMCHECK
 70
     0
  9
$PEXTMIN
 10
1.0000000000000000E+20
 20
1.0000000000000000E+20
 30
1.0000000000000000E+20
  9
$PEXTMAX
 10
-1.0000000000000000E+20
 20
-1.0000000000000000E+20
 30
-1.0000000000000000E+20
  9
$PLIMMIN
 10
0.0
 20
0.0
  9
$PLIMMAX
 10
420.0
 20
297.0
  9
$UNITMODE
 70
     0
  9
$VISRETAIN
 70
     1
  9
$PLINEGEN
 70
     0
  9
$PSLTSCALE
 70
     1
  0
ENDSEC
  0
SECTION
  2
TABLES
  0
TABLE
  2
VPORT
 70
     1
  0
VPORT
  2
*ACTIVE
 70
     0
 10
0.0
 20
0.0
 11
1.0
 21
1.0
 12
61.0955993830769373
 22
12.7873568644210707
 13
0.0
 23
0.0
 14
7.0
 24
7.0
 15
7.0
 25
7.0
 16
0.0
 26
0.0
 36
1.0
 17
0.0
 27
0.0
 37
0.0
 40
143.3153661385784119
 41
1.9861809045226131
 42
50.0
 43
0.0
 44
0.0
 50
0.0
 51
0.0
 71
     0
 72
  2000
 73
     1
 74
     0
 75
     0
 76
     1
 77
     0
 78
     0
  0
ENDTAB
  0
TABLE
  2
LTYPE
 70
    16
  0
LTYPE
  2
CONTINUOUS
 70
     0
  3
Solid line
 72
    65
 73
     0
 40
0.0
  0
LTYPE
  2
CENTER2
 70
     0
  3
___ _ ___ _ ___ _ ___ _ ___ _ ___ _ ___ _ ___ _
 72
    65
 73
     4
 40
1.125
 49
0.75
 49
-0.125
 49
0.125
 49
-0.125
  0
LTYPE
  2
HIDDEN2
 70
     0
  3
_ _ _ _ _ _ _ _ _ _ _ _ _ _ _ _ _ _ _ _ _ _ _ _
 72
    65
 73
     2
 40
0.1875
 49
0.125
 49
-0.0625
  0
LTYPE
  2
PHANTOM2
 70
     0
  3
___ _ _ ___ _ _ ___ _ _ ___ _ _ ___ _ _ ___ _ _
 72
    65
 73
     6
 40
1.25
 49
0.625
 49
-0.125
 49
0.125
 49
-0.125
 49
0.125
 49
-0.125
  0
LTYPE
  2
CENTER
 70
     0
  3
____ _ ____ _ ____ _ ____ _ ____ _ ____ _ ____ 
 72
    65
 73
     4
 40
2.0
 49
1.25
 49
-0.25
 49
0.25
 49
-0.25
  0
LTYPE
  2
AM_ISO02W050
 70
     0
  3
__ __ __ __ __ __ __ __ __ __ __ __ __ __ __
 72
    65
 73
     2
 40
7.5
 49
6.0
 49
-1.5
  0
LTYPE
  2
AMCONSTR
 70
     0
  3
_______________________
 72
    65
 73
     2
 40
9999.0
 49
9999.0
 49
0.0
  0
LTYPE
  2
ACISOWELD
 70
     0
  3
_ _ _ _ _
 72
    65
 73
     2
 40
2.0
 49
2.0
 49
-1.0
  0
LTYPE
  2
ACISOTGB
 70
     0
  3
__ . . __ . .
 72
    65
 73
     6
 40
9.0
 49
4.0
 49
-1.0
 49
1.0
 49
-1.0
 49
1.0
 49
-1.0
  0
LTYPE
  2
ACISOTGL
 70
     0
  3
_ _ _ _ _
 72
    65
 73
     2
 40
3.0
 49
2.0
 49
-1.0
  0
LTYPE
  2
ACJISTGB
 70
     0
  3
__ . . __ . .
 72
    65
 73
     6
 40
9.0
 49
4.0
 49
-1.0
 49
1.0
 49
-1.0
 49
1.0
 49
-1.0
  0
LTYPE
  2
ACJISTGL
 70
     0
  3
_ _ _ _ _
 72
    65
 73
     2
 40
3.0
 49
2.0
 49
-1.0
  0
LTYPE
  2
HIDDEN
 70
     0
  3
Hidden __ __ __ __ __ __ __ __ __ __ __ __ __ _
 72
    65
 73
     2
 40
9.5249999999999986
 49
6.3499999999999988
 49
-3.1749999999999989
  0
LTYPE
  2
AMZIGZAG2
 70
     0
  3
/\/-/\/-/\/-/\/-/\/-/\/
 72
    65
 73
     2
 40
0.4401
 49
0.0001
 49
-0.4400000000000001
  0
LTYPE
  2
ACANSTGB
 70
     0
  3
__ . . __ . .
 72
    65
 73
     6
 40
0.35433070866
 49
0.15748031496
 49
-0.03937007874
 49
0.03937007874
 49
-0.03937007874
 49
0.03937007874
 49
-0.03937007874
  0
LTYPE
  2
ACANSTGL
 70
     0
  3
_ _ _ _ _
 72
    65
 73
     2
 40
0.11811023622
 49
0.07874015748
 49
-0.03937007874
  0
ENDTAB
  0
TABLE
  2
LAYER
 70
     8
  0
LAYER
  2
0
 70
     0
 62
     7
  6
CONTINUOUS
  0
LAYER
  2
DEFPOINTS
 70
     0
 62
     7
  6
CONTINUOUS
  0
LAYER
  2
245
 70
     0
 62
     2
  6
CENTER2
  0
LAYER
  2
240
 70
     0
 62
     4
  6
CONTINUOUS
  0
LAYER
  2
241
 70
     0
 62
   211
  6
CONTINUOUS
  0
LAYER
  2
243
 70
     0
 62
   211
  6
HIDDEN2
  0
LAYER
  2
247
 70
     0
 62
    60
  6
CONTINUOUS
  0
LAYER
  2
250
 70
     0
 62
     3
  6
CONTINUOUS
  0
ENDTAB
  0
TABLE
  2
STYLE
 70
     8
  0
STYLE
  2
STANDARD
 70
     0
 40
0.0
 41
1.0
 50
0.0
 71
     0
 42
3.0
  3
romans.shx
  4
extfont.shx
  0
STYLE
  2
ACISOTS
 70
     0
 40
1.0
 41
1.0
 50
0.0
 71
     0
 42
3.0
  3
amgdt.shx
  4
extfont.shx
  0
STYLE
  2
ACISOGDT
 70
     0
 40
0.0
 41
1.0
 50
0.0
 71
     0
 42
3.0
  3
amgdt.shx
  4
extfont.shx
  0
STYLE
  2
ACJISTS
 70
     0
 40
1.0
 41
1.0
 50
0.0
 71
     0
 42
3.0
  3
amgdt.shx
  4
extfont.shx
  0
STYLE
  2
ACJISGDT
 70
     0
 40
0.0
 41
1.0
 50
0.0
 71
     0
 42
3.0
  3
amgdt.shx
  4
extfont.shx
  0
STYLE
  2
YOKO
 70
     0
 40
0.0
 41
1.0
 50
0.0
 71
     0
 42
3.0
  3
romans.shx
  4
extfont.shx
  0
STYLE
  2

 70
     1
 40
0.0
 41
1.0
 50
0.0
 71
     0
 42
3.0
  3
genltshp.shx
  4

  0
STYLE
  2
ACANSGDT
 70
     0
 40
0.0
 41
1.0
 50
0.0
 71
     0
 42
3.0
  3
amgdt.shx
  4

  0
ENDTAB
  0
TABLE
  2
VIEW
 70
     0
  0
ENDTAB
  0
TABLE
  2
UCS
 70
     0
  0
ENDTAB
  0
TABLE
  2
APPID
 70
    44
  0
APPID
  2
ACAD
 70
     0
  0
APPID
  2
GLOBAL
 70
     0
  0
APPID
  2
DETAIL
 70
     0
  0
APPID
  2
GRPNAME
 70
     0
  0
APPID
  2
GPARA
 70
     0
  0
APPID
  2
MCAD_NO_VIS
 70
     0
  0
APPID
  2
ACAD_TEMP_GRAPHIC
 70
     0
  0
APPID
  2
ACATTRIBSERVICES
 70
     0
  0
APPID
  2
GENIUS_GENSCREG_15
 70
     0
  0
APPID
  2
GENIUS_GENODEF_13
 70
     0
  0
APPID
  2
GENIUS_GENOBJ-N-SDF_13
 70
     0
  0
APPID
  2
GENIUS_GENREC_14
 70
     0
  0
APPID
  2
GENIUS_GENOBJ-N-REC_13
 70
     0
  0
APPID
  2
GENIUS_GENDIMSH_14
 70
     0
  0
APPID
  2
GENIUS_GENOBJ-N-DIM_13
 70
     0
  0
APPID
  2
GENIUS_GENDIM_13
 70
     0
  0
APPID
  2
GENIUS_GENDTOL_13
 70
     0
  0
APPID
  2
GENIUS_GENOLIS_13
 70
     0
  0
APPID
  2
GENIUS_GENOENT_13
 70
     0
  0
APPID
  2
GENIUS_GENOBJ-F-FEM_13
 70
     0
  0
APPID
  2
GENIUS_GENOREF_13
 70
     0
  0
APPID
  2
GENIUS_GEFFEM_13
 70
     0
  0
APPID
  2
GENIUS_GEFFEMP_13
 70
     0
  0
APPID
  2
AD_DRAW
 70
     0
  0
APPID
  2
DESIGNERASSEMBLIES
 70
     0
  0
APPID
  2
ACADM_DIM_EDIT
 70
     0
  0
APPID
  2
AMDT_DM_ADJ
 70
     0
  0
APPID
  2
ACAD_NAV_VCDISPLAY
 70
     0
  0
APPID
  2
ITEMNAME
 70
     0
  0
APPID
  2
GENIUS_GENOBJ-N-FIL_13
 70
     0
  0
APPID
  2
ACAD_DSTYLE_DIMJAG
 70
     0
  0
APPID
  2
ACAD_DSTYLE_DIMBREAK
 70
     0
  0
APPID
  2
ACAECLAYERSTANDARD
 70
     0
  0
APPID
  2
LAYER_SCALE
 70
     0
  0
APPID
  2
ACAD_PSEXT
 70
     0
  0
APPID
  2
ASK_MEN_XD
 70
     0
  0
APPID
  2
ACAD_EXEMPT_FROM_CAD_STANDARDS
 70
     0
  0
APPID
  2
ACAD_DSTYLE_DIMINSPECT
 70
     0
  0
APPID
  2
ACADANNOMONITORALERTICONDI
 70
     0
  0
APPID
  2
ACAD_MLEADERVER
 70
     0
  0
APPID
  2
ACAD_DSTYLE_DIMARC_LENGTH_
 70
     0
  0
APPID
  2
ACAD_DSTYLE_DIM_LINETYPE
 70
     0
  0
APPID
  2
ACAD_DSTYLE_DIM_EXT1_LINETYPE
 70
     0
  0
APPID
  2
ACAD_DSTYLE_DIM_EXT2_LINETYPE
 70
     0
  0
ENDTAB
  0
TABLE
  2
DIMSTYLE
 70
    30
  0
DIMSTYLE
  2
BIGT
 70
     0
  3

  4

  5
OPEN
  6

  7

 40
1.0
 41
2.2299999999999991
 42
0.5
 43
7.0
 44
1.0
 45
0.0
 46
0.0
 47
0.0
 48
0.01
140
2.7999999999999989
141
0.0
142
0.0
143
25.3999999999999986
144
1.0
145
0.0
146
1.0
147
1.0
 71
     0
 72
     0
 73
     0
 74
     0
 75
     0
 76
     0
 77
     3
 78
     9
170
     0
171
     2
172
     1
173
     0
174
     1
175
     0
176
   256
177
   256
178
    40
  0
DIMSTYLE
  2
AM_ISO
 70
     0
  3

  4
"
  5

  6

  7

 40
1.0
 41
2.5
 42
1.0
 43
10.0
 44
1.0
 45
0.0
 46
0.0
 47
0.1
 48
0.1
140
3.5
141
0.0
142
0.0
143
0.0393701
144
1.0
145
0.0
146
0.71
147
1.5
 71
     0
 72
     0
 73
     0
 74
     0
 75
     0
 76
     0
 77
     1
 78
     8
170
     0
171
     2
172
     1
173
     0
174
     0
175
     0
176
   256
177
   256
178
     2
  0
DIMSTYLE
  2
AM_ISO$3
 70
     0
  3

  4
"
  5

  6

  7

 40
1.0
 41
2.5
 42
1.0
 43
10.0
 44
1.0
 45
0.0
 46
0.0
 47
0.1
 48
0.1
140
3.5
141
0.0
142
0.0
143
0.0393701
144
1.0
145
0.0
146
0.71
147
1.5
 71
     0
 72
     0
 73
     0
 74
     1
 75
     0
 76
     0
 77
     1
 78
     8
170
     0
171
     2
172
     0
173
     0
174
     0
175
     0
176
   256
177
   256
178
     2
  0
DIMSTYLE
  2
AM_ISO$4
 70
     0
  3

  4
"
  5

  6

  7

 40
1.0
 41
2.5
 42
1.0
 43
10.0
 44
1.0
 45
0.0
 46
0.0
 47
0.1
 48
0.1
140
3.5
141
0.0
142
0.0
143
0.0393701
144
1.0
145
0.0
146
0.71
147
1.5
 71
     0
 72
     0
 73
     0
 74
     1
 75
     0
 76
     0
 77
     1
 78
     8
170
     0
171
     2
172
     0
173
     0
174
     0
175
     0
176
   256
177
   256
178
     2
  0
DIMSTYLE
  2
AM_ISO$6
 70
     0
  3

  4
"
  5

  6

  7

 40
1.0
 41
2.5
 42
1.0
 43
10.0
 44
1.0
 45
0.0
 46
0.0
 47
0.1
 48
0.1
140
3.5
141
0.0
142
0.0
143
0.0393701
144
1.0
145
0.0
146
0.71
147
1.5
 71
     0
 72
     0
 73
     0
 74
     0
 75
     0
 76
     0
 77
     0
 78
     8
170
     0
171
     2
172
     1
173
     0
174
     0
175
     0
176
   256
177
   256
178
     2
  0
DIMSTYLE
  2
AM_ISO$7
 70
     0
  3

  4
"
  5

  6

  7

 40
1.0
 41
2.5
 42
1.0
 43
10.0
 44
1.0
 45
0.0
 46
0.0
 47
0.1
 48
0.1
140
5.0
141
0.0
142
0.0
143
0.0393701
144
1.0
145
0.0
146
0.71
147
1.5
 71
     0
 72
     0
 73
     0
 74
     0
 75
     0
 76
     0
 77
     1
 78
     8
170
     0
171
     2
172
     1
173
     0
174
     0
175
     0
176
   256
177
   256
178
     2
  0
DIMSTYLE
  2
AM_ISO$SF
 70
     0
  3

  4
"
  5

  6

  7

 40
1.0
 41
2.5
 42
1.0
 43
10.0
 44
1.0
 45
0.0
 46
0.0
 47
0.1
 48
0.1
140
3.5
141
0.0
142
0.0
143
0.0393701
144
1.0
145
0.0
146
0.71
147
1.5
 71
     0
 72
     0
 73
     0
 74
     0
 75
     1
 76
     1
 77
     1
 78
     8
170
     0
171
     2
172
     1
173
     0
174
     0
175
     0
176
   256
177
   256
178
     2
  0
DIMSTYLE
  2
AM_ISO$SH
 70
     0
  3

  4
"
  5

  6
GENAXEH
  7

 40
1.0
 41
2.5
 42
1.0
 43
10.0
 44
1.0
 45
0.0
 46
0.0
 47
0.1
 48
0.1
140
3.5
141
0.0
142
0.0
143
0.0393701
144
2.0
145
0.0
146
0.71
147
1.5
 71
     0
 72
     0
 73
     0
 74
     0
 75
     1
 76
     1
 77
     1
 78
     8
170
     0
171
     2
172
     1
173
     1
174
     0
175
     0
176
   256
177
   256
178
     2
  0
DIMSTYLE
  2
BIGT$2
 70
     0
  3

  4

  5
OPEN
  6

  7

 40
1.0
 41
2.2299999999999991
 42
0.5
 43
7.0
 44
1.0
 45
0.0
 46
0.0
 47
0.0
 48
0.01
140
2.7999999999999989
141
0.0
142
0.0
143
25.3999999999999986
144
1.0
145
0.0
146
1.0
147
1.0
 71
     0
 72
     0
 73
     0
 74
     0
 75
     0
 76
     0
 77
     3
 78
     9
170
     0
171
     2
172
     1
173
     0
174
     0
175
     0
176
   256
177
   256
178
    40
  0
DIMSTYLE
  2
BIGT$3
 70
     0
  3

  4

  5
OPEN
  6

  7

 40
1.0
 41
2.2299999999999991
 42
0.5
 43
2.5
 44
1.0
 45
0.0
 46
0.0
 47
0.0
 48
0.01
140
2.7999999999999989
141
0.0
142
0.0
143
25.3999999999999986
144
1.0
145
0.0
146
1.0
147
1.0
 71
     0
 72
     0
 73
     0
 74
     0
 75
     0
 76
     0
 77
     3
 78
     9
170
     0
171
     2
172
     1
173
     0
174
     0
175
     0
176
   256
177
   256
178
    40
  0
DIMSTYLE
  2
BIGT$7
 70
     0
  3

  4

  5
OPEN
  6

  7

 40
0.0
 41
2.2299999999999991
 42
0.5
 43
7.0
 44
1.0
 45
0.0
 46
0.0
 47
0.0
 48
0.01
140
2.7999999999999989
141
0.0
142
0.0
143
25.3999999999999986
144
1.0
145
0.0
146
1.0
147
1.0
 71
     0
 72
     0
 73
     0
 74
     0
 75
     0
 76
     0
 77
     3
 78
     9
170
     0
171
     2
172
     0
173
     0
174
     0
175
     0
176
   256
177
   256
178
    40
  0
DIMSTYLE
  2
BIGT$6
 70
     0
  3

  4

  5
OPEN
  6

  7

 40
1.0
 41
2.2299999999999991
 42
0.5
 43
2.5
 44
1.0
 45
0.0
 46
0.0
 47
0.0
 48
0.01
140
2.7999999999999989
141
0.0
142
0.0
143
25.3999999999999986
144
1.0
145
0.0
146
1.0
147
1.0
 71
     0
 72
     0
 73
     0
 74
     0
 75
     0
 76
     0
 77
     3
 78
     9
170
     0
171
     2
172
     1
173
     0
174
     0
175
     0
176
   256
177
   256
178
    40
  0
DIMSTYLE
  2
BIGT$0
 70
     0
  3

  4

  5
OPEN
  6

  7

 40
1.0
 41
2.2299999999999991
 42
0.5
 43
7.0
 44
1.0
 45
0.0
 46
0.0
 47
0.0
 48
0.01
140
2.7999999999999989
141
0.0
142
0.0
143
25.3999999999999986
144
1.0
145
0.0
146
1.0
147
1.0
 71
     0
 72
     0
 73
     0
 74
     0
 75
     0
 76
     0
 77
     3
 78
     9
170
     0
171
     2
172
     1
173
     0
174
     0
175
     0
176
   256
177
   256
178
    40
  0
DIMSTYLE
  2
BIGT$4
 70
     0
  3

  4

  5
OPEN
  6

  7

 40
1.0
 41
2.2299999999999991
 42
0.5
 43
2.5
 44
1.0
 45
0.0
 46
0.0
 47
0.0
 48
0.01
140
2.7999999999999989
141
0.0
142
0.0
143
25.3999999999999986
144
1.0
145
0.0
146
1.0
147
1.0
 71
     0
 72
     0
 73
     0
 74
     0
 75
     0
 76
     0
 77
     3
 78
     9
170
     0
171
     2
172
     1
173
     0
174
     0
175
     0
176
   256
177
   256
178
    40
  0
DIMSTYLE
  2
BIGT$SH
 70
     0
  3

  4

  5
OPEN
  6

  7

 40
1.0
 41
2.2299999999999991
 42
0.5
 43
7.0
 44
1.0
 45
0.0
 46
0.0
 47
0.0
 48
0.0
140
2.7999999999999989
141
0.0
142
0.0
143
25.3999999999999986
144
1.0
145
0.0
146
1.0
147
1.0
 71
     0
 72
     0
 73
     0
 74
     0
 75
     0
 76
     0
 77
     3
 78
     9
170
     0
171
     2
172
     1
173
     0
174
     0
175
     0
176
   256
177
   256
178
    40
  0
DIMSTYLE
  2
BIGT$SF
 70
     0
  3

  4

  5
OPEN
  6

  7

 40
1.0
 41
2.2299999999999991
 42
0.5
 43
7.0
 44
1.0
 45
0.0
 46
0.0
 47
0.0
 48
0.0
140
2.7999999999999989
141
0.0
142
0.0
143
25.3999999999999986
144
1.0
145
0.0
146
1.0
147
1.0
 71
     0
 72
     0
 73
     0
 74
     0
 75
     0
 76
     0
 77
     3
 78
     9
170
     0
171
     2
172
     1
173
     0
174
     0
175
     0
176
   256
177
   256
178
    40
  0
DIMSTYLE
  2
TECHNICAL_OSAKA
 70
     0
  3

  4
"
  5
OPEN30
  6

  7

 40
1.0
 41
2.5
 42
1.0
 43
10.0
 44
1.0
 45
0.0
 46
0.0
 47
0.1
 48
0.1
140
2.7999999999999989
141
0.0
142
0.0
143
0.0393701
144
1.0
145
0.0
146
0.71
147
1.5
 71
     0
 72
     0
 73
     0
 74
     0
 75
     0
 76
     0
 77
     3
 78
     8
170
     0
171
     2
172
     1
173
     0
174
     0
175
     0
176
   256
177
   256
178
    40
  0
DIMSTYLE
  2
TECHNICAL_OSAKA$3
 70
     0
  3

  4
"
  5
OPEN30
  6

  7

 40
1.0
 41
2.5
 42
1.0
 43
10.0
 44
1.0
 45
0.0
 46
0.0
 47
0.1
 48
0.1
140
2.7999999999999989
141
0.0
142
0.0
143
0.0393701
144
1.0
145
0.0
146
0.71
147
1.5
 71
     0
 72
     0
 73
     0
 74
     1
 75
     0
 76
     0
 77
     3
 78
     8
170
     0
171
     2
172
     0
173
     0
174
     0
175
     0
176
   256
177
   256
178
    40
  0
DIMSTYLE
  2
TECHNICAL_OSAKA$4
 70
     0
  3

  4
"
  5
OPEN30
  6

  7

 40
1.0
 41
2.5
 42
1.0
 43
10.0
 44
1.0
 45
0.0
 46
0.0
 47
0.1
 48
0.1
140
2.7999999999999989
141
0.0
142
0.0
143
0.0393701
144
1.0
145
0.0
146
0.71
147
1.5
 71
     0
 72
     0
 73
     0
 74
     1
 75
     0
 76
     0
 77
     3
 78
     8
170
     0
171
     2
172
     0
173
     0
174
     0
175
     0
176
   256
177
   256
178
    40
  0
DIMSTYLE
  2
TECHNICAL_OSAKA$6
 70
     0
  3

  4
"
  5
OPEN30
  6

  7

 40
1.0
 41
2.5
 42
1.0
 43
10.0
 44
1.0
 45
0.0
 46
0.0
 47
0.1
 48
0.1
140
2.7999999999999989
141
0.0
142
0.0
143
0.0393701
144
1.0
145
0.0
146
0.71
147
1.5
 71
     0
 72
     0
 73
     0
 74
     0
 75
     0
 76
     0
 77
     0
 78
     8
170
     0
171
     2
172
     1
173
     0
174
     0
175
     0
176
   256
177
   256
178
    40
  0
DIMSTYLE
  2
TECHNICAL_OSAKA$7
 70
     0
  3

  4
"
  5
OPEN30
  6

  7

 40
1.0
 41
2.5
 42
1.0
 43
10.0
 44
1.0
 45
0.0
 46
0.0
 47
0.1
 48
0.1
140
2.7999999999999989
141
0.0
142
0.0
143
0.0393701
144
1.0
145
0.0
146
0.71
147
1.5
 71
     0
 72
     0
 73
     0
 74
     0
 75
     0
 76
     0
 77
     3
 78
     8
170
     0
171
     2
172
     1
173
     0
174
     0
175
     0
176
   256
177
   256
178
    40
  0
DIMSTYLE
  2
TECHNICAL_OSAKA$SF
 70
     0
  3

  4
"
  5
OPEN30
  6
OPEN30
  7
OPEN30
 40
1.0
 41
2.5
 42
1.0
 43
10.0
 44
1.0
 45
0.0
 46
0.0
 47
0.1
 48
0.1
140
3.5
141
0.0
142
0.0
143
0.0393701
144
1.0
145
0.0
146
0.71
147
1.5
 71
     0
 72
     0
 73
     0
 74
     0
 75
     1
 76
     1
 77
     3
 78
     8
170
     0
171
     2
172
     1
173
     0
174
     0
175
     0
176
   256
177
   256
178
    40
  0
DIMSTYLE
  2
TECHNICAL_OSAKA$SH
 70
     0
  3

  4
"
  5
OPEN30
  6
GENAXEH
  7
OPEN30
 40
1.0
 41
2.5
 42
1.0
 43
10.0
 44
1.0
 45
0.0
 46
0.0
 47
0.1
 48
0.1
140
3.5
141
0.0
142
0.0
143
0.0393701
144
2.0
145
0.0
146
0.71
147
1.5
 71
     0
 72
     0
 73
     0
 74
     0
 75
     1
 76
     1
 77
     3
 78
     8
170
     0
171
     2
172
     1
173
     1
174
     0
175
     0
176
   256
177
   256
178
    40
  0
DIMSTYLE
  2
AM_ANSI
 70
     0
  3

  4
mm
  5

  6

  7

 40
1.0
 41
0.12
 42
0.05
 43
0.5
 44
0.1
 45
0.0
 46
0.0
 47
0.1
 48
0.1
140
0.12
141
0.0
142
0.0
143
25.3999999999999986
144
1.0
145
0.0
146
0.71
147
0.06
 71
     0
 72
     0
 73
     1
 74
     1
 75
     0
 76
     0
 77
     0
 78
     7
170
     0
171
     2
172
     0
173
     0
174
     0
175
     0
176
   256
177
   256
178
     3
  0
DIMSTYLE
  2
AM_ANSI$3
 70
     0
  3

  4
mm
  5

  6

  7

 40
1.0
 41
0.12
 42
0.05
 43
0.5
 44
0.1
 45
0.0
 46
0.0
 47
0.1
 48
0.1
140
0.12
141
0.0
142
0.0
143
25.3999999999999986
144
1.0
145
0.0
146
0.71
147
0.06
 71
     0
 72
     0
 73
     1
 74
     1
 75
     0
 76
     0
 77
     0
 78
     7
170
     0
171
     2
172
     0
173
     0
174
     0
175
     0
176
   256
177
   256
178
     3
  0
DIMSTYLE
  2
AM_ANSI$4
 70
     0
  3

  4
mm
  5

  6

  7

 40
1.0
 41
0.12
 42
0.05
 43
0.5
 44
0.1
 45
0.0
 46
0.0
 47
0.1
 48
0.1
140
0.12
141
0.0
142
0.0
143
25.3999999999999986
144
1.0
145
0.0
146
0.71
147
0.06
 71
     0
 72
     0
 73
     1
 74
     1
 75
     0
 76
     0
 77
     0
 78
     7
170
     0
171
     2
172
     0
173
     0
174
     0
175
     0
176
   256
177
   256
178
     3
  0
DIMSTYLE
  2
AM_ANSI$7
 70
     0
  3

  4
mm
  5

  6

  7

 40
1.0
 41
0.12
 42
0.05
 43
0.5
 44
0.1
 45
0.0
 46
0.0
 47
0.1
 48
0.1
140
0.12
141
0.0
142
0.0
143
25.3999999999999986
144
1.0
145
0.0
146
0.71
147
0.06
 71
     0
 72
     0
 73
     1
 74
     1
 75
     0
 76
     0
 77
     0
 78
     7
170
     0
171
     2
172
     0
173
     0
174
     0
175
     0
176
   256
177
   256
178
     3
  0
DIMSTYLE
  2
AM_ANSI$SF
 70
     0
  3

  4
mm
  5

  6

  7

 40
1.0
 41
0.12
 42
0.05
 43
0.5
 44
0.1
 45
0.0
 46
0.0
 47
0.1
 48
0.1
140
0.12
141
0.0
142
0.0
143
25.3999999999999986
144
1.0
145
0.0
146
0.71
147
0.06
 71
     0
 72
     0
 73
     1
 74
     1
 75
     1
 76
     1
 77
     0
 78
     7
170
     0
171
     2
172
     0
173
     0
174
     0
175
     0
176
   256
177
   256
178
     3
  0
DIMSTYLE
  2
AM_ANSI$SH
 70
     0
  3

  4
mm
  5

  6
GENAXEH
  7

 40
1.0
 41
0.12
 42
0.05
 43
0.5
 44
0.1
 45
0.0
 46
0.0
 47
0.1
 48
0.1
140
0.12
141
0.0
142
0.0
143
25.3999999999999986
144
1.0
145
0.0
146
0.71
147
0.06
 71
     0
 72
     0
 73
     1
 74
     1
 75
     1
 76
     1
 77
     0
 78
     7
170
     0
171
     2
172
     0
173
     1
174
     0
175
     0
176
   256
177
   256
178
     3
  0
DIMSTYLE
  2
STANDARD
 70
     0
  3

  4

  5

  6

  7

 40
1.0
 41
0.18
 42
0.0625
 43
0.38
 44
0.18
 45
0.0
 46
0.0
 47
0.0
 48
0.0
140
0.18
141
0.09
142
0.0
143
25.3999999999999986
144
1.0
145
0.0
146
1.0
147
0.09
 71
     0
 72
     0
 73
     1
 74
     1
 75
     0
 76
     0
 77
     0
 78
     0
170
     0
171
     2
172
     0
173
     0
174
     0
175
     0
176
     0
177
     0
178
     0
  0
ENDTAB
  0
ENDSEC
  0
SECTION
  2
BLOCKS
  0
BLOCK
  8
0
  2
$MODEL_SPACE
 70
     0
 10
0.0
 20
0.0
 30
0.0
  3
$MODEL_SPACE
  1

  0
ENDBLK
  5
1C
  8
0
  0
BLOCK
 67
     1
  8
0
  2
$PAPER_SPACE
 70
     0
 10
0.0
 20
0.0
 30
0.0
  3
$PAPER_SPACE
  1

  0
ENDBLK
  5
19
 67
     1
  8
0
  0
BLOCK
  8
0
  2
_OPEN
 70
     0
 10
0.0
 20
0.0
 30
0.0
  3
_OPEN
  1

  0
LINE
  5
595
  8
0
  6
BYBLOCK
 62
     0
 10
-1.0
 20
0.1666666666666666
 30
0.0
 11
0.0
 21
0.0
 31
0.0
  0
LINE
  5
596
  8
0
  6
BYBLOCK
 62
     0
 10
-1.0
 20
-0.1666666666666666
 30
0.0
 11
0.0
 21
0.0
 31
0.0
  0
LINE
  5
597
  8
0
  6
BYBLOCK
 62
     0
 10
0.0
 20
0.0
 30
0.0
 11
-1.0
 21
0.0
 31
0.0
  0
ENDBLK
  5
599
  8
0
  0
BLOCK
  8
0
  2
GENAXEH
 70
     0
 10
0.0
 20
0.0
 30
0.0
  3
GENAXEH
  1

  0
LINE
  5
6E8
  8
0
 10
-1.0
 20
0.0
 30
0.0
 11
1.0
 21
0.0
 31
0.0
  0
ENDBLK
  5
6EA
  8
0
  0
BLOCK
  8
0
  2
_OPEN30
 70
     0
 10
0.0
 20
0.0
 30
0.0
  3
_OPEN30
  1

  0
LINE
  5
E8F
  8
0
  6
BYBLOCK
 62
     0
 10
-1.0
 20
0.26794919
 30
0.0
 11
0.0
 21
0.0
 31
0.0
  0
LINE
  5
E90
  8
0
  6
BYBLOCK
 62
     0
 10
0.0
 20
0.0
 30
0.0
 11
-1.0
 21
-0.26794919
 31
0.0
  0
LINE
  5
E91
  8
0
  6
BYBLOCK
 62
     0
 10
0.0
 20
0.0
 30
0.0
 11
-1.0
 21
0.0
 31
0.0
  0
ENDBLK
  5
E93
  8
0
  0
BLOCK
  8
0
  2
_ACMOPEN15
 70
     0
 10
0.0
 20
0.0
 30
0.0
  3
_ACMOPEN15
  1

  0
LINE
  5
1359
  8
245
 62
     0
 10
-1.0
 20
0.0
 30
0.0
 11
0.0
 21
0.0
 31
0.0
  0
LINE
  5
135A
  8
245
 62
     0
 10
-1.0
 20
-0.131652497
 30
0.0
 11
0.0
 21
0.0
 31
0.0
  0
LINE
  5
135B
  8
245
 62
     0
 10
0.0
 20
0.0
 30
0.0
 11
-1.0
 21
0.131652497
 31
0.0
  0
ENDBLK
  5
1358
  8
0
  0
ENDSEC
  0
SECTION
  2
ENTITIES
  0
LINE
  5
1443
  8
240
  6
CONTINUOUS
 10
17.5999999999999908
 20
23.0
 30
0.0
 11
21.7000000000034596
 21
23.0
 31
0.0
  0
LINE
  5
1444
  8
243
  6
HIDDEN2
 10
19.0
 20
16.3000000000000114
 30
0.0
 11
1.0
 21
16.3000000000000114
 31
0.0
  0
LINE
  5
1445
  8
240
  6
CONTINUOUS
 10
17.5999999999999908
 20
-23.0
 30
0.0
 11
21.7000000000033388
 21
-23.0
 31
0.0
  0
LINE
  5
1446
  8
243
  6
HIDDEN2
 10
19.0
 20
-16.3000000000000114
 30
0.0
 11
1.0
 21
-16.3000000000000114
 31
0.0
  0
LINE
  5
1447
  8
245
  6
CENTER2
 10
-49.4000000000000128
 20
0.0
 30
0.0
 11
102.8732498414162961
 21
0.0
 31
0.0
  0
LINE
  5
1448
  8
240
  6
CONTINUOUS
 10
-48.3999999999999773
 20
-8.8165000019866966
 30
0.0
 11
0.0
 21
-15.875
 31
0.0
  0
LINE
  5
1449
  8
240
  6
CONTINUOUS
 10
-48.3999999999999773
 20
-8.8165000019866966
 30
0.0
 11
-48.3999999999999773
 21
8.8165000019866966
 31
0.0
  0
LINE
  5
144A
  8
240
  6
CONTINUOUS
 10
15.2905989200000096
 20
-19.0
 30
0.0
 11
17.5999999999999908
 21
-23.0
 31
0.0
  0
LINE
  5
144B
  8
240
  6
CONTINUOUS
 10
11.9094010800000092
 20
-19.0
 30
0.0
 11
9.5999999999999943
 21
-23.0
 31
0.0
  0
LINE
  5
144C
  8
240
  6
CONTINUOUS
 10
1.0
 20
-15.875
 30
0.0
 11
1.0
 21
-23.0
 31
0.0
  0
LINE
  5
144D
  8
241
  6
CONTINUOUS
 10
17.5999999999999801
 20
23.0000000000000604
 30
0.0
 11
17.5999999999999908
 21
-23.0
 31
0.0
  0
LINE
  5
144E
  8
241
  6
CONTINUOUS
 10
9.5999999999999943
 20
-23.0
 30
0.0
 11
9.5999999999999943
 21
23.0
 31
0.0
  0
LINE
  5
144F
  8
240
  6
CONTINUOUS
 10
9.5999999999999943
 20
-23.0
 30
0.0
 11
1.0
 21
-23.0
 31
0.0
  0
LINE
  5
1450
  8
241
  6
CONTINUOUS
 10
15.2905989200000096
 20
-19.0
 30
0.0
 11
15.2905989199999901
 21
19.0
 31
0.0
  0
LINE
  5
1451
  8
241
  6
CONTINUOUS
 10
11.9094010800000092
 20
-19.0
 30
0.0
 11
11.9094010799999808
 21
19.0
 31
0.0
  0
LINE
  5
1452
  8
241
  6
CONTINUOUS
 10
0.0
 20
-15.875
 30
0.0
 11
0.0
 21
15.875
 31
0.0
  0
LINE
  5
1453
  8
241
  6
CONTINUOUS
 10
1.0
 20
15.875
 30
0.0
 11
1.0
 21
-15.875
 31
0.0
  0
LINE
  5
1454
  8
240
  6
CONTINUOUS
 10
0.0
 20
-15.875
 30
0.0
 11
1.0
 21
-15.875
 31
0.0
  0
LINE
  5
1455
  8
240
  6
CONTINUOUS
 10
11.9094010800000092
 20
-19.0
 30
0.0
 11
15.2905989200000096
 21
-19.0
 31
0.0
  0
LINE
  5
1456
  8
240
  6
CONTINUOUS
 10
-48.3999999999999773
 20
8.8165000019866966
 30
0.0
 11
0.0
 21
15.875
 31
0.0
  0
LINE
  5
1457
  8
240
  6
CONTINUOUS
 10
15.2905989200000096
 20
19.0
 30
0.0
 11
17.5999999999999908
 21
23.0
 31
0.0
  0
LINE
  5
1458
  8
240
  6
CONTINUOUS
 10
11.9094010800000092
 20
19.0
 30
0.0
 11
9.5999999999999943
 21
23.0
 31
0.0
  0
LINE
  5
1459
  8
240
  6
CONTINUOUS
 10
1.0
 20
15.875
 30
0.0
 11
1.0
 21
23.0
 31
0.0
  0
LINE
  5
145A
  8
240
  6
CONTINUOUS
 10
0.0
 20
15.875
 30
0.0
 11
1.0
 21
15.875
 31
0.0
  0
LINE
  5
145B
  8
240
  6
CONTINUOUS
 10
11.9094010800000092
 20
19.0
 30
0.0
 11
15.2905989200000096
 21
19.0
 31
0.0
  0
LINE
  5
145C
  8
240
  6
CONTINUOUS
 10
9.5999999999999943
 20
23.0
 30
0.0
 11
1.0
 21
23.0
 31
0.0
  0
LINE
  5
145D
  8
241
  6
CONTINUOUS
 10
22.0
 20
-22.6999999198783016
 30
0.0
 11
22.0
 21
22.7000000000012108
 31
0.0
  0
LINE
  5
145E
  8
243
  6
HIDDEN2
 10
19.0
 20
-16.3000000000000114
 30
0.0
 11
19.0
 21
-23.0
 31
0.0
  0
LINE
  5
145F
  8
243
  6
HIDDEN2
 10
19.0
 20
16.3000000000000114
 30
0.0
 11
19.0
 21
23.0
 31
0.0
  0
LINE
  5
1460
  8
247
  6
CONTINUOUS
 10
6.4999999999999432
 20
-13.75
 30
0.0
 11
6.5
 21
-9.1153846156699974
 31
0.0
  0
LINE
  5
1461
  8
247
  6
CONTINUOUS
 10
4.0
 20
-12.9548934999879197
 30
0.0
 11
6.0999999999160082
 21
-13.5570588100573506
 31
0.0
  0
LINE
  5
1462
  8
247
  6
CONTINUOUS
 10
4.996153846113998
 20
-12.3251514035190404
 30
0.0
 11
4.996153846113998
 21
-13.2405360188670294
 31
0.0
  0
ARC
  5
1463
  8
247
  6
CONTINUOUS
 10
4.3847190672940961
 20
-12.0872634019467498
 30
0.0
 40
0.3876715809326743
 50
72.9978896752930098
 51
172.9241662185135056
  0
ARC
  5
1464
  8
247
  6
CONTINUOUS
 10
4.305223131028014
 20
-12.3824775568040693
 30
0.0
 40
0.6933047965358772
 50
4.7429368522022122
 51
73.8492262732667513
1001
GENIUS_GENOBJ-N-FIL_13
1002
{
1000
OWNER
1000
GEN
1002
}
1001
GENIUS_GENODEF_13
1002
{
1000
HIER
1070
     0
1002
}
1002
{
1000
MANEDIT
1070
     0
1002
}
1002
{
1000
NOSEL
1070
     0
1002
}
1002
{
1000
BEHIND
1070
     0
1002
}
1002
{
1000
OTHER
1070
     0
1002
}
1002
{
1000
REACTOR
1002
}
  0
LINE
  5
1465
  8
247
  6
CONTINUOUS
 10
6.0999999999160082
 20
-12.6416741947093598
 30
0.0
 11
6.0999999999160082
 21
-13.5570588100573506
 31
0.0
  0
LINE
  5
1466
  8
247
  6
CONTINUOUS
 10
4.0
 20
-12.9548934999879197
 30
0.0
 11
4.0
 21
-12.0395088846399307
 31
0.0
  0
ARC
  5
1467
  8
247
  6
CONTINUOUS
 10
5.3874169627678707
 20
-12.3783064762668005
 30
0.0
 40
0.394857301075386
 50
65.990941652528889
 51
172.2634434590690944
  0
ARC
  5
1468
  8
247
  6
CONTINUOUS
 10
5.391200327332565
 20
-12.7124466104269196
 30
0.0
 40
0.7123241612361686
 50
5.701985164256504
 51
77.2773384368220064
1001
GENIUS_GENOBJ-N-FIL_13
1002
{
1000
OWNER
1000
GEN
1002
}
1001
GENIUS_GENODEF_13
1002
{
1000
HIER
1070
     0
1002
}
1002
{
1000
MANEDIT
1070
     0
1002
}
1002
{
1000
NOSEL
1070
     0
1002
}
1002
{
1000
BEHIND
1070
     0
1002
}
1002
{
1000
OTHER
1070
     0
1002
}
1002
{
1000
REACTOR
1002
}
  0
LINE
  5
1469
  8
247
  6
CONTINUOUS
 10
6.0999999999160082
 20
-11.6839818870633394
 30
0.0
 11
4.0
 21
-11.0818165769939601
 31
0.0
  0
LINE
  5
146A
  8
247
  6
CONTINUOUS
 10
4.0
 20
-9.5856627309079272
 30
0.0
 11
4.0
 21
-9.9816783643035496
 31
0.0
  0
LINE
  5
146B
  8
247
  6
CONTINUOUS
 10
6.0999999999160082
 20
-10.60873965394393
 30
0.0
 11
6.0999999999160082
 21
-10.1779704231919297
 31
0.0
  0
ARC
  5
146C
  8
247
  6
CONTINUOUS
 10
5.4582995950833562
 20
-9.3818165770699125
 30
0.0
 40
1.576855057639547
 50
202.3594881415293969
 51
254.9932485428469136
  0
ARC
  5
146D
  8
247
  6
CONTINUOUS
 10
4.5658188585381341
 20
-9.8475113661331761
 30
0.0
 40
0.6234706797009447
 50
94.9945893190753168
 51
155.1663289573041027
1001
GENIUS_GENOBJ-N-FIL_13
1002
{
1000
OWNER
1000
GEN
1002
}
1001
GENIUS_GENODEF_13
1002
{
1000
HIER
1070
     0
1002
}
1002
{
1000
MANEDIT
1070
     0
1002
}
1002
{
1000
NOSEL
1070
     0
1002
}
1002
{
1000
BEHIND
1070
     0
1002
}
1002
{
1000
OTHER
1070
     0
1002
}
1002
{
1000
REACTOR
1002
}
  0
ARC
  5
146E
  8
247
  6
CONTINUOUS
 10
5.1621021219694381
 20
-10.4441839510327501
 30
0.0
 40
0.9749472149106982
 50
15.8460965557806794
 51
82.325137004169278
  0
ARC
  5
146F
  8
247
  6
CONTINUOUS
 10
5.3714704019710631
 20
-10.0352116387721804
 30
0.0
 40
0.9271945638692008
 50
249.7136016704968995
 51
321.7887456564109243
1001
GENIUS_GENOBJ-N-FIL_13
1002
{
1000
OWNER
1000
GEN
1002
}
1001
GENIUS_GENODEF_13
1002
{
1000
HIER
1070
     0
1002
}
1002
{
1000
MANEDIT
1070
     0
1002
}
1002
{
1000
NOSEL
1070
     0
1002
}
1002
{
1000
BEHIND
1070
     0
1002
}
1002
{
1000
OTHER
1070
     0
1002
}
1002
{
1000
REACTOR
1002
}
  0
LINE
  5
1470
  8
247
  6
CONTINUOUS
 10
5.2923076922559744
 20
-9.9625858078159126
 30
0.0
 11
5.2923076922559744
 21
-9.4779704232199702
 31
0.0
  0
ARC
  5
1471
  8
247
  6
CONTINUOUS
 10
5.25
 20
-13.75
 30
0.0
 40
1.25
 50
180.0
 51
0.0
  0
LINE
  5
1472
  8
247
  6
CONTINUOUS
 10
4.0
 20
-13.75
 30
0.0
 11
4.0
 21
-13.3038461539139803
 31
0.0
  0
ARC
  5
1473
  8
247
  6
CONTINUOUS
 10
5.25
 20
-9.1153846156699974
 30
0.0
 40
1.25
 50
0.0
 51
180.0
  0
LINE
  5
1474
  8
250
  6
CONTINUOUS
 10
-29.1926459999999715
 20
-20.9932665409933215
 30
0.0
 11
-46.9259793299999615
 21
-20.9932665409933215
 31
0.0
1001
ITEMNAME
1000
LNSP2
  0
TEXT
  5
1475
  8
250
  6
CONTINUOUS
 10
-44.6593126633333029
 20
-19.9932665409933215
 30
0.0
 40
2.799999999999998
  1
BBT30
  7
YOKO
1001
ITEMNAME
1000
LNSP3
1001
ACAD
1000
MTEXTBEGIN
1070
    73
1070
     1
1070
    44
1040
1.0
1070
    74
1070
     0
1000
MTEXTEND
1000
MTEXTBEGIN
1070
    73
1070
     1
1070
    44
1040
1.0
1070
    74
1070
     0
1000
MTEXTEND
1000
MTEXTBEGIN
1070
    73
1070
     1
1070
    44
1040
1.0
1070
    74
1070
     0
1000
MTEXTEND
1000
MTEXTBEGIN
1070
    73
1070
     1
1070
    44
1040
1.0
1070
    74
1070
     0
1000
MTEXTEND
  0
LINE
  5
1476
  8
250
  6
CONTINUOUS
 10
-25.3149999996330486
 20
-14.2769866516444992
 30
0.0
 11
-29.1926459999999715
 21
-20.9932665409933215
 31
0.0
1001
ACAD
1000
DSTYLE
1002
{
1070
     6
1000
OPEN
1070
   343
1005
0
1002
}
  0
LINE
  5
1477
  8
250
  6
CONTINUOUS
 10
-25.6368727747415583
 20
-14.0911533183723297
 30
0.0
 11
-24.1999999999999886
 21
-12.3457500009933501
 31
0.0
  0
LINE
  5
1478
  8
250
  6
CONTINUOUS
 10
-24.9931272245245317
 20
-14.4628199849166794
 30
0.0
 11
-24.1999999999999886
 21
-12.3457500009933501
 31
0.0
  0
LINE
  5
1479
  8
250
  6
CONTINUOUS
 10
-24.1999999999999886
 20
-12.3457500009933501
 30
0.0
 11
-25.3149999996330486
 21
-14.2769866516444992
 31
0.0
  0
LINE
  5
1482
  8
240
  6
CONTINUOUS
 10
21.7000000000034596
 20
23.0
 30
0.0
 11
22.0000000000022204
 21
22.7000000000012108
 31
0.0
  0
LINE
  5
1483
  8
240
  6
CONTINUOUS
 10
21.7000000000033388
 20
-23.0
 30
0.0
 11
22.0000000801250302
 21
-22.6999999198783016
 31
0.0
  0
TEXT
  5
1494
  8
241
  6
CONTINUOUS
 10
-48.3999999999999773
 20
56.0
 30
0.0
 40
5.0
  1
BBT30-HDC.250-4
  7
YOKO
 11
-48.3999999999999773
 21
56.0
 31
0.0
 73
     1
  0
LINE
  5
1506
  8
240
  6
CONTINUOUS
 10
90.9343706041114217
 20
-12.9999999999999698
 30
0.0
 11
57.9093218858195868
 21
-13.0000000000000799
 31
0.0
  0
ARC
  5
1507
  8
240
  6
CONTINUOUS
 10
57.9093218858195868
 20
-15.0000000000000799
 30
0.0
 40
2.0
 50
90.0
 51
94.9999999999997584
1001
ASK_MEN_XD
1005
1511
1070
     1
1005
1506
1070
     1
  0
LINE
  5
1508
  8
240
  6
CONTINUOUS
 10
101.6000000000020975
 20
-11.5958432516894092
 30
0.0
 11
90.9343706041114217
 21
-12.9999999999999698
 31
0.0
  0
LINE
  5
150A
  8
241
  6
CONTINUOUS
 10
90.9343706041114217
 20
-12.9999999999999698
 30
0.0
 11
90.9343706041113933
 21
12.9999999999999094
 31
0.0
  0
LINE
  5
150B
  8
240
  6
CONTINUOUS
 10
32.3461491281627787
 20
-16.7345779012779801
 30
0.0
 11
29.5644271118332398
 21
-22.7000000162305504
 31
0.0
  0
LINE
  5
150D
  8
240
  6
CONTINUOUS
 10
22.0000000801250302
 20
-22.6999999198783087
 30
0.0
 11
29.5644271118332398
 21
-22.7000000162305504
 31
0.0
  0
LINE
  5
150E
  8
241
  6
CONTINUOUS
 10
29.5644271118332789
 20
-22.7000000162304616
 30
0.0
 11
29.5644271118332398
 21
22.7000000162305113
 31
0.0
  0
LINE
  5
150F
  8
241
  6
CONTINUOUS
 10
33.078145429704108
 20
-15.7547403454636008
 30
0.0
 11
33.0781454297041719
 21
15.7547403454635209
 31
0.0
  0
LINE
  5
1510
  8
241
  6
CONTINUOUS
 10
57.8220000000023688
 20
13.0019071872765206
 30
0.0
 11
57.8220000000021273
 21
-13.0019071872766006
 31
0.0
  0
LINE
  5
1512
  8
240
  6
CONTINUOUS
 10
57.7350104003242777
 20
-13.0076106038165999
 30
0.0
 11
34.8036052610297872
 21
-15.0138485922248002
 31
0.0
  0
ARC
  5
1513
  8
240
  6
CONTINUOUS
 10
35.065072489272751
 20
-18.0024326865000717
 30
0.0
 40
3.0
 50
94.9999999999997584
 51
155.0
1001
ASK_MEN_XD
1005
150B
1070
     1
1005
1511
1070
     1
  0
LINE
  5
1514
  8
241
  6
CONTINUOUS
 10
80.3996152423400474
 20
-13.0000000000034106
 30
0.0
 11
80.3996152423407437
 21
12.9999999999999503
 31
0.0
  0
LINE
  5
1515
  8
241
  6
CONTINUOUS
 10
74.3996152423723345
 20
-13.0000000000040608
 30
0.0
 11
74.3996152423723345
 21
12.9999999999999698
 31
0.0
  0
LINE
  5
1516
  8
241
  6
CONTINUOUS
 10
72.3996152423371484
 20
-13.0000000000040306
 30
0.0
 11
72.3996152423371484
 21
12.9999999999999805
 31
0.0
  0
LINE
  5
1517
  8
241
  6
CONTINUOUS
 10
66.3996152423333399
 20
-12.9999999999987192
 30
0.0
 11
66.3996152423339083
 21
13.0
 31
0.0
  0
LINE
  5
1519
  8
241
  6
CONTINUOUS
 10
38.1333451947303672
 20
-14.7225340955364992
 30
0.0
 11
38.1333451947303104
 21
14.7225340955364192
 31
0.0
  0
LINE
  5
151A
  8
241
  6
CONTINUOUS
 10
36.927868924706047
 20
-14.8279996033130903
 30
0.0
 11
36.927868924706047
 21
14.8279996033130406
 31
0.0
  0
LINE
  5
1545
  8
240
  6
CONTINUOUS
 10
101.600000000002396
 20
-11.5958432516894092
 30
0.0
 11
101.6000000000020975
 21
11.5958432516893506
 31
0.0
  0
LINE
  5
1546
  8
240
  6
CONTINUOUS
 10
90.9343706041114217
 20
12.9999999999999094
 30
0.0
 11
57.9093218858195868
 21
13.0000000000000302
 31
0.0
  0
ARC
  5
1547
  8
240
  6
CONTINUOUS
 10
57.9093218858195868
 20
15.0000000000000302
 30
0.0
 40
2.0
 50
265.0000000000002274
 51
270.0
1001
ASK_MEN_XD
1005
1511
1070
     1
1005
1506
1070
     1
  0
LINE
  5
1548
  8
240
  6
CONTINUOUS
 10
101.6000000000020975
 20
11.5958432516893506
 30
0.0
 11
90.9343706041114217
 21
12.9999999999999094
 31
0.0
  0
LINE
  5
154A
  8
240
  6
CONTINUOUS
 10
32.3461491281627787
 20
16.7345779012779303
 30
0.0
 11
29.5644271118332398
 21
22.70000001623049
 31
0.0
  0
LINE
  5
154B
  8
240
  6
CONTINUOUS
 10
22.0000000801250302
 20
22.6999999198782483
 30
0.0
 11
29.5644271118332398
 21
22.70000001623049
 31
0.0
  0
LINE
  5
154F
  8
240
  6
CONTINUOUS
 10
57.7350104003242777
 20
13.0076106038165396
 30
0.0
 11
34.8036052610297872
 21
15.0138485922247504
 31
0.0
  0
ARC
  5
1550
  8
240
  6
CONTINUOUS
 10
35.065072489272751
 20
18.0024326865000113
 30
0.0
 40
3.0
 50
205.0
 51
265.0000000000002274
1001
ASK_MEN_XD
1005
150B
1070
     1
1005
1511
1070
     1
  0
LINE
  5
1579
  8
243
  6
HIDDEN2
 10
73.7000000000022197
 20
3.1750000000003662
 30
0.0
 11
101.600000000002197
 21
3.1749999999993408
 31
0.0
  0
LINE
  5
15B1
  8
243
  6
HIDDEN2
 10
73.7000000000022197
 20
-3.1750000000003662
 30
0.0
 11
101.600000000002197
 21
-3.1749999999993408
 31
0.0
  0
INSERT
  5
1637
  8
250
  6
CONTINUOUS
  2
_OPEN
 10
34.7705254743499665
 20
19.3630487544938887
 30
0.0
 41
1.9999999999999949
 42
1.9999999999999949
 43
1.9999999999999949
 50
229.999999999999801
1001
ACAD
1000
DSTYLE
1002
{
1070
    41
1040
2.0
1070
   140
1040
2.799999999999998
1002
}
  0
POLYLINE
  5
1638
  8
250
  6
CONTINUOUS
 66
     1
 10
0.0
 20
0.0
 30
0.0
1001
ACAD
1000
DSTYLE
1002
{
1070
    41
1040
2.0
1070
   140
1040
2.799999999999998
1002
}
  0
VERTEX
  5
1639
  8
250
  6
CONTINUOUS
 10
36.0561006937230388
 20
20.8951376407318001
 30
0.0
  0
VERTEX
  5
163A
  8
250
  6
CONTINUOUS
 10
41.3674811169498824
 20
27.2249943417469211
 30
0.0
  0
SEQEND
  5
163B
  8
250
  6
CONTINUOUS
  0
TEXT
  5
163C
  8
250
  6
CONTINUOUS
 10
35.5462309853335228
 20
28.8779398751272289
 30
0.0
 40
3.0
  1
Screw
  7
YOKO
 11
35.5462309853335228
 21
28.8779398751272289
 31
0.0
 73
     1
  0
LINE
  5
1835
  8
250
  6
CONTINUOUS
 10
101.6000000000020975
 20
12.0958432516893506
 30
0.0
 11
101.6000000000020975
 21
43.0
 31
0.0
  0
LINE
  5
1836
  8
250
  6
CONTINUOUS
 10
0.0
 20
16.375
 30
0.0
 11
0.0000000000000017
 21
43.0
 31
0.0
  0
LINE
  5
1837
  8
250
  6
CONTINUOUS
 10
99.3700000000021362
 20
42.0
 30
0.0
 11
2.2300000000000009
 21
42.0
 31
0.0
  0
LINE
  5
183B
  8
250
  6
CONTINUOUS
 10
99.3700000000021362
 20
42.3716666666666626
 30
0.0
 11
101.6000000000020975
 21
42.0
 31
0.0
  0
LINE
  5
183C
  8
250
  6
CONTINUOUS
 10
99.3700000000021362
 20
41.6283333333333303
 30
0.0
 11
101.6000000000020975
 21
42.0
 31
0.0
  0
LINE
  5
183D
  8
250
  6
CONTINUOUS
 10
101.6000000000020975
 20
42.0
 30
0.0
 11
99.3700000000021362
 21
42.0
 31
0.0
  0
LINE
  5
183E
  8
250
  6
CONTINUOUS
 10
101.6000000000020975
 20
12.0958432516893506
 30
0.0
 11
101.6000000000020975
 21
36.0
 31
0.0
  0
LINE
  5
183F
  8
250
  6
CONTINUOUS
 10
49.5000000000024087
 20
3.549999999999812
 30
0.0
 11
49.5000000000024087
 21
36.0
 31
0.0
  0
LINE
  5
1840
  8
250
  6
CONTINUOUS
 10
99.3700000000021362
 20
35.0
 30
0.0
 11
51.7300000000024127
 21
35.0
 31
0.0
  0
LINE
  5
1844
  8
250
  6
CONTINUOUS
 10
51.7300000000024127
 20
34.6283333333333303
 30
0.0
 11
49.5000000000024087
 21
35.0
 31
0.0
  0
LINE
  5
1845
  8
250
  6
CONTINUOUS
 10
51.7300000000024127
 20
35.3716666666666697
 30
0.0
 11
49.5000000000024087
 21
35.0
 31
0.0
  0
LINE
  5
1846
  8
250
  6
CONTINUOUS
 10
49.5000000000024087
 20
35.0
 30
0.0
 11
51.7300000000024127
 21
35.0
 31
0.0
  0
LINE
  5
1847
  8
250
  6
CONTINUOUS
 10
99.3700000000021362
 20
35.3716666666666697
 30
0.0
 11
101.6000000000020975
 21
35.0
 31
0.0
  0
LINE
  5
1848
  8
250
  6
CONTINUOUS
 10
99.3700000000021362
 20
34.6283333333333303
 30
0.0
 11
101.6000000000020975
 21
35.0
 31
0.0
  0
LINE
  5
1849
  8
250
  6
CONTINUOUS
 10
101.6000000000020975
 20
35.0
 30
0.0
 11
99.3700000000021362
 21
35.0
 31
0.0
  0
TEXT
  5
184A
  8
250
  6
CONTINUOUS
 10
63.9500000000022695
 20
37.2000000000000028
 30
0.0
 40
2.7999999999999989
  1
(max.2.05)
  0
LINE
  5
184B
  8
250
  6
CONTINUOUS
 10
2.2300000000000009
 20
41.6283333333333303
 30
0.0
 11
0.0000000000000016
 21
42.0
 31
0.0
  0
LINE
  5
184C
  8
250
  6
CONTINUOUS
 10
2.2300000000000009
 20
42.3716666666666626
 30
0.0
 11
0.0000000000000016
 21
42.0
 31
0.0
  0
LINE
  5
184D
  8
250
  6
CONTINUOUS
 10
0.0000000000000016
 20
42.0
 30
0.0
 11
2.2300000000000009
 21
42.0
 31
0.0
  0
TEXT
  5
184E
  8
250
  6
CONTINUOUS
 10
46.1333333333343987
 20
43.0
 30
0.0
 40
2.7999999999999989
  1
4.00
  0
LINE
  5
186A
  8
250
  6
CONTINUOUS
 10
91.4343706041122033
 20
12.9999999999998792
 30
0.0
 11
123.1160116168731946
 21
12.9999999999998792
 31
0.0
  0
LINE
  5
186B
  8
250
  6
CONTINUOUS
 10
91.4343706041114075
 20
-12.9999999999999698
 30
0.0
 11
123.1160116168731946
 21
-12.9999999999999805
 31
0.0
  0
LINE
  5
186C
  8
250
  6
CONTINUOUS
 10
122.1160116168731946
 20
10.7699999999998699
 30
0.0
 11
122.1160116168731946
 21
-10.76999999999998
 31
0.0
  0
LINE
  5
186D
  8
250
  6
CONTINUOUS
 10
102.1000000000027939
 20
3.1749999999993261
 30
0.0
 11
116.0999999999998948
 21
3.174999999999323
 31
0.0
  0
LINE
  5
186E
  8
250
  6
CONTINUOUS
 10
102.1000000000015007
 20
-3.1749999999993261
 30
0.0
 11
116.0999999999998948
 21
-3.174999999999331
 31
0.0
  0
LINE
  5
186F
  8
250
  6
CONTINUOUS
 10
115.0999999999998948
 20
5.4049999999993217
 30
0.0
 11
115.0999999999998948
 21
7.6349999999993221
 31
0.0
  0
LINE
  5
1870
  8
250
  6
CONTINUOUS
 10
115.0999999999998948
 20
-5.4049999999993288
 30
0.0
 11
115.0999999999998948
 21
-7.6349999999993292
 31
0.0
  0
LINE
  5
1871
  8
250
  6
CONTINUOUS
 10
115.0999999999998948
 20
3.174999999999323
 30
0.0
 11
115.0999999999998948
 21
-3.174999999999331
 31
0.0
  0
TEXT
  5
1872
  8
250
  6
CONTINUOUS
 10
121.1160116168731946
 20
-7.3333333333333659
 30
0.0
 40
2.799999999999998
  1
\U+22051.024
 50
90.0
  0
LINE
  5
1873
  8
250
  6
CONTINUOUS
 10
122.4876782835399069
 20
-10.76999999999998
 30
0.0
 11
122.1160116168731946
 21
-12.9999999999999805
 31
0.0
  0
LINE
  5
1874
  8
250
  6
CONTINUOUS
 10
121.744344950206596
 20
-10.76999999999998
 30
0.0
 11
122.1160116168731946
 21
-12.9999999999999805
 31
0.0
  0
LINE
  5
1875
  8
250
  6
CONTINUOUS
 10
122.1160116168731946
 20
-12.9999999999999805
 30
0.0
 11
122.1160116168731946
 21
-10.76999999999998
 31
0.0
  0
LINE
  5
1876
  8
250
  6
CONTINUOUS
 10
121.744344950206596
 20
10.7699999999998699
 30
0.0
 11
122.1160116168731946
 21
12.9999999999998792
 31
0.0
  0
LINE
  5
1877
  8
250
  6
CONTINUOUS
 10
122.4876782835399069
 20
10.7699999999998699
 30
0.0
 11
122.1160116168731946
 21
12.9999999999998792
 31
0.0
  0
LINE
  5
1878
  8
250
  6
CONTINUOUS
 10
122.1160116168731946
 20
12.9999999999998792
 30
0.0
 11
122.1160116168731946
 21
10.7699999999998699
 31
0.0
  0
TEXT
  5
1879
  8
250
  6
CONTINUOUS
 10
114.0999999999998948
 20
-5.933333333333322
 30
0.0
 40
2.799999999999998
  1
\U+2205.250
 50
90.0
  0
LINE
  5
187A
  8
250
  6
CONTINUOUS
 10
114.7283333333331967
 20
-5.4049999999993297
 30
0.0
 11
115.0999999999998948
 21
-3.174999999999331
 31
0.0
  0
LINE
  5
187B
  8
250
  6
CONTINUOUS
 10
115.4716666666664935
 20
-5.4049999999993297
 30
0.0
 11
115.0999999999998948
 21
-3.174999999999331
 31
0.0
  0
LINE
  5
187C
  8
250
  6
CONTINUOUS
 10
115.0999999999998948
 20
-3.174999999999331
 30
0.0
 11
115.0999999999998948
 21
-5.4049999999993297
 31
0.0
  0
LINE
  5
187D
  8
250
  6
CONTINUOUS
 10
115.4716666666664935
 20
5.4049999999993243
 30
0.0
 11
115.0999999999998948
 21
3.174999999999323
 31
0.0
  0
LINE
  5
187E
  8
250
  6
CONTINUOUS
 10
114.7283333333331967
 20
5.4049999999993243
 30
0.0
 11
115.0999999999998948
 21
3.174999999999323
 31
0.0
  0
LINE
  5
187F
  8
250
  6
CONTINUOUS
 10
115.0999999999998948
 20
3.174999999999323
 30
0.0
 11
115.0999999999998948
 21
5.4049999999993243
 31
0.0
  0
VIEWPORT
  5
22
 67
     1
  8
0
 10
261.517699115044195
 20
148.5
 30
0.0
 40
523.0353982300885036
 41
297.0
 68
     1
 69
     1
1001
ACAD
1000
MVIEW
1002
{
1070
    16
1010
0.0
1020
0.0
1030
0.0
1010
0.0
1020
0.0
1030
1.0
1040
0.0
1040
297.0
1040
261.517699115044195
1040
148.5
1040
50.0
1040
0.0
1040
0.0
1070
     0
1070
   100
1070
     1
1070
     1
1070
     0
1070
     0
1070
     0
1070
     0
1040
0.0
1040
0.0
1040
0.0
1040
1.0
1040
1.0
1040
10.0
1040
10.0
1070
     0
1002
{
1002
}
1002
}
1001
GENIUS_GENODEF_13
1002
{
1000
HIER
1070
     0
1002
}
1002
{
1000
MANEDIT
1070
     0
1002
}
1002
{
1000
NOSEL
1070
     0
1002
}
1002
{
1000
BEHIND
1070
     0
1002
}
1002
{
1000
OTHER
1070
     0
1002
}
1002
{
1000
REACTOR
1002
}
1001
GENIUS_GENOBJ-N-SDF_13
1002
{
1000
OWNER
1000
GEN
1002
}
1001
GENIUS_GENSCREG_15
1000
PF
1040
1.0
1000
DF
1040
1.0
1000
MIN
1011
0.0
1021
0.0
1031
0.0
1021
0.0
1031
0.0
1000
MAX
1011
523.0353982300885036
1021
0.0
1031
0.0
1021
297.0
1031
0.0
1000
FLAGS
1070
     4
  0
ENDSEC
  0
EOF
