ISO-10303-21;
HEADER;
FILE_DESCRIPTION((''),'1');
FILE_NAME('V:/90_\X2\53D65F9730C730FC30BF\X0\/00_\X2\6DE18DEF30C730FC30BF\X0\/ALL/BBT-BKUS\X2\FF76FF80FF9BFF78FF9E752852A05DE556F3\X0\201801/BBT30-HDC-S/BBT30-HDC1.250S-3.5.stp','2018-02-05T01:55:04',(''),(''),'Spatial Interop R21 SP3','Kubotek KeyCreator 2011 V10.0.2 (22737)',' ');
FILE_SCHEMA(('automotive_design'));
ENDSEC;
DATA;
#1=MECHANICAL_DESIGN_GEOMETRIC_PRESENTATION_REPRESENTATION(' ',(#10,#11,#12,#13,#14,#15,#16,#17,#18,#19,#20,#21,#22,#23,#24,#25,#26,#27,#28,#29,#30,#31,#32,#33,#34,#35,#36,#37,#38,#39),#6);
#2=PRODUCT_DEFINITION_CONTEXT('',#40,'design');
#3=APPLICATION_PROTOCOL_DEFINITION('INTERNATIONAL STANDARD','automotive_design',1994,#40);
#4=PRODUCT_CATEGORY_RELATIONSHIP('NONE','NONE',#41,#42);
#5=SHAPE_DEFINITION_REPRESENTATION(#43,#44);
#6= (GEOMETRIC_REPRESENTATION_CONTEXT(3)GLOBAL_UNCERTAINTY_ASSIGNED_CONTEXT((#47))GLOBAL_UNIT_ASSIGNED_CONTEXT((#49,#50,#51))REPRESENTATION_CONTEXT('NONE','WORKSPACE'));
#10=STYLED_ITEM('',(#53,#54),#55);
#11=STYLED_ITEM('',(#56,#57),#58);
#12=STYLED_ITEM('',(#59,#60),#61);
#13=STYLED_ITEM('',(#62),#63);
#14=STYLED_ITEM('',(#64,#65),#66);
#15=STYLED_ITEM('',(#67,#68),#69);
#16=STYLED_ITEM('',(#70,#71),#72);
#17=STYLED_ITEM('',(#73,#74),#75);
#18=STYLED_ITEM('',(#76,#77),#78);
#19=STYLED_ITEM('',(#79,#80),#81);
#20=STYLED_ITEM('',(#82),#83);
#21=STYLED_ITEM('',(#84,#85),#86);
#22=STYLED_ITEM('',(#87,#88),#89);
#23=STYLED_ITEM('',(#90),#91);
#24=STYLED_ITEM('',(#92,#93),#94);
#25=STYLED_ITEM('',(#95),#96);
#26=STYLED_ITEM('',(#97),#98);
#27=STYLED_ITEM('',(#99),#100);
#28=STYLED_ITEM('',(#101),#102);
#29=STYLED_ITEM('',(#103),#104);
#30=STYLED_ITEM('',(#105,#106),#107);
#31=STYLED_ITEM('',(#108),#109);
#32=STYLED_ITEM('',(#110,#111),#112);
#33=STYLED_ITEM('',(#113),#114);
#34=STYLED_ITEM('',(#115,#116),#117);
#35=STYLED_ITEM('',(#118),#119);
#36=STYLED_ITEM('',(#120,#121),#122);
#37=STYLED_ITEM('',(#123),#124);
#38=STYLED_ITEM('',(#125),#126);
#39=STYLED_ITEM('',(#127),#128);
#40=APPLICATION_CONTEXT(' ');
#41=PRODUCT_CATEGORY('part','NONE');
#42=PRODUCT_RELATED_PRODUCT_CATEGORY('detail',' ',(#129));
#43=PRODUCT_DEFINITION_SHAPE('NONE','NONE',#130);
#44=ADVANCED_BREP_SHAPE_REPRESENTATION('Unnamed[1]',(#122,#131),#6);
#47=UNCERTAINTY_MEASURE_WITH_UNIT(LENGTH_MEASURE(1.0E-006),#49,'','');
#49= (CONVERSION_BASED_UNIT('MILLIMETRE',#134)LENGTH_UNIT()NAMED_UNIT(#137));
#50= (NAMED_UNIT(#139)PLANE_ANGLE_UNIT()SI_UNIT($,.RADIAN.));
#51= (NAMED_UNIT(#139)SOLID_ANGLE_UNIT()SI_UNIT($,.STERADIAN.));
#53=PRESENTATION_STYLE_ASSIGNMENT((#145));
#54=PRESENTATION_STYLE_ASSIGNMENT((#146));
#55=ADVANCED_FACE('Unnamed[1]',(#147,#148),#149,.T.);
#56=PRESENTATION_STYLE_ASSIGNMENT((#150));
#57=PRESENTATION_STYLE_ASSIGNMENT((#151));
#58=ADVANCED_FACE('Unnamed[1]',(#152),#153,.T.);
#59=PRESENTATION_STYLE_ASSIGNMENT((#154));
#60=PRESENTATION_STYLE_ASSIGNMENT((#155));
#61=ADVANCED_FACE('Unnamed[1]',(#156,#157),#158,.T.);
#62=PRESENTATION_STYLE_ASSIGNMENT((#159));
#63=EDGE_CURVE('Unnamed[1]',#160,#160,#161,.T.);
#64=PRESENTATION_STYLE_ASSIGNMENT((#162));
#65=PRESENTATION_STYLE_ASSIGNMENT((#163));
#66=ADVANCED_FACE('Unnamed[1]',(#164,#165),#166,.T.);
#67=PRESENTATION_STYLE_ASSIGNMENT((#167));
#68=PRESENTATION_STYLE_ASSIGNMENT((#168));
#69=ADVANCED_FACE('Unnamed[1]',(#169,#170),#171,.T.);
#70=PRESENTATION_STYLE_ASSIGNMENT((#172));
#71=PRESENTATION_STYLE_ASSIGNMENT((#173));
#72=ADVANCED_FACE('Unnamed[1]',(#174,#175),#176,.T.);
#73=PRESENTATION_STYLE_ASSIGNMENT((#177));
#74=PRESENTATION_STYLE_ASSIGNMENT((#178));
#75=ADVANCED_FACE('Unnamed[1]',(#179,#180),#181,.T.);
#76=PRESENTATION_STYLE_ASSIGNMENT((#182));
#77=PRESENTATION_STYLE_ASSIGNMENT((#183));
#78=ADVANCED_FACE('Unnamed[1]',(#184,#185),#186,.T.);
#79=PRESENTATION_STYLE_ASSIGNMENT((#187));
#80=PRESENTATION_STYLE_ASSIGNMENT((#188));
#81=ADVANCED_FACE('Unnamed[1]',(#189),#190,.T.);
#82=PRESENTATION_STYLE_ASSIGNMENT((#191));
#83=EDGE_CURVE('Unnamed[1]',#192,#192,#193,.T.);
#84=PRESENTATION_STYLE_ASSIGNMENT((#194));
#85=PRESENTATION_STYLE_ASSIGNMENT((#195));
#86=ADVANCED_FACE('Unnamed[1]',(#196,#197),#198,.T.);
#87=PRESENTATION_STYLE_ASSIGNMENT((#199));
#88=PRESENTATION_STYLE_ASSIGNMENT((#200));
#89=ADVANCED_FACE('Unnamed[1]',(#201,#202),#203,.T.);
#90=PRESENTATION_STYLE_ASSIGNMENT((#204));
#91=EDGE_CURVE('Unnamed[1]',#205,#205,#206,.T.);
#92=PRESENTATION_STYLE_ASSIGNMENT((#207));
#93=PRESENTATION_STYLE_ASSIGNMENT((#208));
#94=ADVANCED_FACE('Unnamed[1]',(#209,#210),#211,.T.);
#95=PRESENTATION_STYLE_ASSIGNMENT((#212));
#96=EDGE_CURVE('Unnamed[1]',#213,#213,#214,.T.);
#97=PRESENTATION_STYLE_ASSIGNMENT((#215));
#98=EDGE_CURVE('Unnamed[1]',#216,#216,#217,.T.);
#99=PRESENTATION_STYLE_ASSIGNMENT((#218));
#100=EDGE_CURVE('Unnamed[1]',#219,#219,#220,.T.);
#101=PRESENTATION_STYLE_ASSIGNMENT((#221));
#102=EDGE_CURVE('Unnamed[1]',#222,#222,#223,.T.);
#103=PRESENTATION_STYLE_ASSIGNMENT((#224));
#104=EDGE_CURVE('Unnamed[1]',#225,#225,#226,.T.);
#105=PRESENTATION_STYLE_ASSIGNMENT((#227));
#106=PRESENTATION_STYLE_ASSIGNMENT((#228));
#107=ADVANCED_FACE('Unnamed[1]',(#229,#230),#231,.T.);
#108=PRESENTATION_STYLE_ASSIGNMENT((#232));
#109=EDGE_CURVE('Unnamed[1]',#233,#233,#234,.T.);
#110=PRESENTATION_STYLE_ASSIGNMENT((#235));
#111=PRESENTATION_STYLE_ASSIGNMENT((#236));
#112=ADVANCED_FACE('Unnamed[1]',(#237,#238),#239,.T.);
#113=PRESENTATION_STYLE_ASSIGNMENT((#240));
#114=EDGE_CURVE('Unnamed[1]',#241,#241,#242,.T.);
#115=PRESENTATION_STYLE_ASSIGNMENT((#243));
#116=PRESENTATION_STYLE_ASSIGNMENT((#244));
#117=ADVANCED_FACE('Unnamed[1]',(#245,#246),#247,.T.);
#118=PRESENTATION_STYLE_ASSIGNMENT((#248));
#119=EDGE_CURVE('Unnamed[1]',#249,#249,#250,.T.);
#120=PRESENTATION_STYLE_ASSIGNMENT((#251));
#121=PRESENTATION_STYLE_ASSIGNMENT((#252));
#122=MANIFOLD_SOLID_BREP('Unnamed[1]',#253);
#123=PRESENTATION_STYLE_ASSIGNMENT((#254));
#124=EDGE_CURVE('Unnamed[1]',#255,#255,#256,.T.);
#125=PRESENTATION_STYLE_ASSIGNMENT((#257));
#126=EDGE_CURVE('Unnamed[1]',#258,#258,#259,.T.);
#127=PRESENTATION_STYLE_ASSIGNMENT((#260));
#128=EDGE_CURVE('Unnamed[1]',#261,#261,#262,.T.);
#129=PRODUCT('Unnamed[1]','Unnamed[1]','PART-Unnamed[1]-DESC',(#263));
#130=PRODUCT_DEFINITION('NONE','NONE',#264,#2);
#131=AXIS2_PLACEMENT_3D('',#265,#266,#267);
#134=LENGTH_MEASURE_WITH_UNIT(LENGTH_MEASURE(1.0),#268);
#137=DIMENSIONAL_EXPONENTS(1.0,0.0,0.0,0.0,0.0,0.0,0.0);
#139=DIMENSIONAL_EXPONENTS(0.0,0.0,0.0,0.0,0.0,0.0,0.0);
#145=SURFACE_STYLE_USAGE(.BOTH.,#269);
#146=CURVE_STYLE('',#270,POSITIVE_LENGTH_MEASURE(1000.0),#271);
#147=FACE_BOUND('',#272,.T.);
#148=FACE_BOUND('',#273,.T.);
#149=CONICAL_SURFACE('',#274,21.0,1.04719755058882);
#150=SURFACE_STYLE_USAGE(.BOTH.,#275);
#151=CURVE_STYLE('',#276,POSITIVE_LENGTH_MEASURE(1000.0),#277);
#152=FACE_OUTER_BOUND('',#278,.T.);
#153=PLANE('',#279);
#154=SURFACE_STYLE_USAGE(.BOTH.,#280);
#155=CURVE_STYLE('',#281,POSITIVE_LENGTH_MEASURE(1000.0),#282);
#156=FACE_BOUND('',#283,.T.);
#157=FACE_BOUND('',#284,.T.);
#158=CONICAL_SURFACE('',#285,16.5586197078937,1.04014863697972);
#159=CURVE_STYLE('',#286,POSITIVE_LENGTH_MEASURE(1000.0),#287);
#160=VERTEX_POINT('',#288);
#161=CIRCLE('',#289,19.0);
#162=SURFACE_STYLE_USAGE(.BOTH.,#290);
#163=CURVE_STYLE('',#291,POSITIVE_LENGTH_MEASURE(1000.0),#292);
#164=FACE_BOUND('',#293,.T.);
#165=FACE_BOUND('',#294,.T.);
#166=CYLINDRICAL_SURFACE('',#295,19.0);
#167=SURFACE_STYLE_USAGE(.BOTH.,#296);
#168=CURVE_STYLE('',#297,POSITIVE_LENGTH_MEASURE(1000.0),#298);
#169=FACE_BOUND('',#299,.T.);
#170=FACE_BOUND('',#300,.T.);
#171=CONICAL_SURFACE('',#301,21.5000000000042,0.785398163397613);
#172=SURFACE_STYLE_USAGE(.BOTH.,#302);
#173=CURVE_STYLE('',#303,POSITIVE_LENGTH_MEASURE(1000.0),#304);
#174=FACE_BOUND('',#305,.T.);
#175=FACE_BOUND('',#306,.T.);
#176=CONICAL_SURFACE('',#307,12.3457500009933,0.144815870013618);
#177=SURFACE_STYLE_USAGE(.BOTH.,#308);
#178=CURVE_STYLE('',#309,POSITIVE_LENGTH_MEASURE(1000.0),#310);
#179=FACE_BOUND('',#311,.T.);
#180=FACE_BOUND('',#312,.T.);
#181=CONICAL_SURFACE('',#313,9.55861970789141,0.104719755119672);
#182=SURFACE_STYLE_USAGE(.BOTH.,#314);
#183=CURVE_STYLE('',#315,POSITIVE_LENGTH_MEASURE(1000.0),#316);
#184=FACE_BOUND('',#317,.T.);
#185=FACE_BOUND('',#318,.T.);
#186=CYLINDRICAL_SURFACE('',#319,23.0);
#187=SURFACE_STYLE_USAGE(.BOTH.,#320);
#188=CURVE_STYLE('',#321,POSITIVE_LENGTH_MEASURE(1000.0),#322);
#189=FACE_OUTER_BOUND('',#323,.T.);
#190=PLANE('',#324);
#191=CURVE_STYLE('',#325,POSITIVE_LENGTH_MEASURE(1000.0),#326);
#192=VERTEX_POINT('',#327);
#193=CIRCLE('',#328,22.0000000000042);
#194=SURFACE_STYLE_USAGE(.BOTH.,#329);
#195=CURVE_STYLE('',#330,POSITIVE_LENGTH_MEASURE(1000.0),#331);
#196=FACE_OUTER_BOUND('',#332,.T.);
#197=FACE_BOUND('',#333,.T.);
#198=PLANE('',#334);
#199=SURFACE_STYLE_USAGE(.BOTH.,#335);
#200=CURVE_STYLE('',#336,POSITIVE_LENGTH_MEASURE(1000.0),#337);
#201=FACE_BOUND('',#338,.T.);
#202=FACE_BOUND('',#339,.T.);
#203=CYLINDRICAL_SURFACE('',#340,21.0000000000023);
#204=CURVE_STYLE('',#341,POSITIVE_LENGTH_MEASURE(1000.0),#342);
#205=VERTEX_POINT('',#343);
#206=CIRCLE('',#344,15.875);
#207=SURFACE_STYLE_USAGE(.BOTH.,#345);
#208=CURVE_STYLE('',#346,POSITIVE_LENGTH_MEASURE(1000.0),#347);
#209=FACE_BOUND('',#348,.T.);
#210=FACE_BOUND('',#349,.T.);
#211=CYLINDRICAL_SURFACE('',#350,23.0);
#212=CURVE_STYLE('',#351,POSITIVE_LENGTH_MEASURE(1000.0),#352);
#213=VERTEX_POINT('',#353);
#214=CIRCLE('',#354,19.0);
#215=CURVE_STYLE('',#355,POSITIVE_LENGTH_MEASURE(1000.0),#356);
#216=VERTEX_POINT('',#357);
#217=CIRCLE('',#358,23.0);
#218=CURVE_STYLE('',#359,POSITIVE_LENGTH_MEASURE(1000.0),#360);
#219=VERTEX_POINT('',#361);
#220=CIRCLE('',#362,23.0);
#221=CURVE_STYLE('',#363,POSITIVE_LENGTH_MEASURE(1000.0),#364);
#222=VERTEX_POINT('',#365);
#223=CIRCLE('',#366,23.0);
#224=CURVE_STYLE('',#367,POSITIVE_LENGTH_MEASURE(1000.0),#368);
#225=VERTEX_POINT('',#369);
#226=CIRCLE('',#370,15.875);
#227=SURFACE_STYLE_USAGE(.BOTH.,#371);
#228=CURVE_STYLE('',#372,POSITIVE_LENGTH_MEASURE(1000.0),#373);
#229=FACE_BOUND('',#374,.T.);
#230=FACE_OUTER_BOUND('',#375,.T.);
#231=PLANE('',#376);
#232=CURVE_STYLE('',#377,POSITIVE_LENGTH_MEASURE(1000.0),#378);
#233=VERTEX_POINT('',#379);
#234=CIRCLE('',#380,21.0000000000003);
#235=SURFACE_STYLE_USAGE(.BOTH.,#381);
#236=CURVE_STYLE('',#382,POSITIVE_LENGTH_MEASURE(1000.0),#383);
#237=FACE_BOUND('',#384,.T.);
#238=FACE_BOUND('',#385,.T.);
#239=CYLINDRICAL_SURFACE('',#386,15.875);
#240=CURVE_STYLE('',#387,POSITIVE_LENGTH_MEASURE(1000.0),#388);
#241=VERTEX_POINT('',#389);
#242=CIRCLE('',#390,23.0);
#243=SURFACE_STYLE_USAGE(.BOTH.,#391);
#244=CURVE_STYLE('',#392,POSITIVE_LENGTH_MEASURE(1000.0),#393);
#245=FACE_BOUND('',#394,.T.);
#246=FACE_BOUND('',#395,.T.);
#247=CONICAL_SURFACE('',#396,21.0,1.04719755058881);
#248=CURVE_STYLE('',#397,POSITIVE_LENGTH_MEASURE(1000.0),#398);
#249=VERTEX_POINT('',#399);
#250=CIRCLE('',#400,8.81650000198669);
#251=SURFACE_STYLE_USAGE(.BOTH.,#401);
#252=CURVE_STYLE('',#402,POSITIVE_LENGTH_MEASURE(1000.0),#403);
#253=CLOSED_SHELL('',(#58,#72,#112,#86,#94,#117,#66,#55,#78,#107,#69,#89,#61,#75,#81));
#254=CURVE_STYLE('',#404,POSITIVE_LENGTH_MEASURE(1000.0),#405);
#255=VERTEX_POINT('',#406);
#256=CIRCLE('',#407,21.0000000000042);
#257=CURVE_STYLE('',#408,POSITIVE_LENGTH_MEASURE(1000.0),#409);
#258=VERTEX_POINT('',#410);
#259=CIRCLE('',#411,12.1172394157871);
#260=CURVE_STYLE('',#412,POSITIVE_LENGTH_MEASURE(1000.0),#413);
#261=VERTEX_POINT('',#414);
#262=CIRCLE('',#415,6.99999999999572);
#263=PRODUCT_CONTEXT('',#40,'mechanical');
#264=PRODUCT_DEFINITION_FORMATION_WITH_SPECIFIED_SOURCE(' ','NONE',#129,.NOT_KNOWN.);
#265=CARTESIAN_POINT('',(0.0,0.0,0.0));
#266=DIRECTION('',(0.0,0.0,1.0));
#267=DIRECTION('',(1.0,0.0,0.0));
#268= (NAMED_UNIT(#137)LENGTH_UNIT()SI_UNIT(.MILLI.,.METRE.));
#269=SURFACE_SIDE_STYLE('',(#417));
#270=DRAUGHTING_PRE_DEFINED_CURVE_FONT('continuous');
#271=COLOUR_RGB('',0.0,1.0,0.0);
#272=EDGE_LOOP('',(#418));
#273=EDGE_LOOP('',(#419));
#274=AXIS2_PLACEMENT_3D('',#420,#421,#422);
#275=SURFACE_SIDE_STYLE('',(#423));
#276=DRAUGHTING_PRE_DEFINED_CURVE_FONT('continuous');
#277=COLOUR_RGB('',0.0,1.0,0.0);
#278=EDGE_LOOP('',(#424));
#279=AXIS2_PLACEMENT_3D('',#425,#426,#427);
#280=SURFACE_SIDE_STYLE('',(#428));
#281=DRAUGHTING_PRE_DEFINED_CURVE_FONT('continuous');
#282=COLOUR_RGB('',0.0,1.0,0.0);
#283=EDGE_LOOP('',(#429));
#284=EDGE_LOOP('',(#430));
#285=AXIS2_PLACEMENT_3D('',#431,#432,#433);
#286=DRAUGHTING_PRE_DEFINED_CURVE_FONT('continuous');
#287=COLOUR_RGB('',0.0,1.0,0.0);
#288=CARTESIAN_POINT('',(7.29240495619202E-016,19.0,-11.90940108));
#289=AXIS2_PLACEMENT_3D('',#434,#435,#436);
#290=SURFACE_SIDE_STYLE('',(#437));
#291=DRAUGHTING_PRE_DEFINED_CURVE_FONT('continuous');
#292=COLOUR_RGB('',0.0,1.0,0.0);
#293=EDGE_LOOP('',(#438));
#294=EDGE_LOOP('',(#439));
#295=AXIS2_PLACEMENT_3D('',#440,#441,#442);
#296=SURFACE_SIDE_STYLE('',(#443));
#297=DRAUGHTING_PRE_DEFINED_CURVE_FONT('continuous');
#298=COLOUR_RGB('',0.0,1.0,0.0);
#299=EDGE_LOOP('',(#444));
#300=EDGE_LOOP('',(#445));
#301=AXIS2_PLACEMENT_3D('',#446,#447,#448);
#302=SURFACE_SIDE_STYLE('',(#449));
#303=DRAUGHTING_PRE_DEFINED_CURVE_FONT('continuous');
#304=COLOUR_RGB('',0.0,1.0,0.0);
#305=EDGE_LOOP('',(#450));
#306=EDGE_LOOP('',(#451));
#307=AXIS2_PLACEMENT_3D('',#452,#453,#454);
#308=SURFACE_SIDE_STYLE('',(#455));
#309=DRAUGHTING_PRE_DEFINED_CURVE_FONT('continuous');
#310=COLOUR_RGB('',0.0,1.0,0.0);
#311=EDGE_LOOP('',(#456));
#312=EDGE_LOOP('',(#457));
#313=AXIS2_PLACEMENT_3D('',#458,#459,#460);
#314=SURFACE_SIDE_STYLE('',(#461));
#315=DRAUGHTING_PRE_DEFINED_CURVE_FONT('continuous');
#316=COLOUR_RGB('',0.0,1.0,0.0);
#317=EDGE_LOOP('',(#462));
#318=EDGE_LOOP('',(#463));
#319=AXIS2_PLACEMENT_3D('',#464,#465,#466);
#320=SURFACE_SIDE_STYLE('',(#467));
#321=DRAUGHTING_PRE_DEFINED_CURVE_FONT('continuous');
#322=COLOUR_RGB('',0.0,1.0,0.0);
#323=EDGE_LOOP('',(#468));
#324=AXIS2_PLACEMENT_3D('',#469,#470,#471);
#325=DRAUGHTING_PRE_DEFINED_CURVE_FONT('continuous');
#326=COLOUR_RGB('',0.0,1.0,0.0);
#327=CARTESIAN_POINT('',(1.34711147906209E-015,22.0000000000042,-22.0));
#328=AXIS2_PLACEMENT_3D('',#472,#473,#474);
#329=SURFACE_SIDE_STYLE('',(#475));
#330=DRAUGHTING_PRE_DEFINED_CURVE_FONT('continuous');
#331=COLOUR_RGB('',0.0,1.0,0.0);
#332=EDGE_LOOP('',(#476));
#333=EDGE_LOOP('',(#477));
#334=AXIS2_PLACEMENT_3D('',#478,#479,#480);
#335=SURFACE_SIDE_STYLE('',(#481));
#336=DRAUGHTING_PRE_DEFINED_CURVE_FONT('continuous');
#337=COLOUR_RGB('',0.0,1.0,0.0);
#338=EDGE_LOOP('',(#482));
#339=EDGE_LOOP('',(#483));
#340=AXIS2_PLACEMENT_3D('',#484,#485,#486);
#341=DRAUGHTING_PRE_DEFINED_CURVE_FONT('continuous');
#342=COLOUR_RGB('',0.0,1.0,0.0);
#343=CARTESIAN_POINT('',(6.12323399573675E-017,15.875,-0.999999999999998));
#344=AXIS2_PLACEMENT_3D('',#487,#488,#489);
#345=SURFACE_SIDE_STYLE('',(#490));
#346=DRAUGHTING_PRE_DEFINED_CURVE_FONT('continuous');
#347=COLOUR_RGB('',0.0,1.0,0.0);
#348=EDGE_LOOP('',(#491));
#349=EDGE_LOOP('',(#492));
#350=AXIS2_PLACEMENT_3D('',#493,#494,#495);
#351=DRAUGHTING_PRE_DEFINED_CURVE_FONT('continuous');
#352=COLOUR_RGB('',0.0,1.0,0.0);
#353=CARTESIAN_POINT('',(9.36279151221199E-016,19.0,-15.29059892));
#354=AXIS2_PLACEMENT_3D('',#496,#497,#498);
#355=DRAUGHTING_PRE_DEFINED_CURVE_FONT('continuous');
#356=COLOUR_RGB('',0.0,1.0,0.0);
#357=CARTESIAN_POINT('',(5.87830463590729E-016,23.0,-9.59999999999999));
#358=AXIS2_PLACEMENT_3D('',#499,#500,#501);
#359=DRAUGHTING_PRE_DEFINED_CURVE_FONT('continuous');
#360=COLOUR_RGB('',0.0,1.0,0.0);
#361=CARTESIAN_POINT('',(6.12323399573674E-017,23.0,-0.999999999999997));
#362=AXIS2_PLACEMENT_3D('',#502,#503,#504);
#363=DRAUGHTING_PRE_DEFINED_CURVE_FONT('continuous');
#364=COLOUR_RGB('',0.0,1.0,0.0);
#365=CARTESIAN_POINT('',(1.07768918324967E-015,23.0,-17.6));
#366=AXIS2_PLACEMENT_3D('',#505,#506,#507);
#367=DRAUGHTING_PRE_DEFINED_CURVE_FONT('continuous');
#368=COLOUR_RGB('',0.0,1.0,0.0);
#369=CARTESIAN_POINT('',(-1.95674482349743E-031,15.875,1.94412679364642E-015));
#370=AXIS2_PLACEMENT_3D('',#508,#509,#510);
#371=SURFACE_SIDE_STYLE('',(#511));
#372=DRAUGHTING_PRE_DEFINED_CURVE_FONT('continuous');
#373=COLOUR_RGB('',0.0,1.0,0.0);
#374=EDGE_LOOP('',(#512));
#375=EDGE_LOOP('',(#513));
#376=AXIS2_PLACEMENT_3D('',#514,#515,#516);
#377=DRAUGHTING_PRE_DEFINED_CURVE_FONT('continuous');
#378=COLOUR_RGB('',0.0,1.0,0.0);
#379=CARTESIAN_POINT('',(2.14315806634946E-015,21.0000000000003,-35.0004273532844));
#380=AXIS2_PLACEMENT_3D('',#517,#518,#519);
#381=SURFACE_SIDE_STYLE('',(#520));
#382=DRAUGHTING_PRE_DEFINED_CURVE_FONT('continuous');
#383=COLOUR_RGB('',0.0,1.0,0.0);
#384=EDGE_LOOP('',(#521));
#385=EDGE_LOOP('',(#522));
#386=AXIS2_PLACEMENT_3D('',#523,#524,#525);
#387=DRAUGHTING_PRE_DEFINED_CURVE_FONT('continuous');
#388=COLOUR_RGB('',0.0,1.0,0.0);
#389=CARTESIAN_POINT('',(1.34711147906209E-015,23.0,-22.0));
#390=AXIS2_PLACEMENT_3D('',#526,#527,#528);
#391=SURFACE_SIDE_STYLE('',(#529));
#392=DRAUGHTING_PRE_DEFINED_CURVE_FONT('continuous');
#393=COLOUR_RGB('',0.0,1.0,0.0);
#394=EDGE_LOOP('',(#530));
#395=EDGE_LOOP('',(#531));
#396=AXIS2_PLACEMENT_3D('',#532,#533,#534);
#397=DRAUGHTING_PRE_DEFINED_CURVE_FONT('continuous');
#398=COLOUR_RGB('',0.0,1.0,0.0);
#399=CARTESIAN_POINT('',(-2.96364525393659E-015,8.81650000198669,48.4));
#400=AXIS2_PLACEMENT_3D('',#535,#536,#537);
#401=SURFACE_SIDE_STYLE('',(#538));
#402=DRAUGHTING_PRE_DEFINED_CURVE_FONT('continuous');
#403=COLOUR_RGB('',0.0,1.0,0.0);
#404=DRAUGHTING_PRE_DEFINED_CURVE_FONT('continuous');
#405=COLOUR_RGB('',0.0,1.0,0.0);
#406=CARTESIAN_POINT('',(1.40834381901944E-015,21.0000000000042,-22.9999999999997));
#407=AXIS2_PLACEMENT_3D('',#539,#540,#541);
#408=DRAUGHTING_PRE_DEFINED_CURVE_FONT('continuous');
#409=COLOUR_RGB('',0.0,1.0,0.0);
#410=CARTESIAN_POINT('',(2.46231889258028E-015,12.1172394157871,-40.2127191986234));
#411=AXIS2_PLACEMENT_3D('',#542,#543,#544);
#412=DRAUGHTING_PRE_DEFINED_CURVE_FONT('continuous');
#413=COLOUR_RGB('',0.0,1.0,0.0);
#414=CARTESIAN_POINT('',(5.44355502220815E-015,6.99999999999573,-88.89999999997));
#415=AXIS2_PLACEMENT_3D('',#545,#546,#547);
#417=SURFACE_STYLE_FILL_AREA(#548);
#418=ORIENTED_EDGE('',*,*,#102,.F.);
#419=ORIENTED_EDGE('',*,*,#96,.T.);
#420=CARTESIAN_POINT('',(1.00698416723543E-015,2.01396833447087E-015,-16.44529946));
#421=DIRECTION('',(6.12323399573677E-017,1.22464679914735E-016,-1.0));
#422=DIRECTION('',(-1.23259516440783E-032,1.0,1.22464679914735E-016));
#423=SURFACE_STYLE_FILL_AREA(#549);
#424=ORIENTED_EDGE('',*,*,#119,.F.);
#425=CARTESIAN_POINT('',(-2.96364525393659E-015,4.40825000099334,48.4));
#426=DIRECTION('',(-6.12323399573677E-017,-1.22464679914735E-016,1.0));
#427=DIRECTION('',(1.23259516440783E-032,-1.0,-1.22464679914735E-016));
#428=SURFACE_STYLE_FILL_AREA(#550);
#429=ORIENTED_EDGE('',*,*,#126,.F.);
#430=ORIENTED_EDGE('',*,*,#109,.T.);
#431=CARTESIAN_POINT('',(2.30273847946487E-015,4.60547695892974E-015,-37.6065732759539));
#432=DIRECTION('',(-6.12323399573677E-017,-1.22464679914735E-016,1.0));
#433=DIRECTION('',(-1.23259516440783E-032,1.0,1.22464679914735E-016));
#434=CARTESIAN_POINT('',(7.29240495619202E-016,1.4584809912384E-015,-11.90940108));
#435=DIRECTION('',(6.12323399573677E-017,1.22464679914735E-016,-1.0));
#436=DIRECTION('',(-1.23259516440783E-032,1.0,1.22464679914735E-016));
#437=SURFACE_STYLE_FILL_AREA(#551);
#438=ORIENTED_EDGE('',*,*,#96,.F.);
#439=ORIENTED_EDGE('',*,*,#63,.T.);
#440=CARTESIAN_POINT('',(8.32759823420201E-016,1.6655196468404E-015,-13.6));
#441=DIRECTION('',(6.12323399573677E-017,1.22464679914735E-016,-1.0));
#442=DIRECTION('',(-1.23259516440783E-032,1.0,1.22464679914735E-016));
#443=SURFACE_STYLE_FILL_AREA(#552);
#444=ORIENTED_EDGE('',*,*,#124,.F.);
#445=ORIENTED_EDGE('',*,*,#83,.T.);
#446=CARTESIAN_POINT('',(1.37772764904076E-015,2.75545529808152E-015,-22.4999999999998));
#447=DIRECTION('',(-6.12323399573677E-017,-1.22464679914735E-016,1.0));
#448=DIRECTION('',(-1.23259516440783E-032,1.0,1.22464679914735E-016));
#449=SURFACE_STYLE_FILL_AREA(#553);
#450=ORIENTED_EDGE('',*,*,#104,.F.);
#451=ORIENTED_EDGE('',*,*,#119,.T.);
#452=CARTESIAN_POINT('',(-1.4818226269683E-015,-2.96364525393659E-015,24.2));
#453=DIRECTION('',(6.12323399573677E-017,1.22464679914735E-016,-1.0));
#454=DIRECTION('',(-1.23259516440783E-032,1.0,1.22464679914735E-016));
#455=SURFACE_STYLE_FILL_AREA(#554);
#456=ORIENTED_EDGE('',*,*,#128,.F.);
#457=ORIENTED_EDGE('',*,*,#126,.T.);
#458=CARTESIAN_POINT('',(3.95293695739421E-015,7.90587391478842E-015,-64.5563595992967));
#459=DIRECTION('',(-6.12323399573677E-017,-1.22464679914735E-016,1.0));
#460=DIRECTION('',(-1.23259516440783E-032,1.0,1.22464679914735E-016));
#461=SURFACE_STYLE_FILL_AREA(#555);
#462=ORIENTED_EDGE('',*,*,#114,.F.);
#463=ORIENTED_EDGE('',*,*,#102,.T.);
#464=CARTESIAN_POINT('',(1.21240033115588E-015,2.42480066231176E-015,-19.8));
#465=DIRECTION('',(6.12323399573677E-017,1.22464679914735E-016,-1.0));
#466=DIRECTION('',(-1.23259516440783E-032,1.0,1.22464679914735E-016));
#467=SURFACE_STYLE_FILL_AREA(#556);
#468=ORIENTED_EDGE('',*,*,#128,.T.);
#469=CARTESIAN_POINT('',(5.44355502220824E-015,3.49999999999787,-88.8999999999715));
#470=DIRECTION('',(6.12323399573677E-017,4.42689082953619E-013,-1.0));
#471=DIRECTION('',(-2.71117155755621E-029,1.0,4.42689082953619E-013));
#472=CARTESIAN_POINT('',(1.34711147906209E-015,2.69422295812418E-015,-22.0));
#473=DIRECTION('',(6.12323399573677E-017,1.22464679914735E-016,-1.0));
#474=DIRECTION('',(-1.23259516440783E-032,1.0,1.22464679914735E-016));
#475=SURFACE_STYLE_FILL_AREA(#557);
#476=ORIENTED_EDGE('',*,*,#100,.F.);
#477=ORIENTED_EDGE('',*,*,#91,.T.);
#478=CARTESIAN_POINT('',(6.12323399573674E-017,19.4375,-0.999999999999998));
#479=DIRECTION('',(-6.12323399573677E-017,-1.22464679914735E-016,1.0));
#480=DIRECTION('',(1.23259516440783E-032,-1.0,-1.22464679914735E-016));
#481=SURFACE_STYLE_FILL_AREA(#558);
#482=ORIENTED_EDGE('',*,*,#109,.F.);
#483=ORIENTED_EDGE('',*,*,#124,.T.);
#484=CARTESIAN_POINT('',(1.77575094268445E-015,3.5515018853689E-015,-29.0002136766421));
#485=DIRECTION('',(6.12323399573677E-017,1.22464679914735E-016,-1.0));
#486=DIRECTION('',(-1.23259516440783E-032,1.0,1.22464679914735E-016));
#487=CARTESIAN_POINT('',(6.12323399573677E-017,1.22464679914735E-016,-1.0));
#488=DIRECTION('',(6.12323399573677E-017,1.22464679914735E-016,-1.0));
#489=DIRECTION('',(-1.23259516440783E-032,1.0,1.22464679914735E-016));
#490=SURFACE_STYLE_FILL_AREA(#559);
#491=ORIENTED_EDGE('',*,*,#98,.F.);
#492=ORIENTED_EDGE('',*,*,#100,.T.);
#493=CARTESIAN_POINT('',(3.24531401774048E-016,6.49062803548097E-016,-5.3));
#494=DIRECTION('',(6.12323399573677E-017,1.22464679914735E-016,-1.0));
#495=DIRECTION('',(-1.23259516440783E-032,1.0,1.22464679914735E-016));
#496=CARTESIAN_POINT('',(9.36279151221199E-016,1.8725583024424E-015,-15.29059892));
#497=DIRECTION('',(6.12323399573677E-017,1.22464679914735E-016,-1.0));
#498=DIRECTION('',(-1.23259516440783E-032,1.0,1.22464679914735E-016));
#499=CARTESIAN_POINT('',(5.87830463590729E-016,1.17566092718146E-015,-9.59999999999999));
#500=DIRECTION('',(6.12323399573677E-017,1.22464679914735E-016,-1.0));
#501=DIRECTION('',(-1.23259516440783E-032,1.0,1.22464679914735E-016));
#502=CARTESIAN_POINT('',(6.12323399573677E-017,1.22464679914735E-016,-1.0));
#503=DIRECTION('',(6.12323399573677E-017,1.22464679914735E-016,-1.0));
#504=DIRECTION('',(-1.23259516440783E-032,1.0,1.22464679914735E-016));
#505=CARTESIAN_POINT('',(1.07768918324967E-015,2.15537836649934E-015,-17.6));
#506=DIRECTION('',(6.12323399573677E-017,1.22464679914735E-016,-1.0));
#507=DIRECTION('',(-1.23259516440783E-032,1.0,1.22464679914735E-016));
#508=CARTESIAN_POINT('',(0.0,0.0,0.0));
#509=DIRECTION('',(6.12323399573677E-017,1.22464679914735E-016,-1.0));
#510=DIRECTION('',(-1.23259516440783E-032,1.0,1.22464679914735E-016));
#511=SURFACE_STYLE_FILL_AREA(#560);
#512=ORIENTED_EDGE('',*,*,#83,.F.);
#513=ORIENTED_EDGE('',*,*,#114,.T.);
#514=CARTESIAN_POINT('',(1.34711147906209E-015,22.5000000000021,-22.0));
#515=DIRECTION('',(6.12323399573677E-017,1.22464679914735E-016,-1.0));
#516=DIRECTION('',(-1.23259516440783E-032,1.0,1.22464679914735E-016));
#517=CARTESIAN_POINT('',(2.14315806634946E-015,4.28631613269892E-015,-35.0004273532844));
#518=DIRECTION('',(6.12323399573677E-017,1.22464679914735E-016,-1.0));
#519=DIRECTION('',(-1.23259516440783E-032,1.0,1.22464679914735E-016));
#520=SURFACE_STYLE_FILL_AREA(#561);
#521=ORIENTED_EDGE('',*,*,#91,.F.);
#522=ORIENTED_EDGE('',*,*,#104,.T.);
#523=CARTESIAN_POINT('',(3.06161699786838E-017,6.12323399573676E-017,-0.5));
#524=DIRECTION('',(6.12323399573677E-017,1.22464679914735E-016,-1.0));
#525=DIRECTION('',(-1.23259516440783E-032,1.0,1.22464679914735E-016));
#526=CARTESIAN_POINT('',(1.34711147906209E-015,2.69422295812418E-015,-22.0));
#527=DIRECTION('',(6.12323399573677E-017,1.22464679914735E-016,-1.0));
#528=DIRECTION('',(-1.23259516440783E-032,1.0,1.22464679914735E-016));
#529=SURFACE_STYLE_FILL_AREA(#562);
#530=ORIENTED_EDGE('',*,*,#63,.F.);
#531=ORIENTED_EDGE('',*,*,#98,.T.);
#532=CARTESIAN_POINT('',(6.58535479604966E-016,1.31707095920993E-015,-10.75470054));
#533=DIRECTION('',(-6.12323399573677E-017,-1.22464679914735E-016,1.0));
#534=DIRECTION('',(-1.23259516440783E-032,1.0,1.22464679914735E-016));
#535=CARTESIAN_POINT('',(-2.96364525393659E-015,-5.92729050787319E-015,48.4));
#536=DIRECTION('',(6.12323399573677E-017,1.22464679914735E-016,-1.0));
#537=DIRECTION('',(-1.23259516440783E-032,1.0,1.22464679914735E-016));
#538=SURFACE_STYLE_FILL_AREA(#563);
#539=CARTESIAN_POINT('',(1.40834381901944E-015,2.81668763803887E-015,-22.9999999999997));
#540=DIRECTION('',(6.12323399573677E-017,1.22464679914735E-016,-1.0));
#541=DIRECTION('',(-1.23259516440783E-032,1.0,1.22464679914735E-016));
#542=CARTESIAN_POINT('',(2.46231889258028E-015,4.92463778516055E-015,-40.2127191986234));
#543=DIRECTION('',(6.12323399573677E-017,1.22464679914735E-016,-1.0));
#544=DIRECTION('',(-1.23259516440783E-032,1.0,1.22464679914735E-016));
#545=CARTESIAN_POINT('',(5.44355502220815E-015,1.08871100444163E-014,-88.89999999997));
#546=DIRECTION('',(6.12323399573676E-017,1.22464679914735E-016,-1.0));
#547=DIRECTION('',(-1.23259516440783E-032,1.0,1.22464679914735E-016));
#548=FILL_AREA_STYLE('',(#564));
#549=FILL_AREA_STYLE('',(#565));
#550=FILL_AREA_STYLE('',(#566));
#551=FILL_AREA_STYLE('',(#567));
#552=FILL_AREA_STYLE('',(#568));
#553=FILL_AREA_STYLE('',(#569));
#554=FILL_AREA_STYLE('',(#570));
#555=FILL_AREA_STYLE('',(#571));
#556=FILL_AREA_STYLE('',(#572));
#557=FILL_AREA_STYLE('',(#573));
#558=FILL_AREA_STYLE('',(#574));
#559=FILL_AREA_STYLE('',(#575));
#560=FILL_AREA_STYLE('',(#576));
#561=FILL_AREA_STYLE('',(#577));
#562=FILL_AREA_STYLE('',(#578));
#563=FILL_AREA_STYLE('',(#579));
#564=FILL_AREA_STYLE_COLOUR('',#580);
#565=FILL_AREA_STYLE_COLOUR('',#581);
#566=FILL_AREA_STYLE_COLOUR('',#582);
#567=FILL_AREA_STYLE_COLOUR('',#583);
#568=FILL_AREA_STYLE_COLOUR('',#584);
#569=FILL_AREA_STYLE_COLOUR('',#585);
#570=FILL_AREA_STYLE_COLOUR('',#586);
#571=FILL_AREA_STYLE_COLOUR('',#587);
#572=FILL_AREA_STYLE_COLOUR('',#588);
#573=FILL_AREA_STYLE_COLOUR('',#589);
#574=FILL_AREA_STYLE_COLOUR('',#590);
#575=FILL_AREA_STYLE_COLOUR('',#591);
#576=FILL_AREA_STYLE_COLOUR('',#592);
#577=FILL_AREA_STYLE_COLOUR('',#593);
#578=FILL_AREA_STYLE_COLOUR('',#594);
#579=FILL_AREA_STYLE_COLOUR('',#595);
#580=COLOUR_RGB('',0.0,1.0,0.0);
#581=COLOUR_RGB('',0.0,1.0,0.0);
#582=COLOUR_RGB('',0.0,1.0,0.0);
#583=COLOUR_RGB('',0.0,1.0,0.0);
#584=COLOUR_RGB('',0.0,1.0,0.0);
#585=COLOUR_RGB('',0.0,1.0,0.0);
#586=COLOUR_RGB('',0.0,1.0,0.0);
#587=COLOUR_RGB('',0.0,1.0,0.0);
#588=COLOUR_RGB('',0.0,1.0,0.0);
#589=COLOUR_RGB('',0.0,1.0,0.0);
#590=COLOUR_RGB('',0.0,1.0,0.0);
#591=COLOUR_RGB('',0.0,1.0,0.0);
#592=COLOUR_RGB('',0.0,1.0,0.0);
#593=COLOUR_RGB('',0.0,1.0,0.0);
#594=COLOUR_RGB('',0.0,1.0,0.0);
#595=COLOUR_RGB('',0.0,1.0,0.0);
ENDSEC;
END-ISO-10303-21;
