  0
SECTION
  2
HEADER
  9
$ACADVER
  1
AC1009
  9
$INSBASE
 10
0.0
 20
0.0
 30
0.0
  9
$EXTMIN
 10
-49.430214399243482
 20
-23.023998770599629
 30
-0.0000000000074783
  9
$EXTMAX
 10
99.017116791615777
 20
57.52157560976854
 30
0.0000000000044428
  9
$LIMMIN
 10
0.0
 20
0.0
  9
$LIMMAX
 10
420.0
 20
297.0
  9
$ORTHOMODE
 70
     0
  9
$REGENMODE
 70
     1
  9
$FILLMODE
 70
     1
  9
$QTEXTMODE
 70
     0
  9
$MIRRTEXT
 70
     1
  9
$DRAGMODE
 70
     2
  9
$LTSCALE
 40
10.0
  9
$OSMODE
 70
    39
  9
$ATTMODE
 70
     1
  9
$TEXTSIZE
 40
3.0
  9
$TRACEWID
 40
1.0
  9
$TEXTSTYLE
  7
YOKO
  9
$CLAYER
  8
240
  9
$CELTYPE
  6
BYLAYER
  9
$CECOLOR
 62
   256
  9
$DIMSCALE
 40
1.0
  9
$DIMASZ
 40
2.2299999999999991
  9
$DIMEXO
 40
0.5
  9
$DIMDLI
 40
2.5
  9
$DIMRND
 40
0.0
  9
$DIMDLE
 40
0.0
  9
$DIMEXE
 40
1.0
  9
$DIMTP
 40
0.0
  9
$DIMTM
 40
0.0
  9
$DIMTXT
 40
2.799999999999998
  9
$DIMCEN
 40
0.0
  9
$DIMTSZ
 40
0.0
  9
$DIMTOL
 70
     0
  9
$DIMLIM
 70
     0
  9
$DIMTIH
 70
     0
  9
$DIMTOH
 70
     0
  9
$DIMSE1
 70
     0
  9
$DIMSE2
 70
     0
  9
$DIMTAD
 70
     3
  9
$DIMZIN
 70
     8
  9
$DIMBLK
  1

  9
$DIMASO
 70
     1
  9
$DIMSHO
 70
     1
  9
$DIMPOST
  1

  9
$DIMAPOST
  1

  9
$DIMALT
 70
     0
  9
$DIMALTD
 70
     2
  9
$DIMALTF
 40
25.399999999999999
  9
$DIMLFAC
 40
1.0
  9
$DIMTOFL
 70
     1
  9
$DIMTVP
 40
0.0
  9
$DIMTIX
 70
     1
  9
$DIMSOXD
 70
     0
  9
$DIMSAH
 70
     1
  9
$DIMBLK1
  1
OPEN
  9
$DIMBLK2
  1
OPEN
  9
$DIMSTYLE
  2
BIGT
  9
$DIMCLRD
 70
   256
  9
$DIMCLRE
 70
   256
  9
$DIMCLRT
 70
    40
  9
$DIMTFAC
 40
1.0
  9
$DIMGAP
 40
1.0
  9
$LUNITS
 70
     2
  9
$LUPREC
 70
     3
  9
$SKETCHINC
 40
1.0
  9
$FILLETRAD
 40
1.0
  9
$AUNITS
 70
     0
  9
$AUPREC
 70
     3
  9
$MENU
  1
.
  9
$ELEVATION
 40
0.0
  9
$PELEVATION
 40
0.0
  9
$THICKNESS
 40
0.0
  9
$LIMCHECK
 70
     0
  9
$BLIPMODE
 70
     0
  9
$CHAMFERA
 40
10.0
  9
$CHAMFERB
 40
10.0
  9
$SKPOLY
 70
     0
  9
$TDCREATE
 40
2455141.4029246182
  9
$TDUPDATE
 40
2456093.6161293169
  9
$TDINDWG
 40
0.0416653935
  9
$TDUSRTIMER
 40
0.0416653935
  9
$USRTIMER
 70
     1
  9
$ANGBASE
 50
0.0
  9
$ANGDIR
 70
     0
  9
$PDMODE
 70
     1
  9
$PDSIZE
 40
-5.0
  9
$PLINEWID
 40
0.0
  9
$COORDS
 70
     2
  9
$SPLFRAME
 70
     0
  9
$SPLINETYPE
 70
     6
  9
$SPLINESEGS
 70
     8
  9
$ATTDIA
 70
     1
  9
$ATTREQ
 70
     1
  9
$HANDLING
 70
     1
  9
$HANDSEED
  5
196C
  9
$SURFTAB1
 70
     6
  9
$SURFTAB2
 70
     6
  9
$SURFTYPE
 70
     6
  9
$SURFU
 70
     6
  9
$SURFV
 70
     6
  9
$UCSNAME
  2

  9
$UCSORG
 10
0.0
 20
0.0
 30
0.0
  9
$UCSXDIR
 10
1.0
 20
0.0
 30
0.0
  9
$UCSYDIR
 10
0.0
 20
1.0
 30
0.0
  9
$PUCSNAME
  2

  9
$PUCSORG
 10
0.0
 20
0.0
 30
0.0
  9
$PUCSXDIR
 10
1.0
 20
0.0
 30
0.0
  9
$PUCSYDIR
 10
0.0
 20
1.0
 30
0.0
  9
$USERI1
 70
     1
  9
$USERI2
 70
     0
  9
$USERI3
 70
     0
  9
$USERI4
 70
     0
  9
$USERI5
 70
     0
  9
$USERR1
 40
0.0
  9
$USERR2
 40
0.0
  9
$USERR3
 40
0.0
  9
$USERR4
 40
0.0
  9
$USERR5
 40
0.0
  9
$WORLDVIEW
 70
     1
  9
$SHADEDGE
 70
     3
  9
$SHADEDIF
 70
    70
  9
$TILEMODE
 70
     1
  9
$MAXACTVP
 70
    16
  9
$PLIMCHECK
 70
     0
  9
$PEXTMIN
 10
1.0000000000000000E+020
 20
1.0000000000000000E+020
 30
1.0000000000000000E+020
  9
$PEXTMAX
 10
-1.0000000000000000E+020
 20
-1.0000000000000000E+020
 30
-1.0000000000000000E+020
  9
$PLIMMIN
 10
0.0
 20
0.0
  9
$PLIMMAX
 10
420.0
 20
297.0
  9
$UNITMODE
 70
     0
  9
$VISRETAIN
 70
     0
  9
$PLINEGEN
 70
     0
  9
$PSLTSCALE
 70
     1
  0
ENDSEC
  0
SECTION
  2
TABLES
  0
TABLE
  2
VPORT
 70
    60
  0
VPORT
  2
*ACTIVE
 70
     0
 10
0.0
 20
0.0
 11
1.0
 21
1.0
 12
24.79345119618614
 22
17.24878841958445
 13
0.0
 23
0.0
 14
7.0
 24
7.0
 15
7.0
 25
7.0
 16
0.0
 26
0.0
 36
1.0
 17
0.0
 27
0.0
 37
0.0
 40
107.4691895682693
 41
1.3877995642701519
 42
50.0
 43
0.0
 44
0.0
 50
0.0
 51
0.0
 71
     0
 72
  2000
 73
     1
 74
     0
 75
     0
 76
     0
 77
     0
 78
     0
  0
ENDTAB
  0
TABLE
  2
LTYPE
 70
    21
  0
LTYPE
  2
CONTINUOUS
 70
     0
  3
Solid line
 72
    65
 73
     0
 40
0.0
  0
LTYPE
  2
CENTER2
 70
     0
  3
___ _ ___ _ ___ _ ___ _ ___ _ ___ _ ___ _ ___ _
 72
    65
 73
     4
 40
1.125
 49
0.75
 49
-0.125
 49
0.125
 49
-0.125
  0
LTYPE
  2
HIDDEN2
 70
     0
  3
_ _ _ _ _ _ _ _ _ _ _ _ _ _ _ _ _ _ _ _ _ _ _ _
 72
    65
 73
     2
 40
0.1875
 49
0.125
 49
-0.0625
  0
LTYPE
  2
PHANTOM2
 70
     0
  3
___ _ _ ___ _ _ ___ _ _ ___ _ _ ___ _ _ ___ _ _
 72
    65
 73
     6
 40
1.25
 49
0.625
 49
-0.125
 49
0.125
 49
-0.125
 49
0.125
 49
-0.125
  0
LTYPE
  2
AMCONSTR
 70
     0
  3
_______________________
 72
    65
 73
     2
 40
9999.0
 49
9999.0
 49
0.0
  0
LTYPE
  2
HIDDEN
 70
     0
  3
Hidden __ __ __ __ __ __ __ __ __ __ __ __ __ _
 72
    65
 73
     2
 40
9.5249999999999986
 49
6.3499999999999979
 49
-3.174999999999998
  0
LTYPE
  2
CENTER
 70
     0
  3
____ _ ____ _ ____ _ ____ _ ____ _ ____ _ ____ 
 72
    65
 73
     4
 40
2.0
 49
1.25
 49
-0.25
 49
0.25
 49
-0.25
  0
LTYPE
  2
ACJISTGB
 70
     0
  3
__ . . __ . .
 72
    65
 73
     6
 40
9.0
 49
4.0
 49
-1.0
 49
1.0
 49
-1.0
 49
1.0
 49
-1.0
  0
LTYPE
  2
ACJISTGL
 70
     0
  3
_ _ _ _ _
 72
    65
 73
     2
 40
3.0
 49
2.0
 49
-1.0
  0
LTYPE
  2
ACANSTGB
 70
     0
  3
__ . . __ . .
 72
    65
 73
     6
 40
0.35433070866
 49
0.15748031496
 49
-0.03937007874
 49
0.03937007874
 49
-0.03937007874
 49
0.03937007874
 49
-0.03937007874
  0
LTYPE
  2
ACANSTGL
 70
     0
  3
_ _ _ _ _
 72
    65
 73
     2
 40
0.11811023622
 49
0.07874015748
 49
-0.03937007874
  0
LTYPE
  2
AMZIGZAG2
 70
     0
  3
/\/-/\/-/\/-/\/-/\/-/\/
 72
    65
 73
     2
 40
0.4401
 49
0.0001
 49
-0.4400000000000001
  0
ENDTAB
  0
TABLE
  2
LAYER
 70
    10
  0
LAYER
  2
0
 70
     0
 62
     7
  6
CONTINUOUS
  0
LAYER
  2
240
 70
     0
 62
     4
  6
CONTINUOUS
  0
LAYER
  2
241
 70
     0
 62
   211
  6
CONTINUOUS
  0
LAYER
  2
243
 70
     0
 62
   211
  6
HIDDEN2
  0
LAYER
  2
245
 70
     0
 62
     2
  6
CENTER2
  0
LAYER
  2
250
 70
     0
 62
     3
  6
CONTINUOUS
  0
LAYER
  2
DEFPOINTS
 70
     0
 62
     7
  6
CONTINUOUS
  0
LAYER
  2
242
 70
     0
 62
     3
  6
CONTINUOUS
  0
ENDTAB
  0
TABLE
  2
STYLE
 70
     9
  0
STYLE
  2
STANDARD
 70
     0
 40
0.0
 41
1.0
 50
0.0
 71
     0
 42
3.0
  3
romans.shx
  4
BIGFONT.SHX
  0
STYLE
  2
YOKO
 70
     0
 40
0.0
 41
1.0
 50
0.0
 71
     0
 42
3.0
  3
romans.shx
  4
extfont.shx
  0
STYLE
  2
ACJISGDT
 70
     0
 40
0.0
 41
1.0
 50
0.0
 71
     0
 42
3.0
  3
amgdt.shx
  4
extfont.shx
  0
STYLE
  2
ACJISTS
 70
     0
 40
1.0
 41
1.0
 50
0.0
 71
     0
 42
3.0
  3
amgdt.shx
  4
extfont.shx
  0
STYLE
  2
ACANSTS
 70
     0
 40
1.0
 41
1.0
 50
0.0
 71
     0
 42
3.0
  3
romans.shx
  4
extfont.shx
  0
STYLE
  2
ACANSGDT
 70
     0
 40
0.0
 41
1.0
 50
0.0
 71
     0
 42
3.0
  3
amgdtans.shx
  4

  0
STYLE
  2

 70
     1
 40
0.0
 41
1.0
 50
0.0
 71
     0
 42
3.0
  3
ltypeshp.shx
  4

  0
ENDTAB
  0
TABLE
  2
VIEW
 70
     0
  0
ENDTAB
  0
TABLE
  2
UCS
 70
     0
  0
ENDTAB
  0
TABLE
  2
APPID
 70
    35
  0
APPID
  2
ACAD
 70
     0
  0
APPID
  2
GLOBAL
 70
     0
  0
APPID
  2
DETAIL
 70
     0
  0
APPID
  2
GRPNAME
 70
     0
  0
APPID
  2
GPARA
 70
     0
  0
APPID
  2
DCO15
 70
     0
  0
APPID
  2
ITEMNAME
 70
     0
  0
APPID
  2
GRADE_0
 70
     0
  0
APPID
  2
HATCH_TYPE
 70
     0
  0
APPID
  2
HATCH_DISPLAY
 70
     0
  0
APPID
  2
HATCH_DISTANCE
 70
     0
  0
APPID
  2
CONTENTBLOCKICON
 70
     0
  0
APPID
  2
MCAD_NO_VIS
 70
     0
  0
APPID
  2
ACAD_TEMP_GRAPHIC
 70
     0
  0
APPID
  2
ACATTRIBSERVICES
 70
     0
  0
APPID
  2
GENIUS_GENSCREG_15
 70
     0
  0
APPID
  2
GENIUS_GENODEF_13
 70
     0
  0
APPID
  2
GENIUS_GENOBJ-N-SDF_13
 70
     0
  0
APPID
  2
GENIUS_GENREC_14
 70
     0
  0
APPID
  2
GENIUS_GENOBJ-N-REC_13
 70
     0
  0
APPID
  2
GENIUS_GENDIMSH_14
 70
     0
  0
APPID
  2
GENIUS_GENOBJ-N-DIM_13
 70
     0
  0
APPID
  2
GENIUS_GENDIM_13
 70
     0
  0
APPID
  2
GENIUS_GENDTOL_13
 70
     0
  0
APPID
  2
GENIUS_GENOLIS_13
 70
     0
  0
APPID
  2
GENIUS_GENOENT_13
 70
     0
  0
APPID
  2
GENIUS_GENOBJ-F-FEM_13
 70
     0
  0
APPID
  2
GENIUS_GENOREF_13
 70
     0
  0
APPID
  2
GENIUS_GEFFEM_13
 70
     0
  0
APPID
  2
GENIUS_GEFFEMP_13
 70
     0
  0
APPID
  2
AD_DRAW
 70
     0
  0
APPID
  2
DESIGNERASSEMBLIES
 70
     0
  0
APPID
  2
ACADM_DIM_EDIT
 70
     0
  0
APPID
  2
AMDT_DM_ADJ
 70
     0
  0
APPID
  2
GENIUS_GENOBJ-N-FIL_13
 70
     0
  0
ENDTAB
  0
TABLE
  2
DIMSTYLE
 70
    33
  0
DIMSTYLE
  2
BIGT
 70
     0
  3

  4

  5

  6

  7

 40
1.0
 41
2.2299999999999991
 42
0.5
 43
7.0
 44
1.0
 45
0.0
 46
0.0
 47
0.0
 48
0.01
140
2.799999999999998
141
0.0
142
0.0
143
25.399999999999999
144
1.0
145
0.0
146
1.0
147
1.0
 71
     0
 72
     0
 73
     0
 74
     0
 75
     0
 76
     0
 77
     3
 78
     9
170
     0
171
     2
172
     1
173
     0
174
     1
175
     0
176
   256
177
   256
178
    40
  0
DIMSTYLE
  2
BIGT$0
 70
     0
  3

  4

  5

  6

  7

 40
1.0
 41
2.2299999999999991
 42
0.5
 43
7.0
 44
1.0
 45
0.0
 46
0.0
 47
0.0
 48
0.01
140
2.799999999999998
141
0.0
142
0.0
143
25.399999999999999
144
1.0
145
0.0
146
1.0
147
1.0
 71
     0
 72
     0
 73
     0
 74
     0
 75
     0
 76
     0
 77
     3
 78
     9
170
     0
171
     2
172
     1
173
     0
174
     0
175
     0
176
   256
177
   256
178
    40
  0
DIMSTYLE
  2
BIGT$2
 70
     0
  3

  4

  5

  6

  7

 40
1.0
 41
2.2299999999999991
 42
0.5
 43
7.0
 44
1.0
 45
0.0
 46
0.0
 47
0.0
 48
0.01
140
2.799999999999998
141
0.0
142
0.0
143
25.399999999999999
144
1.0
145
0.0
146
1.0
147
1.0
 71
     0
 72
     0
 73
     0
 74
     0
 75
     0
 76
     0
 77
     3
 78
     9
170
     0
171
     2
172
     1
173
     0
174
     0
175
     0
176
   256
177
   256
178
    40
  0
DIMSTYLE
  2
BIGT$3
 70
     0
  3

  4

  5

  6

  7

 40
1.0
 41
2.2299999999999991
 42
0.5
 43
2.5
 44
1.0
 45
0.0
 46
0.0
 47
0.0
 48
0.01
140
2.799999999999998
141
0.0
142
0.0
143
25.399999999999999
144
1.0
145
0.0
146
1.0
147
1.0
 71
     0
 72
     0
 73
     0
 74
     0
 75
     0
 76
     0
 77
     3
 78
     9
170
     0
171
     2
172
     1
173
     0
174
     0
175
     0
176
   256
177
   256
178
    40
  0
DIMSTYLE
  2
BIGT$4
 70
     0
  3

  4

  5

  6

  7

 40
1.0
 41
2.2299999999999991
 42
0.5
 43
2.5
 44
1.0
 45
0.0
 46
0.0
 47
0.0
 48
0.01
140
2.799999999999998
141
0.0
142
0.0
143
25.399999999999999
144
1.0
145
0.0
146
1.0
147
1.0
 71
     0
 72
     0
 73
     0
 74
     0
 75
     0
 76
     0
 77
     3
 78
     9
170
     0
171
     2
172
     1
173
     0
174
     0
175
     0
176
   256
177
   256
178
    40
  0
DIMSTYLE
  2
BIGT$6
 70
     0
  3

  4

  5

  6

  7

 40
1.0
 41
2.2299999999999991
 42
0.5
 43
2.5
 44
1.0
 45
0.0
 46
0.0
 47
0.0
 48
0.01
140
2.799999999999998
141
0.0
142
0.0
143
25.399999999999999
144
1.0
145
0.0
146
1.0
147
1.0
 71
     0
 72
     0
 73
     0
 74
     0
 75
     0
 76
     0
 77
     3
 78
     9
170
     0
171
     2
172
     1
173
     0
174
     0
175
     0
176
   256
177
   256
178
    40
  0
DIMSTYLE
  2
BIGT$7
 70
     0
  3

  4

  5

  6

  7

 40
0.0
 41
2.2299999999999991
 42
0.5
 43
7.0
 44
1.0
 45
0.0
 46
0.0
 47
0.0
 48
0.01
140
2.799999999999998
141
0.0
142
0.0
143
25.399999999999999
144
1.0
145
0.0
146
1.0
147
1.0
 71
     0
 72
     0
 73
     0
 74
     0
 75
     0
 76
     0
 77
     3
 78
     9
170
     0
171
     2
172
     0
173
     0
174
     0
175
     0
176
   256
177
   256
178
    40
  0
DIMSTYLE
  2
BIGT$SF
 70
     0
  3

  4

  5

  6

  7

 40
1.0
 41
2.2299999999999991
 42
0.5
 43
7.0
 44
1.0
 45
0.0
 46
0.0
 47
0.0
 48
0.0
140
2.799999999999998
141
0.0
142
0.0
143
25.399999999999999
144
1.0
145
0.0
146
1.0
147
1.0
 71
     0
 72
     0
 73
     0
 74
     0
 75
     0
 76
     0
 77
     3
 78
     9
170
     0
171
     2
172
     1
173
     0
174
     0
175
     0
176
   256
177
   256
178
    40
  0
DIMSTYLE
  2
BIGT$SH
 70
     0
  3

  4

  5

  6

  7

 40
1.0
 41
2.2299999999999991
 42
0.5
 43
7.0
 44
1.0
 45
0.0
 46
0.0
 47
0.0
 48
0.0
140
2.799999999999998
141
0.0
142
0.0
143
25.399999999999999
144
1.0
145
0.0
146
1.0
147
1.0
 71
     0
 72
     0
 73
     0
 74
     0
 75
     0
 76
     0
 77
     3
 78
     9
170
     0
171
     2
172
     1
173
     0
174
     0
175
     0
176
   256
177
   256
178
    40
  0
DIMSTYLE
  2
AM_ANSI
 70
     0
  3

  4
mm
  5

  6

  7

 40
1.0
 41
0.1
 42
0.05
 43
0.5
 44
0.1
 45
0.0
 46
0.0
 47
0.1
 48
0.1
140
0.12
141
0.0
142
0.0
143
25.399999999999999
144
1.0
145
0.0
146
0.71
147
0.06
 71
     0
 72
     0
 73
     1
 74
     1
 75
     0
 76
     0
 77
     0
 78
     7
170
     0
171
     2
172
     0
173
     0
174
     0
175
     0
176
   256
177
   256
178
     2
  0
DIMSTYLE
  2
AM_ANSI$3
 70
     0
  3

  4
mm
  5

  6

  7

 40
1.0
 41
0.1
 42
0.05
 43
0.5
 44
0.1
 45
0.0
 46
0.0
 47
0.1
 48
0.1
140
0.12
141
0.0
142
0.0
143
25.399999999999999
144
1.0
145
0.0
146
0.71
147
0.06
 71
     0
 72
     0
 73
     1
 74
     1
 75
     0
 76
     0
 77
     0
 78
     7
170
     0
171
     2
172
     0
173
     0
174
     0
175
     0
176
   256
177
   256
178
     2
  0
DIMSTYLE
  2
AM_ANSI$4
 70
     0
  3

  4
mm
  5

  6

  7

 40
1.0
 41
0.1
 42
0.05
 43
0.5
 44
0.1
 45
0.0
 46
0.0
 47
0.1
 48
0.1
140
0.12
141
0.0
142
0.0
143
25.399999999999999
144
1.0
145
0.0
146
0.71
147
0.06
 71
     0
 72
     0
 73
     1
 74
     1
 75
     0
 76
     0
 77
     0
 78
     7
170
     0
171
     2
172
     0
173
     0
174
     0
175
     0
176
   256
177
   256
178
     2
  0
DIMSTYLE
  2
AM_ANSI$7
 70
     0
  3

  4
mm
  5

  6

  7

 40
1.0
 41
0.1
 42
0.05
 43
0.5
 44
0.1
 45
0.0
 46
0.0
 47
0.1
 48
0.1
140
0.24
141
0.0
142
0.0
143
25.399999999999999
144
1.0
145
0.0
146
0.71
147
0.06
 71
     0
 72
     0
 73
     1
 74
     1
 75
     0
 76
     0
 77
     0
 78
     7
170
     0
171
     2
172
     0
173
     0
174
     0
175
     0
176
   256
177
   256
178
     2
  0
DIMSTYLE
  2
AM_ANSI$SF
 70
     0
  3

  4
mm
  5

  6

  7

 40
1.0
 41
0.1
 42
0.05
 43
0.5
 44
0.1
 45
0.0
 46
0.0
 47
0.1
 48
0.1
140
0.12
141
0.0
142
0.0
143
25.399999999999999
144
1.0
145
0.0
146
0.71
147
0.06
 71
     0
 72
     0
 73
     1
 74
     1
 75
     1
 76
     1
 77
     0
 78
     7
170
     0
171
     2
172
     0
173
     0
174
     0
175
     0
176
   256
177
   256
178
     2
  0
DIMSTYLE
  2
AM_ANSI$SH
 70
     0
  3

  4
mm
  5

  6

  7

 40
1.0
 41
0.1
 42
0.05
 43
0.5
 44
0.1
 45
0.0
 46
0.0
 47
0.1
 48
0.1
140
0.12
141
0.0
142
0.0
143
25.399999999999999
144
1.0
145
0.0
146
0.71
147
0.06
 71
     0
 72
     0
 73
     1
 74
     1
 75
     1
 76
     1
 77
     0
 78
     7
170
     0
171
     2
172
     0
173
     1
174
     0
175
     0
176
   256
177
   256
178
     2
  0
ENDTAB
  0
ENDSEC
  0
SECTION
  2
BLOCKS
  0
BLOCK
  8
0
  2
$MODEL_SPACE
 70
     0
 10
0.0
 20
0.0
 30
0.0
  3
$MODEL_SPACE
  1

  0
ENDBLK
  5
17B5
  8
0
  0
BLOCK
 67
     1
  8
0
  2
$PAPER_SPACE
 70
     0
 10
0.0
 20
0.0
 30
0.0
  3
$PAPER_SPACE
  1

  0
ENDBLK
  5
17B1
 67
     1
  8
0
  0
BLOCK
  8
0
  2
_OPEN
 70
     0
 10
0.0
 20
0.0
 30
0.0
  3
_OPEN
  1

  0
LINE
  5
1487
  8
0
  6
BYBLOCK
 62
     0
 10
-1.0
 20
0.1666666666666666
 30
0.0
 11
0.0
 21
0.0
 31
0.0
  0
LINE
  5
1488
  8
0
  6
BYBLOCK
 62
     0
 10
-1.0
 20
-0.1666666666666666
 30
0.0
 11
0.0
 21
0.0
 31
0.0
  0
LINE
  5
1489
  8
0
  6
BYBLOCK
 62
     0
 10
0.0
 20
0.0
 30
0.0
 11
-1.0
 21
0.0
 31
0.0
  0
ENDBLK
  5
148A
  8
0
  0
BLOCK
  8
0
  2
矢印なし
 70
     0
 10
0.0
 20
0.0
 30
0.0
  3
矢印なし
  1

  0
ENDBLK
  5
6E5
  8
0
  0
ENDSEC
  0
SECTION
  2
ENTITIES
  0
INSERT
  5
6E6
  8
245
  2
矢印なし
 10
175.62382697000001
 20
90.551235719999994
 30
0.0
  0
TEXT
  5
A40
  8
241
 10
-48.399999999999991
 20
52.5
 30
0.0
 40
5.0
  1
BBT30-FCR25082L-85
  7
YOKO
 11
-48.399999999999991
 21
52.5
 31
0.0
 73
     1
  0
LINE
  5
1211
  8
250
 10
-27.508737409999998
 20
-21.238842340000001
 30
0.0
 11
-45.242070740000003
 21
-21.238842340000001
 31
0.0
1001
ITEMNAME
1000
LNSP2
  0
LINE
  5
14ED
  8
240
 10
73.792557466216749
 20
11.75
 30
0.0
 11
36.917412540000001
 21
11.75
 31
0.0
  0
LINE
  5
14EE
  8
240
 10
73.878063432174415
 20
-11.75
 30
0.0
 11
36.917412540000001
 21
-11.75
 31
0.0
  0
LINE
  5
14EF
  8
245
  6
CENTER2
 10
-49.399999999999999
 20
0.0
 30
0.0
 11
86.0
 21
0.0
 31
0.0
1001
GRPNAME
1000
PASTMD0D
  0
LINE
  5
14F0
  8
240
  6
CONTINUOUS
 10
-47.544310230000001
 20
8.9412910399999976
 30
0.0
 11
0.0
 21
15.875
 31
0.0
  0
LINE
  5
14F1
  8
240
  6
CONTINUOUS
 10
-47.544310230000001
 20
-8.9412910399999976
 30
0.0
 11
0.0
 21
-15.875
 31
0.0
  0
LINE
  5
14F2
  8
240
  6
CONTINUOUS
 10
-48.399999999999991
 20
-7.9517585400000002
 30
0.0
 11
-48.399999999999991
 21
0.0
 31
0.0
  0
ARC
  5
14F3
  8
240
  6
CONTINUOUS
 10
-47.399999999999999
 20
-7.9517585400000002
 30
0.0
 40
1.0
 50
180.0
 51
261.70266184000002
  0
LINE
  5
14F4
  8
240
  6
CONTINUOUS
 10
-48.399999999999991
 20
7.9517585400000002
 30
0.0
 11
-48.399999999999991
 21
0.0
 31
0.0
  0
ARC
  5
14F5
  8
240
  6
CONTINUOUS
 10
-47.399999999999999
 20
7.9517585400000002
 30
0.0
 40
1.0
 50
98.297338159999995
 51
180.0
  0
LINE
  5
14F6
  8
240
 10
32.349529230000002
 20
-12.854245840000001
 30
0.0
 11
23.581530699999998
 21
-17.356527880000002
 31
0.0
  0
LINE
  5
14F7
  8
241
  6
CONTINUOUS
 10
22.0
 20
-20.0
 30
0.0
 11
22.0
 21
0.0
 31
0.0
  0
LINE
  5
14F8
  8
241
  6
CONTINUOUS
 10
24.023578990000001
 20
-17.129540370000001
 30
0.0
 11
24.023578990000001
 21
0.0
 31
0.0
1001
GRPNAME
1000
PASTMD01
  0
LINE
  5
14F9
  8
241
  6
CONTINUOUS
 10
24.933842120000001
 20
-16.662129100000001
 30
0.0
 11
24.933842120000001
 21
0.0
 31
0.0
1001
GRPNAME
1000
PASTMD01
  0
LINE
  5
14FA
  8
241
  6
CONTINUOUS
 10
27.023578990000001
 20
-15.58906953
 30
0.0
 11
27.023578990000001
 21
0.0
 31
0.0
1001
GRPNAME
1000
PASTMD01
  0
LINE
  5
14FB
  8
241
  6
CONTINUOUS
 10
28.020779950000001
 20
-15.07701653
 30
0.0
 11
28.020779950000001
 21
0.0
 31
0.0
1001
GRPNAME
1000
PASTMD01
  0
LINE
  5
14FC
  8
241
 10
0.0
 20
-15.875
 30
0.0
 11
0.0
 21
0.0
 31
0.0
  0
LINE
  5
14FD
  8
241
 10
1.0
 20
0.0
 30
0.0
 11
1.0
 21
-15.875
 31
0.0
  0
LINE
  5
14FE
  8
245
  6
CENTER2
 10
13.6
 20
-23.0
 30
0.0
 11
13.6
 21
23.0
 31
0.0
  0
LINE
  5
14FF
  8
241
  6
CONTINUOUS
 10
15.290598920000001
 20
-19.0
 30
0.0
 11
15.290598920000001
 21
0.04377196
 31
0.0
  0
LINE
  5
1500
  8
241
  6
CONTINUOUS
 10
17.600000000000001
 20
0.0
 30
0.0
 11
17.600000000000001
 21
-23.0
 31
0.0
  0
LINE
  5
1501
  8
241
  6
CONTINUOUS
 10
11.90940108
 20
-19.0
 30
0.0
 11
11.90940108
 21
0.04377196
 31
0.0
  0
LINE
  5
1502
  8
241
  6
CONTINUOUS
 10
9.5999999999999996
 20
-23.0
 30
0.0
 11
9.5999999999999996
 21
0.0
 31
0.0
  0
LINE
  5
1503
  8
243
  6
HIDDEN2
 10
19.0
 20
-16.300000000000001
 30
0.0
 11
1.0
 21
-16.300000000000001
 31
0.0
  0
LINE
  5
1504
  8
240
  6
CONTINUOUS
 10
9.5999999999999996
 20
-23.0
 30
0.0
 11
1.0
 21
-23.0
 31
0.0
  0
LINE
  5
1505
  8
240
  6
CONTINUOUS
 10
1.0
 20
-15.875
 30
0.0
 11
1.0
 21
-23.0
 31
0.0
  0
LINE
  5
1506
  8
240
 10
0.0
 20
-15.875
 30
0.0
 11
1.0
 21
-15.875
 31
0.0
  0
LINE
  5
1507
  8
240
  6
CONTINUOUS
 10
17.600000000000001
 20
-23.0
 30
0.0
 11
22.0
 21
-23.0
 31
0.0
  0
LINE
  5
1508
  8
240
  6
CONTINUOUS
 10
11.90940108
 20
-19.0
 30
0.0
 11
9.5999999999999996
 21
-23.0
 31
0.0
  0
LINE
  5
1509
  8
240
  6
CONTINUOUS
 10
15.290598920000001
 20
-19.0
 30
0.0
 11
17.600000000000001
 21
-23.0
 31
0.0
  0
LINE
  5
150A
  8
243
  6
HIDDEN2
 10
19.0
 20
-16.300000000000001
 30
0.0
 11
19.0
 21
-23.0
 31
0.0
  0
LINE
  5
150B
  8
240
  6
CONTINUOUS
 10
11.90940108
 20
-19.0
 30
0.0
 11
15.290598920000001
 21
-19.0
 31
0.0
  0
ARC
  5
150C
  8
240
  6
CONTINUOUS
 10
25.0
 20
-20.0
 30
0.0
 40
3.0
 50
118.21770666
 51
180.00000001000001
1001
GRPNAME
1000
PASTMD01
  0
LINE
  5
150D
  8
240
  6
CONTINUOUS
 10
22.0
 20
-23.0
 30
0.0
 11
22.0
 21
-20.0
 31
0.0
  0
LINE
  5
150E
  8
240
  6
CONTINUOUS
 10
9.5999999999999996
 20
23.0
 30
0.0
 11
1.0
 21
23.0
 31
0.0
  0
LINE
  5
150F
  8
241
  6
HIDDEN2
 10
19.0
 20
16.300000000000001
 30
0.0
 11
1.0
 21
16.300000000000001
 31
0.0
  0
LINE
  5
1510
  8
241
 10
0.0
 20
15.875
 30
0.0
 11
0.0
 21
0.0
 31
0.0
  0
LINE
  5
1511
  8
241
 10
1.0
 20
0.0
 30
0.0
 11
1.0
 21
15.875
 31
0.0
  0
LINE
  5
1512
  8
240
  6
CONTINUOUS
 10
1.0
 20
15.875
 30
0.0
 11
1.0
 21
23.0
 31
0.0
  0
LINE
  5
1513
  8
240
 10
0.0
 20
15.875
 30
0.0
 11
1.0
 21
15.875
 31
0.0
  0
ARC
  5
1514
  8
240
 10
36.917412540000001
 20
21.75
 30
0.0
 40
10.0
 50
242.81994227000001
 51
270.0
  0
LINE
  5
1515
  8
241
  6
CONTINUOUS
 10
22.0
 20
0.0
 30
0.0
 11
22.0
 21
20.0
 31
0.0
  0
LINE
  5
1516
  8
241
  6
CONTINUOUS
 10
11.90940108
 20
19.0
 30
0.0
 11
11.90940108
 21
-0.04377196
 31
0.0
  0
LINE
  5
1517
  8
241
  6
CONTINUOUS
 10
15.290598920000001
 20
19.0
 30
0.0
 11
15.290598920000001
 21
-0.04377196
 31
0.0
  0
LINE
  5
1518
  8
241
  6
CONTINUOUS
 10
17.600000000000001
 20
0.0
 30
0.0
 11
17.600000000000001
 21
23.0
 31
0.0
  0
LINE
  5
1519
  8
241
  6
CONTINUOUS
 10
9.5999999999999996
 20
23.0
 30
0.0
 11
9.5999999999999996
 21
0.0
 31
0.0
  0
LINE
  5
151A
  8
241
  6
CONTINUOUS
 10
24.023578990000001
 20
0.0
 30
0.0
 11
24.023578990000001
 21
17.129540370000001
 31
0.0
1001
GRPNAME
1000
PASTMD01
  0
LINE
  5
151B
  8
241
  6
CONTINUOUS
 10
24.933842120000001
 20
0.0
 30
0.0
 11
24.933842120000001
 21
16.662129100000001
 31
0.0
1001
GRPNAME
1000
PASTMD01
  0
LINE
  5
151C
  8
241
  6
CONTINUOUS
 10
28.020779950000001
 20
0.0
 30
0.0
 11
28.020779950000001
 21
15.07701653
 31
0.0
1001
GRPNAME
1000
PASTMD01
  0
LINE
  5
151D
  8
241
  6
CONTINUOUS
 10
27.023578990000001
 20
0.0
 30
0.0
 11
27.023578990000001
 21
15.58906953
 31
0.0
1001
GRPNAME
1000
PASTMD01
  0
LINE
  5
151E
  8
241
  6
CONTINUOUS
 10
35.0
 20
0.0
 30
0.0
 11
35.0
 21
-11.75
 31
0.0
1001
GRPNAME
1000
PASTMD0O
  0
LINE
  5
151F
  8
241
  6
CONTINUOUS
 10
35.0
 20
0.0
 30
0.0
 11
35.0
 21
-11.75
 31
0.0
1001
GRPNAME
1000
PASTMD0O
  0
ARC
  5
1520
  8
240
 10
36.917412540000001
 20
-21.75
 30
0.0
 40
10.0
 50
90.0
 51
117.18005773
  0
LINE
  5
1521
  8
241
  6
CONTINUOUS
 10
35.0
 20
0.0
 30
0.0
 11
35.0
 21
11.75
 31
0.0
1001
GRPNAME
1000
PASTMD0O
  0
LINE
  5
1522
  8
241
  6
CONTINUOUS
 10
35.0
 20
0.0
 30
0.0
 11
35.0
 21
11.75
 31
0.0
1001
GRPNAME
1000
PASTMD0O
  0
LINE
  5
1523
  8
240
  6
CONTINUOUS
 10
17.600000000000001
 20
23.0
 30
0.0
 11
22.0
 21
23.0
 31
0.0
  0
LINE
  5
1524
  8
240
  6
CONTINUOUS
 10
11.90940108
 20
19.0
 30
0.0
 11
9.5999999999999996
 21
23.0
 31
0.0
  0
LINE
  5
1525
  8
241
  6
HIDDEN2
 10
19.0
 20
16.300000000000001
 30
0.0
 11
19.0
 21
23.0
 31
0.0
  0
LINE
  5
1526
  8
240
  6
CONTINUOUS
 10
15.290598920000001
 20
19.0
 30
0.0
 11
17.600000000000001
 21
23.0
 31
0.0
  0
LINE
  5
1527
  8
240
  6
CONTINUOUS
 10
11.90940108
 20
19.0
 30
0.0
 11
15.290598920000001
 21
19.0
 31
0.0
  0
LINE
  5
1528
  8
240
 10
32.349529230000002
 20
12.854245840000001
 30
0.0
 11
23.581530699999998
 21
17.356527880000002
 31
0.0
  0
ARC
  5
1529
  8
240
 10
25.0
 20
20.0
 30
0.0
 40
3.0
 50
180.0
 51
241.78227573999999
  0
LINE
  5
152A
  8
240
  6
CONTINUOUS
 10
22.0
 20
23.0
 30
0.0
 11
22.0
 21
20.0
 31
0.0
  0
LINE
  5
16B0
  8
241
 10
83.502403432325906
 20
5.2831493065669024
 30
0.0
 11
65.371394851510956
 21
10.012608099204501
 31
0.0
  0
LINE
  5
16B1
  8
245
 10
76.339127371053308
 20
9.1519999999999921
 30
0.0
 11
82.141640628629375
 21
9.1519999999999921
 31
0.0
  0
LINE
  5
16B4
  8
245
 10
79.236000000000189
 20
6.7409085428008844
 30
0.0
 11
79.236000000000203
 21
11.472329033957759
 31
0.0
  0
LINE
  5
16B5
  8
241
 10
64.250155090078053
 20
11.46404123288228
 30
0.0
 11
64.250155090078053
 21
11.74999999999998
 31
0.0
  0
ARC
  5
16B6
  8
241
 10
65.750000000000085
 20
11.46404123288222
 30
0.0
 40
1.5
 50
179.9999999999992
 51
255.3802193710095
  0
LINE
  5
16BD
  8
240
 10
73.792557466216749
 20
11.75
 30
0.0
 11
74.750077340688222
 21
12.00746247344609
 31
0.0
  0
LINE
  5
16BF
  8
240
 10
74.963217361185116
 20
12.50000000000003
 30
0.0
 11
84.999999999999915
 21
12.5
 31
0.0
1001
GRPNAME
1000
PASTMD05
  0
LINE
  5
16C0
  8
240
 10
84.999999999999915
 20
9.25
 30
0.0
 11
85.0
 21
12.500000000000011
 31
0.0
1001
GRPNAME
1000
PASTMD05
  0
LINE
  5
16C2
  8
240
 10
84.249999999999787
 20
7.5168522595878731
 30
0.0
 11
84.999999999999915
 21
9.249999999999984
 31
0.0
  0
LINE
  5
16C3
  8
241
 10
73.472000000000463
 20
9.0539999999999825
 30
0.0
 11
73.472000000000421
 21
7.899571856656598
 31
0.0
1001
GRPNAME
1000
PASTMD05
  0
LINE
  5
16C4
  8
241
 10
74.750077340688222
 20
12.00746247344609
 30
0.0
 11
73.472000000000463
 21
9.0539999999999914
 31
0.0
  0
CIRCLE
  5
16C5
  8
241
 10
79.236000000000189
 20
9.1519999999999921
 30
0.0
 40
1.8999999999999999
  0
LINE
  5
16C6
  8
242
 10
75.751807254059813
 20
12.349950225681511
 30
0.0
 11
82.984950391591056
 21
10.973656279732429
 31
0.0
  0
LINE
  5
16C7
  8
242
 10
83.796701875998309
 20
9.9397984725992945
 30
0.0
 11
83.63492689145923
 21
6.8016738697352093
 31
0.0
  0
LINE
  5
16C8
  8
242
 10
82.805009519821084
 20
6.1500497743185232
 30
0.0
 11
75.571866382289883
 21
7.5263437202676089
 31
0.0
  0
LINE
  5
16C9
  8
242
 10
74.76011489788263
 20
8.5602015274007481
 30
0.0
 11
74.921889882421709
 21
11.69832613026483
 31
0.0
  0
LINE
  5
16CD
  8
240
 10
74.750077340688222
 20
12.00746247344609
 30
0.0
 11
74.963217361185116
 21
12.50000000000003
 31
0.0
  0
LINE
  5
16CF
  8
241
 10
80.754261066854426
 20
6.0000000000000089
 30
0.0
 11
83.593599412695795
 21
6.0000000000000089
 31
0.0
  0
ARC
  5
16D0
  8
242
 10
75.758788762684901
 20
8.508718406274669
 30
0.0
 40
1.0
 50
177.04892982193681
 51
259.22676795557811
1001
GENIUS_GENOBJ-N-FIL_13
1002
{
1000
OWNER
1000
GEN
1002
}
1001
GENIUS_GENODEF_13
1002
{
1000
HIER
1070
     0
1002
}
1002
{
1000
MANEDIT
1070
     0
1002
}
1002
{
1000
NOSEL
1070
     0
1002
}
1002
{
1000
BEHIND
1070
     0
1002
}
1002
{
1000
OTHER
1070
     0
1002
}
1002
{
1000
REACTOR
1002
}
  0
ARC
  5
16D1
  8
242
 10
82.798028011196038
 20
9.9912815937253754
 30
0.0
 40
1.0
 50
357.04892982193672
 51
79.22676795557814
1001
GENIUS_GENOBJ-N-FIL_13
1002
{
1000
OWNER
1000
GEN
1002
}
1001
GENIUS_GENODEF_13
1002
{
1000
HIER
1070
     0
1002
}
1002
{
1000
MANEDIT
1070
     0
1002
}
1002
{
1000
NOSEL
1070
     0
1002
}
1002
{
1000
BEHIND
1070
     0
1002
}
1002
{
1000
OTHER
1070
     0
1002
}
1002
{
1000
REACTOR
1002
}
  0
ARC
  5
16D2
  8
242
 10
75.620961587783313
 20
11.662287945476571
 30
0.0
 40
0.7
 50
79.22676795557814
 51
177.04892982193681
1001
GENIUS_GENODEF_13
1002
{
1000
HIER
1070
     0
1002
}
1002
{
1000
MANEDIT
1070
     0
1002
}
1002
{
1000
NOSEL
1070
     0
1002
}
1002
{
1000
BEHIND
1070
     0
1002
}
1002
{
1000
OTHER
1070
     0
1002
}
1002
{
1000
REACTOR
1002
}
1001
GENIUS_GENOBJ-N-FIL_13
1002
{
1000
OWNER
1000
GEN
1002
}
  0
ARC
  5
16D3
  8
242
 10
82.935855186097655
 20
6.837712054523462
 30
0.0
 40
0.7
 50
259.22676795557811
 51
357.04892982193718
1001
GENIUS_GENOBJ-N-FIL_13
1002
{
1000
OWNER
1000
GEN
1002
}
1001
GENIUS_GENODEF_13
1002
{
1000
HIER
1070
     0
1002
}
1002
{
1000
MANEDIT
1070
     0
1002
}
1002
{
1000
NOSEL
1070
     0
1002
}
1002
{
1000
BEHIND
1070
     0
1002
}
1002
{
1000
OTHER
1070
     0
1002
}
1002
{
1000
REACTOR
1002
}
  0
TEXT
  5
16D8
  8
250
 10
-42.975404073333323
 20
-20.238842340000001
 30
0.0
 40
2.799999999999998
  1
BBT30
  7
YOKO
1001
ITEMNAME
1000
LNSP3
1001
ACAD
1000
MTEXTBEGIN
1070
    73
1070
     1
1070
    44
1040
1.0
1070
    74
1070
     0
1000
MTEXTEND
1000
MTEXTBEGIN
1070
    73
1070
     1
1070
    44
1040
1.0
1070
    74
1070
     0
1000
MTEXTEND
1000
MTEXTBEGIN
1070
    73
1070
     1
1070
    44
1040
1.0
1070
    74
1070
     0
1000
MTEXTEND
  0
LINE
  5
16D9
  8
250
 10
0.0
 20
16.375
 30
0.0
 11
0.0
 21
39.5
 31
0.0
  0
LINE
  5
16DA
  8
250
 10
85.0
 20
13.0
 30
0.0
 11
85.0
 21
39.5
 31
0.0
  0
LINE
  5
16DB
  8
250
 10
2.2299999999999991
 20
38.5
 30
0.0
 11
82.769999999999996
 21
38.5
 31
0.0
  0
LINE
  5
16DF
  8
250
 10
35.0
 20
12.435544889999999
 30
0.0
 11
35.0
 21
32.5
 31
0.0
  0
LINE
  5
16E0
  8
250
 10
85.0
 20
13.0
 30
0.0
 11
85.0
 21
32.5
 31
0.0
  0
LINE
  5
16E1
  8
250
 10
37.229999999999997
 20
31.5
 30
0.0
 11
82.769999999999996
 21
31.5
 31
0.0
  0
LINE
  5
16E5
  8
250
 10
77.0
 20
13.0
 30
0.0
 11
77.0
 21
25.5
 31
0.0
  0
LINE
  5
16E6
  8
250
 10
85.0
 20
13.0
 30
0.0
 11
85.0
 21
25.5
 31
0.0
  0
LINE
  5
16E7
  8
250
 10
79.230000000000004
 20
24.5
 30
0.0
 11
82.769999999999996
 21
24.5
 31
0.0
  0
LINE
  5
16EC
  8
250
 10
85.5
 20
12.5
 30
0.0
 11
99.0
 21
12.5
 31
0.0
  0
LINE
  5
16ED
  8
250
 10
98.0
 20
-10.27
 30
0.0
 11
98.0
 21
10.27
 31
0.0
  0
LINE
  5
16F1
  8
250
 10
-23.631091409633061
 20
-14.522562450651151
 30
0.0
 11
-27.508737409999998
 21
-21.238842340000001
 31
0.0
1001
ACAD
1000
DSTYLE
1002
{
1070
     6
1000
OPEN
1070
   343
1005
594
1002
}
  0
LINE
  5
16F2
  8
250
 10
-23.952964184741589
 20
-14.336729117378971
 30
0.0
 11
-22.516091410000001
 21
-12.5913258
 31
0.0
  0
LINE
  5
16F3
  8
250
 10
-23.309218634524541
 20
-14.708395783923329
 30
0.0
 11
-22.516091410000001
 21
-12.5913258
 31
0.0
  0
LINE
  5
16F4
  8
250
 10
-22.516091410000001
 20
-12.5913258
 30
0.0
 11
-23.631091409633061
 21
-14.522562450651151
 31
0.0
  0
TEXT
  5
16F5
  8
250
 10
39.833333333333343
 20
39.5
 30
0.0
 40
2.799999999999998
  1
85
1001
ACAD
1000
MTEXTBEGIN
1070
    73
1070
     1
1070
    44
1040
1.0
1070
    74
1070
     0
1000
MTEXTEND
1000
MTEXTBEGIN
1070
    73
1070
     1
1070
    44
1040
1.0
1070
    74
1070
     0
1000
MTEXTEND
  0
LINE
  5
16F6
  8
250
 10
82.769999999999996
 20
38.87166666666667
 30
0.0
 11
85.0
 21
38.5
 31
0.0
  0
LINE
  5
16F7
  8
250
 10
82.769999999999996
 20
38.12833333333333
 30
0.0
 11
85.0
 21
38.5
 31
0.0
  0
LINE
  5
16F8
  8
250
 10
85.0
 20
38.5
 30
0.0
 11
82.769999999999996
 21
38.5
 31
0.0
  0
LINE
  5
16F9
  8
250
 10
2.2299999999999991
 20
38.12833333333333
 30
0.0
 11
0.0
 21
38.5
 31
0.0
  0
LINE
  5
16FA
  8
250
 10
2.2299999999999991
 20
38.87166666666667
 30
0.0
 11
0.0
 21
38.5
 31
0.0
  0
LINE
  5
16FB
  8
250
 10
0.0
 20
38.5
 30
0.0
 11
2.2299999999999991
 21
38.5
 31
0.0
  0
TEXT
  5
16FC
  8
250
 10
57.333333333333343
 20
32.5
 30
0.0
 40
2.799999999999998
  1
50
1001
ACAD
1000
MTEXTBEGIN
1070
    73
1070
     1
1070
    44
1040
1.0
1070
    74
1070
     0
1000
MTEXTEND
1000
MTEXTBEGIN
1070
    73
1070
     1
1070
    44
1040
1.0
1070
    74
1070
     0
1000
MTEXTEND
  0
LINE
  5
16FD
  8
250
 10
82.769999999999996
 20
31.87166666666667
 30
0.0
 11
85.0
 21
31.5
 31
0.0
  0
LINE
  5
16FE
  8
250
 10
82.769999999999996
 20
31.128333333333341
 30
0.0
 11
85.0
 21
31.5
 31
0.0
  0
LINE
  5
16FF
  8
250
 10
85.0
 20
31.5
 30
0.0
 11
82.769999999999996
 21
31.5
 31
0.0
  0
LINE
  5
1700
  8
250
 10
37.229999999999997
 20
31.128333333333341
 30
0.0
 11
35.0
 21
31.5
 31
0.0
  0
LINE
  5
1701
  8
250
 10
37.229999999999997
 20
31.87166666666667
 30
0.0
 11
35.0
 21
31.5
 31
0.0
  0
LINE
  5
1702
  8
250
 10
35.0
 20
31.5
 30
0.0
 11
37.229999999999997
 21
31.5
 31
0.0
  0
TEXT
  5
1703
  8
250
 10
79.666666666666643
 20
25.5
 30
0.0
 40
2.799999999999998
  1
8
1001
ACAD
1000
MTEXTBEGIN
1070
    73
1070
     1
1070
    44
1040
1.0
1070
    74
1070
     0
1000
MTEXTEND
1000
MTEXTBEGIN
1070
    73
1070
     1
1070
    44
1040
1.0
1070
    74
1070
     0
1000
MTEXTEND
  0
LINE
  5
1704
  8
250
 10
82.769999999999996
 20
24.87166666666667
 30
0.0
 11
85.0
 21
24.5
 31
0.0
  0
LINE
  5
1705
  8
250
 10
82.769999999999996
 20
24.12833333333333
 30
0.0
 11
85.0
 21
24.5
 31
0.0
  0
LINE
  5
1706
  8
250
 10
85.0
 20
24.5
 30
0.0
 11
82.769999999999996
 21
24.5
 31
0.0
  0
LINE
  5
1707
  8
250
 10
79.230000000000004
 20
24.12833333333333
 30
0.0
 11
77.0
 21
24.5
 31
0.0
  0
LINE
  5
1708
  8
250
 10
79.230000000000004
 20
24.87166666666667
 30
0.0
 11
77.0
 21
24.5
 31
0.0
  0
LINE
  5
1709
  8
250
 10
77.0
 20
24.5
 30
0.0
 11
79.230000000000004
 21
24.5
 31
0.0
  0
TEXT
  5
170A
  8
250
 10
97.0
 20
-3.799999999999998
 30
0.0
 40
2.799999999999998
  1
\U+2205
 50
90.0
1001
ACAD
1000
MTEXTBEGIN
1070
    73
1070
     1
1070
    44
1040
1.0
1070
    74
1070
     0
1000
MTEXTEND
1000
MTEXTBEGIN
1070
    73
1070
     1
1070
    44
1040
1.0
1070
    74
1070
     0
1000
MTEXTEND
  0
TEXT
  5
170B
  8
250
 10
97.0
 20
-1.2666666666666651
 30
0.0
 40
2.799999999999998
  1
25
 50
90.0
1001
ACAD
1000
MTEXTBEGIN
1070
    73
1070
     1
1070
    44
1040
1.0
1070
    74
1070
     0
1000
MTEXTEND
1000
MTEXTBEGIN
1070
    73
1070
     1
1070
    44
1040
1.0
1070
    74
1070
     0
1000
MTEXTEND
  0
LINE
  5
170C
  8
250
 10
97.62833333333333
 20
10.27
 30
0.0
 11
98.0
 21
12.5
 31
0.0
  0
LINE
  5
170D
  8
250
 10
98.371666666666684
 20
10.27
 30
0.0
 11
98.0
 21
12.5
 31
0.0
  0
LINE
  5
170E
  8
250
 10
98.0
 20
12.5
 30
0.0
 11
98.0
 21
10.27
 31
0.0
  0
LINE
  5
18DF
  8
240
 10
84.249999999999787
 20
-7.5168522595727598
 30
0.0
 11
84.249999999999787
 21
-0.0000000000003411
 31
0.0
  0
LINE
  5
18E0
  8
241
 10
83.678013197257783
 20
-11.910528699685241
 30
0.0
 11
75.255770771186931
 21
-12.09840526882323
 31
0.0
  0
LINE
  5
18E1
  8
240
 10
73.878063432174415
 20
-11.75
 30
0.0
 11
74.738423866544053
 21
-11.98053288358903
 31
0.0
  0
LINE
  5
18E2
  8
241
 10
73.878063432175651
 20
7.793650541738586
 30
0.0
 11
73.878063432175637
 21
-11.489246114518149
 31
0.0
  0
ARC
  5
18E3
  8
241
 10
75.244619949803905
 20
-11.59852962510524
 30
0.0
 40
0.5
 50
255.00000000000551
 51
271.27789595137813
  0
LINE
  5
18E4
  8
241
 10
84.249999999999787
 20
-9.0500000000004093
 30
0.0
 11
84.166554872770604
 21
-11.428186126033779
 31
0.0
  0
ARC
  5
18E5
  8
241
 10
83.666862375874643
 20
-11.410653055967259
 30
0.0
 40
0.5
 50
271.27789595137813
 51
357.99044618697911
  0
LINE
  5
18E6
  8
240
 10
84.249999999999787
 20
7.5168522595878731
 30
0.0
 11
84.249999999999787
 21
-0.0000000000003411
 31
0.0
  0
LINE
  5
18EF
  8
241
 10
84.249999999999787
 20
7.5168522595878731
 30
0.0
 11
83.593599412695795
 21
6.0000000000000089
 31
0.0
  0
ARC
  5
18F9
  8
241
 10
83.249999999999787
 20
4.3155272174484267
 30
0.0
 40
1.0
 50
0.0
 51
75.380219371009503
1001
GENIUS_GENODEF_13
1002
{
1000
HIER
1070
     0
1002
}
1002
{
1000
MANEDIT
1070
     0
1002
}
1002
{
1000
NOSEL
1070
     0
1002
}
1002
{
1000
BEHIND
1070
     0
1002
}
1002
{
1000
OTHER
1070
     0
1002
}
1002
{
1000
REACTOR
1002
}
1001
GENIUS_GENOBJ-N-FIL_13
1002
{
1000
OWNER
1000
GEN
1002
}
  0
LINE
  5
1901
  8
240
 10
74.963217361196484
 20
-12.50000000000915
 30
0.0
 11
85.000000000011269
 21
-12.5
 31
0.0
1001
GRPNAME
1000
PASTMD05
  0
LINE
  5
1902
  8
240
 10
85.000000000008313
 20
-9.25
 30
0.0
 11
85.000000000011354
 21
-12.500000000000011
 31
0.0
1001
GRPNAME
1000
PASTMD05
  0
LINE
  5
1903
  8
240
 10
84.249999999999787
 20
-7.5168522595727598
 30
0.0
 11
85.000000000008313
 21
-9.249999999999984
 31
0.0
  0
LINE
  5
1904
  8
240
 10
74.738423866544053
 20
-11.98053288358903
 30
0.0
 11
74.963217361196484
 21
-12.50000000000915
 31
0.0
  0
LINE
  5
1905
  8
250
 10
85.500000000011369
 20
-12.49999999999954
 30
0.0
 11
99.000000000011369
 21
-12.499999999987271
 31
0.0
  0
LINE
  5
1906
  8
250
 10
97.628333333342653
 20
-10.26999999998851
 30
0.0
 11
98.000000000011369
 21
-12.49999999998818
 31
0.0
  0
LINE
  5
1907
  8
250
 10
98.37166666667602
 20
-10.26999999998784
 30
0.0
 11
98.000000000011369
 21
-12.49999999998818
 31
0.0
  0
LINE
  5
1908
  8
250
 10
98.000000000011369
 20
-12.49999999998818
 30
0.0
 11
98.000000000009351
 21
-10.269999999988171
 31
0.0
  0
LINE
  5
190B
  8
241
 10
74.738423866544053
 20
-11.98053288358903
 30
0.0
 11
75.115210427252705
 21
-12.08149253824979
 31
0.0
  0
LINE
  5
190C
  8
241
 10
84.249999999999787
 20
-9.0500000000004093
 30
0.0
 11
84.249999999999787
 21
-7.5168522595727598
 31
0.0
  0
VIEWPORT
  5
22
 67
     1
  8
0
 10
261.51769911999997
 20
148.5
 30
0.0
 40
523.03539823000006
 41
297.0
 68
     1
 69
     1
1001
ACAD
1000
MVIEW
1002
{
1070
    16
1010
0.0
1020
0.0
1030
0.0
1010
0.0
1020
0.0
1030
1.0
1040
0.0
1040
297.0
1040
261.51769911999997
1040
148.5
1040
50.0
1040
0.0
1040
0.0
1070
     0
1070
   100
1070
     1
1070
     1
1070
     0
1070
     0
1070
     0
1070
     0
1040
0.0
1040
0.0
1040
0.0
1040
1.0
1040
1.0
1040
10.0
1040
10.0
1070
     0
1002
{
1002
}
1002
}
1001
GENIUS_GENODEF_13
1002
{
1000
HIER
1070
     0
1002
}
1002
{
1000
MANEDIT
1070
     0
1002
}
1002
{
1000
NOSEL
1070
     0
1002
}
1002
{
1000
BEHIND
1070
     0
1002
}
1002
{
1000
OTHER
1070
     0
1002
}
1002
{
1000
REACTOR
1002
}
1001
GENIUS_GENOBJ-N-SDF_13
1002
{
1000
OWNER
1000
GEN
1002
}
1001
GENIUS_GENSCREG_15
1000
PF
1040
1.0
1000
DF
1040
1.0
1000
MIN
1011
0.0000000049999471
1021
6.5399695262833699E+296
1031
-0.0
1021
0.0
1031
0.0
1000
MAX
1011
523.035398235
1021
6.5399695262833699E+296
1031
-0.0
1021
297.0
1031
0.0
1000
FLAGS
1070
     2
  0
ENDSEC
  0
EOF
