  0
SECTION
  2
HEADER
  9
$ACADVER
  1
AC1009
  9
$INSBASE
 10
0.0
 20
0.0
 30
0.0
  9
$EXTMIN
 10
-49.415890056073067
 20
-23.01423345630883
 30
-0.000000039842541
  9
$EXTMAX
 10
78.004975357095873
 20
54.013209034891702
 30
0.0000000765687993
  9
$LIMMIN
 10
0.0
 20
0.0
  9
$LIMMAX
 10
420.0
 20
297.0
  9
$ORTHOMODE
 70
     0
  9
$REGENMODE
 70
     1
  9
$FILLMODE
 70
     1
  9
$QTEXTMODE
 70
     0
  9
$MIRRTEXT
 70
     1
  9
$DRAGMODE
 70
     2
  9
$LTSCALE
 40
10.0
  9
$OSMODE
 70
    39
  9
$ATTMODE
 70
     1
  9
$TEXTSIZE
 40
3.0
  9
$TRACEWID
 40
1.0
  9
$TEXTSTYLE
  7
YOKO
  9
$CLAYER
  8
240
  9
$CELTYPE
  6
BYLAYER
  9
$CECOLOR
 62
   256
  9
$DIMSCALE
 40
1.0
  9
$DIMASZ
 40
2.0
  9
$DIMEXO
 40
2.0
  9
$DIMDLI
 40
2.5
  9
$DIMRND
 40
0.0
  9
$DIMDLE
 40
0.0
  9
$DIMEXE
 40
2.0
  9
$DIMTP
 40
0.0
  9
$DIMTM
 40
0.0
  9
$DIMTXT
 40
4.0
  9
$DIMCEN
 40
0.0
  9
$DIMTSZ
 40
0.0
  9
$DIMTOL
 70
     0
  9
$DIMLIM
 70
     0
  9
$DIMTIH
 70
     0
  9
$DIMTOH
 70
     0
  9
$DIMSE1
 70
     0
  9
$DIMSE2
 70
     0
  9
$DIMTAD
 70
     3
  9
$DIMZIN
 70
     8
  9
$DIMBLK
  1

  9
$DIMASO
 70
     1
  9
$DIMSHO
 70
     1
  9
$DIMPOST
  1

  9
$DIMAPOST
  1

  9
$DIMALT
 70
     0
  9
$DIMALTD
 70
     2
  9
$DIMALTF
 40
25.399999999999999
  9
$DIMLFAC
 40
1.0
  9
$DIMTOFL
 70
     1
  9
$DIMTVP
 40
0.0
  9
$DIMTIX
 70
     1
  9
$DIMSOXD
 70
     0
  9
$DIMSAH
 70
     1
  9
$DIMBLK1
  1
OPEN
  9
$DIMBLK2
  1
OPEN
  9
$DIMSTYLE
  2
BIGT
  9
$DIMCLRD
 70
   256
  9
$DIMCLRE
 70
   256
  9
$DIMCLRT
 70
    40
  9
$DIMTFAC
 40
1.0
  9
$DIMGAP
 40
1.0
  9
$LUNITS
 70
     2
  9
$LUPREC
 70
     3
  9
$SKETCHINC
 40
1.0
  9
$FILLETRAD
 40
3.0
  9
$AUNITS
 70
     0
  9
$AUPREC
 70
     3
  9
$MENU
  1
.
  9
$ELEVATION
 40
0.0
  9
$PELEVATION
 40
0.0
  9
$THICKNESS
 40
0.0
  9
$LIMCHECK
 70
     0
  9
$BLIPMODE
 70
     0
  9
$CHAMFERA
 40
10.0
  9
$CHAMFERB
 40
10.0
  9
$SKPOLY
 70
     0
  9
$TDCREATE
 40
2455141.3888953929
  9
$TDUPDATE
 40
2456092.4435950811
  9
$TDINDWG
 40
0.0119634259
  9
$TDUSRTIMER
 40
0.0119632407
  9
$USRTIMER
 70
     1
  9
$ANGBASE
 50
0.0
  9
$ANGDIR
 70
     0
  9
$PDMODE
 70
     1
  9
$PDSIZE
 40
-5.0
  9
$PLINEWID
 40
0.0
  9
$COORDS
 70
     0
  9
$SPLFRAME
 70
     0
  9
$SPLINETYPE
 70
     6
  9
$SPLINESEGS
 70
     8
  9
$ATTDIA
 70
     1
  9
$ATTREQ
 70
     1
  9
$HANDLING
 70
     1
  9
$HANDSEED
  5
1EDA
  9
$SURFTAB1
 70
     6
  9
$SURFTAB2
 70
     6
  9
$SURFTYPE
 70
     6
  9
$SURFU
 70
     6
  9
$SURFV
 70
     6
  9
$UCSNAME
  2

  9
$UCSORG
 10
0.0
 20
0.0
 30
0.0
  9
$UCSXDIR
 10
1.0
 20
0.0
 30
0.0
  9
$UCSYDIR
 10
0.0
 20
1.0
 30
0.0
  9
$PUCSNAME
  2

  9
$PUCSORG
 10
0.0
 20
0.0
 30
0.0
  9
$PUCSXDIR
 10
1.0
 20
0.0
 30
0.0
  9
$PUCSYDIR
 10
0.0
 20
1.0
 30
0.0
  9
$USERI1
 70
     1
  9
$USERI2
 70
     0
  9
$USERI3
 70
     0
  9
$USERI4
 70
     0
  9
$USERI5
 70
     0
  9
$USERR1
 40
0.0
  9
$USERR2
 40
0.0
  9
$USERR3
 40
0.0
  9
$USERR4
 40
0.0
  9
$USERR5
 40
0.0
  9
$WORLDVIEW
 70
     1
  9
$SHADEDGE
 70
     3
  9
$SHADEDIF
 70
    70
  9
$TILEMODE
 70
     1
  9
$MAXACTVP
 70
    16
  9
$PLIMCHECK
 70
     0
  9
$PEXTMIN
 10
1.0000000000000000E+020
 20
1.0000000000000000E+020
 30
1.0000000000000000E+020
  9
$PEXTMAX
 10
-1.0000000000000000E+020
 20
-1.0000000000000000E+020
 30
-1.0000000000000000E+020
  9
$PLIMMIN
 10
0.0
 20
0.0
  9
$PLIMMAX
 10
420.0
 20
297.0
  9
$UNITMODE
 70
     0
  9
$VISRETAIN
 70
     0
  9
$PLINEGEN
 70
     0
  9
$PSLTSCALE
 70
     1
  0
ENDSEC
  0
SECTION
  2
TABLES
  0
TABLE
  2
VPORT
 70
   115
  0
VPORT
  2
*ACTIVE
 70
     0
 10
0.0
 20
0.0
 11
1.0
 21
1.0
 12
14.294542650511399
 22
15.49948778929144
 13
0.0
 23
0.0
 14
7.0
 24
7.0
 15
7.0
 25
7.0
 16
0.0
 26
0.0
 36
1.0
 17
0.0
 27
0.0
 37
0.0
 40
87.953713393776127
 41
1.4552401746724879
 42
50.0
 43
0.0
 44
0.0
 50
0.0
 51
0.0
 71
     0
 72
  2000
 73
     1
 74
     0
 75
     0
 76
     0
 77
     0
 78
     0
  0
ENDTAB
  0
TABLE
  2
LTYPE
 70
    16
  0
LTYPE
  2
CONTINUOUS
 70
     0
  3
Solid line
 72
    65
 73
     0
 40
0.0
  0
LTYPE
  2
CENTER2
 70
     0
  3
___ _ ___ _ ___ _ ___ _ ___ _ ___ _ ___ _ ___ _
 72
    65
 73
     4
 40
1.125
 49
0.75
 49
-0.125
 49
0.125
 49
-0.125
  0
LTYPE
  2
HIDDEN2
 70
     0
  3
_ _ _ _ _ _ _ _ _ _ _ _ _ _ _ _ _ _ _ _ _ _ _ _
 72
    65
 73
     2
 40
0.1875
 49
0.125
 49
-0.0625
  0
LTYPE
  2
PHANTOM2
 70
     0
  3
___ _ _ ___ _ _ ___ _ _ ___ _ _ ___ _ _ ___ _ _
 72
    65
 73
     6
 40
1.25
 49
0.625
 49
-0.125
 49
0.125
 49
-0.125
 49
0.125
 49
-0.125
  0
LTYPE
  2
AMCONSTR
 70
     0
  3
_______________________
 72
    65
 73
     2
 40
9999.0
 49
9999.0
 49
0.0
  0
LTYPE
  2
AM_ISO02W050
 70
     0
  3
__ __ __ __ __ __ __ __ __ __ __ __ __ __ __
 72
    65
 73
     2
 40
7.5
 49
6.0
 49
-1.5
  0
LTYPE
  2
HIDDEN
 70
     0
  3
Hidden __ __ __ __ __ __ __ __ __ __ __ __ __ _
 72
    65
 73
     2
 40
9.5249999999999986
 49
6.3499999999999988
 49
-3.1749999999999989
  0
LTYPE
  2
CENTER
 70
     0
  3
____ _ ____ _ ____ _ ____ _ ____ _ ____ _ ____ 
 72
    65
 73
     4
 40
2.0
 49
1.25
 49
-0.25
 49
0.25
 49
-0.25
  0
LTYPE
  2
ACJISTGB
 70
     0
  3
__ . . __ . .
 72
    65
 73
     6
 40
9.0
 49
4.0
 49
-1.0
 49
1.0
 49
-1.0
 49
1.0
 49
-1.0
  0
LTYPE
  2
ACJISTGL
 70
     0
  3
_ _ _ _ _
 72
    65
 73
     2
 40
3.0
 49
2.0
 49
-1.0
  0
LTYPE
  2
ACISOWELD
 70
     0
  3
_ _ _ _ _
 72
    65
 73
     2
 40
2.0
 49
2.0
 49
-1.0
  0
LTYPE
  2
ACISOTGB
 70
     0
  3
__ . . __ . .
 72
    65
 73
     6
 40
9.0
 49
4.0
 49
-1.0
 49
1.0
 49
-1.0
 49
1.0
 49
-1.0
  0
LTYPE
  2
ACISOTGL
 70
     0
  3
_ _ _ _ _
 72
    65
 73
     2
 40
3.0
 49
2.0
 49
-1.0
  0
LTYPE
  2
ACANSTGB
 70
     0
  3
__ . . __ . .
 72
    65
 73
     6
 40
0.35433070866
 49
0.15748031496
 49
-0.03937007874
 49
0.03937007874
 49
-0.03937007874
 49
0.03937007874
 49
-0.03937007874
  0
LTYPE
  2
ACANSTGL
 70
     0
  3
_ _ _ _ _
 72
    65
 73
     2
 40
0.11811023622
 49
0.07874015748
 49
-0.03937007874
  0
ENDTAB
  0
TABLE
  2
LAYER
 70
    12
  0
LAYER
  2
0
 70
     0
 62
     7
  6
CONTINUOUS
  0
LAYER
  2
240
 70
     0
 62
     4
  6
CONTINUOUS
  0
LAYER
  2
241
 70
     0
 62
   211
  6
CONTINUOUS
  0
LAYER
  2
243
 70
     0
 62
   211
  6
HIDDEN2
  0
LAYER
  2
245
 70
     0
 62
     2
  6
CENTER2
  0
LAYER
  2
250
 70
     0
 62
     3
  6
CONTINUOUS
  0
LAYER
  2
DEFPOINTS
 70
     0
 62
     7
  6
CONTINUOUS
  0
LAYER
  2
242
 70
     0
 62
     3
  6
CONTINUOUS
  0
ENDTAB
  0
TABLE
  2
STYLE
 70
     9
  0
STYLE
  2
STANDARD
 70
     0
 40
0.0
 41
1.0
 50
0.0
 71
     0
 42
3.0
  3
romans.shx
  4
BIGFONT.SHX
  0
STYLE
  2
YOKO
 70
     0
 40
0.0
 41
1.0
 50
0.0
 71
     0
 42
3.0
  3
romans.shx
  4
extfont.shx
  0
STYLE
  2
ACJISGDT
 70
     0
 40
0.0
 41
1.0
 50
0.0
 71
     0
 42
3.0
  3
amgdt.shx
  4
extfont.shx
  0
STYLE
  2
ACJISTS
 70
     0
 40
1.0
 41
1.0
 50
0.0
 71
     0
 42
3.0
  3
amgdt.shx
  4
extfont.shx
  0
STYLE
  2
ACISOTS
 70
     0
 40
1.0
 41
1.0
 50
0.0
 71
     0
 42
3.0
  3
amgdt.shx
  4
extfont.shx
  0
STYLE
  2
ACISOGDT
 70
     0
 40
0.0
 41
1.0
 50
0.0
 71
     0
 42
3.0
  3
amgdt.shx
  4
extfont.shx
  0
STYLE
  2
ACANSTS
 70
     0
 40
1.0
 41
1.0
 50
0.0
 71
     0
 42
3.0
  3
romans.shx
  4
extfont.shx
  0
STYLE
  2
ACANSGDT
 70
     0
 40
0.0
 41
1.0
 50
0.0
 71
     0
 42
3.0
  3
amgdtans.shx
  4

  0
ENDTAB
  0
TABLE
  2
VIEW
 70
     0
  0
ENDTAB
  0
TABLE
  2
UCS
 70
     0
  0
ENDTAB
  0
TABLE
  2
APPID
 70
    35
  0
APPID
  2
ACAD
 70
     0
  0
APPID
  2
GLOBAL
 70
     0
  0
APPID
  2
DETAIL
 70
     0
  0
APPID
  2
GRPNAME
 70
     0
  0
APPID
  2
GPARA
 70
     0
  0
APPID
  2
DCO15
 70
     0
  0
APPID
  2
ITEMNAME
 70
     0
  0
APPID
  2
GRADE_0
 70
     0
  0
APPID
  2
HATCH_TYPE
 70
     0
  0
APPID
  2
HATCH_DISPLAY
 70
     0
  0
APPID
  2
HATCH_DISTANCE
 70
     0
  0
APPID
  2
CONTENTBLOCKICON
 70
     0
  0
APPID
  2
MCAD_NO_VIS
 70
     0
  0
APPID
  2
ACAD_TEMP_GRAPHIC
 70
     0
  0
APPID
  2
ACATTRIBSERVICES
 70
     0
  0
APPID
  2
GENIUS_GENSCREG_15
 70
     0
  0
APPID
  2
GENIUS_GENODEF_13
 70
     0
  0
APPID
  2
GENIUS_GENOBJ-N-SDF_13
 70
     0
  0
APPID
  2
GENIUS_GENREC_14
 70
     0
  0
APPID
  2
GENIUS_GENOBJ-N-REC_13
 70
     0
  0
APPID
  2
GENIUS_GENDIMSH_14
 70
     0
  0
APPID
  2
GENIUS_GENOBJ-N-DIM_13
 70
     0
  0
APPID
  2
GENIUS_GENDIM_13
 70
     0
  0
APPID
  2
GENIUS_GENDTOL_13
 70
     0
  0
APPID
  2
GENIUS_GENOLIS_13
 70
     0
  0
APPID
  2
GENIUS_GENOENT_13
 70
     0
  0
APPID
  2
GENIUS_GENOBJ-F-FEM_13
 70
     0
  0
APPID
  2
GENIUS_GENOREF_13
 70
     0
  0
APPID
  2
GENIUS_GEFFEM_13
 70
     0
  0
APPID
  2
GENIUS_GEFFEMP_13
 70
     0
  0
APPID
  2
AD_DRAW
 70
     0
  0
APPID
  2
DESIGNERASSEMBLIES
 70
     0
  0
APPID
  2
ACADM_DIM_EDIT
 70
     0
  0
APPID
  2
AMDT_DM_ADJ
 70
     0
  0
APPID
  2
GENIUS_GENOBJ-N-FIL_13
 70
     0
  0
ENDTAB
  0
TABLE
  2
DIMSTYLE
 70
    29
  0
DIMSTYLE
  2
BIGT
 70
     0
  3

  4

  5
OPEN
  6

  7

 40
1.0
 41
2.2299999999999991
 42
0.5
 43
7.0
 44
1.0
 45
0.0
 46
0.0
 47
0.0
 48
0.01
140
2.7999999999999989
141
0.0
142
0.0
143
25.399999999999999
144
1.0
145
0.0
146
1.0
147
1.0
 71
     0
 72
     0
 73
     0
 74
     0
 75
     0
 76
     0
 77
     3
 78
     9
170
     0
171
     2
172
     1
173
     0
174
     1
175
     0
176
   256
177
   256
178
    40
  0
DIMSTYLE
  2
BIGT$0
 70
     0
  3

  4

  5
OPEN
  6

  7

 40
1.0
 41
2.2299999999999991
 42
0.5
 43
7.0
 44
1.0
 45
0.0
 46
0.0
 47
0.0
 48
0.01
140
2.7999999999999989
141
0.0
142
0.0
143
25.399999999999999
144
1.0
145
0.0
146
1.0
147
1.0
 71
     0
 72
     0
 73
     0
 74
     0
 75
     0
 76
     0
 77
     3
 78
     9
170
     0
171
     2
172
     1
173
     0
174
     0
175
     0
176
   256
177
   256
178
    40
  0
DIMSTYLE
  2
BIGT$2
 70
     0
  3

  4

  5
OPEN
  6

  7

 40
1.0
 41
2.2299999999999991
 42
0.5
 43
7.0
 44
1.0
 45
0.0
 46
0.0
 47
0.0
 48
0.01
140
2.7999999999999989
141
0.0
142
0.0
143
25.399999999999999
144
1.0
145
0.0
146
1.0
147
1.0
 71
     0
 72
     0
 73
     0
 74
     0
 75
     0
 76
     0
 77
     3
 78
     9
170
     0
171
     2
172
     1
173
     0
174
     0
175
     0
176
   256
177
   256
178
    40
  0
DIMSTYLE
  2
BIGT$3
 70
     0
  3

  4

  5
OPEN
  6

  7

 40
1.0
 41
2.2299999999999991
 42
0.5
 43
2.5
 44
1.0
 45
0.0
 46
0.0
 47
0.0
 48
0.01
140
2.7999999999999989
141
0.0
142
0.0
143
25.399999999999999
144
1.0
145
0.0
146
1.0
147
1.0
 71
     0
 72
     0
 73
     0
 74
     0
 75
     0
 76
     0
 77
     3
 78
     9
170
     0
171
     2
172
     1
173
     0
174
     0
175
     0
176
   256
177
   256
178
    40
  0
DIMSTYLE
  2
BIGT$4
 70
     0
  3

  4

  5
OPEN
  6

  7

 40
1.0
 41
2.2299999999999991
 42
0.5
 43
2.5
 44
1.0
 45
0.0
 46
0.0
 47
0.0
 48
0.01
140
2.7999999999999989
141
0.0
142
0.0
143
25.399999999999999
144
1.0
145
0.0
146
1.0
147
1.0
 71
     0
 72
     0
 73
     0
 74
     0
 75
     0
 76
     0
 77
     3
 78
     9
170
     0
171
     2
172
     1
173
     0
174
     0
175
     0
176
   256
177
   256
178
    40
  0
DIMSTYLE
  2
BIGT$6
 70
     0
  3

  4

  5
OPEN
  6

  7

 40
1.0
 41
2.2299999999999991
 42
0.5
 43
2.5
 44
1.0
 45
0.0
 46
0.0
 47
0.0
 48
0.01
140
2.7999999999999989
141
0.0
142
0.0
143
25.399999999999999
144
1.0
145
0.0
146
1.0
147
1.0
 71
     0
 72
     0
 73
     0
 74
     0
 75
     0
 76
     0
 77
     3
 78
     9
170
     0
171
     2
172
     1
173
     0
174
     0
175
     0
176
   256
177
   256
178
    40
  0
DIMSTYLE
  2
BIGT$7
 70
     0
  3

  4

  5
OPEN
  6

  7

 40
0.0
 41
2.2299999999999991
 42
0.5
 43
7.0
 44
1.0
 45
0.0
 46
0.0
 47
0.0
 48
0.01
140
2.7999999999999989
141
0.0
142
0.0
143
25.399999999999999
144
1.0
145
0.0
146
1.0
147
1.0
 71
     0
 72
     0
 73
     0
 74
     0
 75
     0
 76
     0
 77
     3
 78
     9
170
     0
171
     2
172
     0
173
     0
174
     0
175
     0
176
   256
177
   256
178
    40
  0
DIMSTYLE
  2
BIGT$SF
 70
     0
  3

  4

  5
OPEN
  6

  7

 40
1.0
 41
2.2299999999999991
 42
0.5
 43
7.0
 44
1.0
 45
0.0
 46
0.0
 47
0.0
 48
0.0
140
2.7999999999999989
141
0.0
142
0.0
143
25.399999999999999
144
1.0
145
0.0
146
1.0
147
1.0
 71
     0
 72
     0
 73
     0
 74
     0
 75
     0
 76
     0
 77
     3
 78
     9
170
     0
171
     2
172
     1
173
     0
174
     0
175
     0
176
   256
177
   256
178
    40
  0
DIMSTYLE
  2
BIGT$SH
 70
     0
  3

  4

  5
OPEN
  6

  7

 40
1.0
 41
2.2299999999999991
 42
0.5
 43
7.0
 44
1.0
 45
0.0
 46
0.0
 47
0.0
 48
0.0
140
2.7999999999999989
141
0.0
142
0.0
143
25.399999999999999
144
1.0
145
0.0
146
1.0
147
1.0
 71
     0
 72
     0
 73
     0
 74
     0
 75
     0
 76
     0
 77
     3
 78
     9
170
     0
171
     2
172
     1
173
     0
174
     0
175
     0
176
   256
177
   256
178
    40
  0
DIMSTYLE
  2
AM_ISO
 70
     0
  3

  4
"
  5

  6

  7

 40
1.0
 41
2.5
 42
1.0
 43
10.0
 44
1.0
 45
0.0
 46
0.0
 47
0.1
 48
0.1
140
3.5
141
0.0
142
0.0
143
0.0393701
144
1.0
145
0.0
146
0.71
147
1.5
 71
     0
 72
     0
 73
     0
 74
     0
 75
     0
 76
     0
 77
     1
 78
     8
170
     0
171
     2
172
     1
173
     0
174
     0
175
     0
176
   256
177
   256
178
     2
  0
DIMSTYLE
  2
AM_ISO$3
 70
     0
  3

  4
"
  5

  6

  7

 40
1.0
 41
2.5
 42
1.0
 43
10.0
 44
1.0
 45
0.0
 46
0.0
 47
0.1
 48
0.1
140
3.5
141
0.0
142
0.0
143
0.0393701
144
1.0
145
0.0
146
0.71
147
1.5
 71
     0
 72
     0
 73
     0
 74
     1
 75
     0
 76
     0
 77
     1
 78
     8
170
     0
171
     2
172
     0
173
     0
174
     0
175
     0
176
   256
177
   256
178
     2
  0
DIMSTYLE
  2
AM_ISO$4
 70
     0
  3

  4
"
  5

  6

  7

 40
1.0
 41
2.5
 42
1.0
 43
10.0
 44
1.0
 45
0.0
 46
0.0
 47
0.1
 48
0.1
140
3.5
141
0.0
142
0.0
143
0.0393701
144
1.0
145
0.0
146
0.71
147
1.5
 71
     0
 72
     0
 73
     0
 74
     1
 75
     0
 76
     0
 77
     1
 78
     8
170
     0
171
     2
172
     0
173
     0
174
     0
175
     0
176
   256
177
   256
178
     2
  0
DIMSTYLE
  2
AM_ISO$6
 70
     0
  3

  4
"
  5

  6

  7

 40
1.0
 41
2.5
 42
1.0
 43
10.0
 44
1.0
 45
0.0
 46
0.0
 47
0.1
 48
0.1
140
3.5
141
0.0
142
0.0
143
0.0393701
144
1.0
145
0.0
146
0.71
147
1.5
 71
     0
 72
     0
 73
     0
 74
     0
 75
     0
 76
     0
 77
     0
 78
     8
170
     0
171
     2
172
     1
173
     0
174
     0
175
     0
176
   256
177
   256
178
     2
  0
DIMSTYLE
  2
AM_ISO$7
 70
     0
  3

  4
"
  5

  6

  7

 40
1.0
 41
2.5
 42
1.0
 43
10.0
 44
1.0
 45
0.0
 46
0.0
 47
0.1
 48
0.1
140
5.0
141
0.0
142
0.0
143
0.0393701
144
1.0
145
0.0
146
0.71
147
1.5
 71
     0
 72
     0
 73
     0
 74
     0
 75
     0
 76
     0
 77
     1
 78
     8
170
     0
171
     2
172
     1
173
     0
174
     0
175
     0
176
   256
177
   256
178
     2
  0
DIMSTYLE
  2
AM_ISO$SF
 70
     0
  3

  4
"
  5

  6

  7

 40
1.0
 41
2.5
 42
1.0
 43
10.0
 44
1.0
 45
0.0
 46
0.0
 47
0.1
 48
0.1
140
3.5
141
0.0
142
0.0
143
0.0393701
144
1.0
145
0.0
146
0.71
147
1.5
 71
     0
 72
     0
 73
     0
 74
     0
 75
     1
 76
     1
 77
     1
 78
     8
170
     0
171
     2
172
     1
173
     0
174
     0
175
     0
176
   256
177
   256
178
     2
  0
DIMSTYLE
  2
AM_ISO$SH
 70
     0
  3

  4
"
  5

  6
GENAXEH
  7

 40
1.0
 41
2.5
 42
1.0
 43
10.0
 44
1.0
 45
0.0
 46
0.0
 47
0.1
 48
0.1
140
3.5
141
0.0
142
0.0
143
0.0393701
144
2.0
145
0.0
146
0.71
147
1.5
 71
     0
 72
     0
 73
     0
 74
     0
 75
     1
 76
     1
 77
     1
 78
     8
170
     0
171
     2
172
     1
173
     1
174
     0
175
     0
176
   256
177
   256
178
     2
  0
DIMSTYLE
  2
TECHNICAL_OSAKA
 70
     0
  3

  4
"
  5
OPEN30
  6

  7

 40
1.0
 41
2.5
 42
1.0
 43
10.0
 44
1.0
 45
0.0
 46
0.0
 47
0.1
 48
0.1
140
2.7999999999999989
141
0.0
142
0.0
143
0.0393701
144
1.0
145
0.0
146
0.71
147
1.5
 71
     0
 72
     0
 73
     0
 74
     0
 75
     0
 76
     0
 77
     3
 78
     8
170
     0
171
     2
172
     1
173
     0
174
     0
175
     0
176
   256
177
   256
178
    40
  0
DIMSTYLE
  2
TECHNICAL_OSAKA$3
 70
     0
  3

  4
"
  5
OPEN30
  6

  7

 40
1.0
 41
2.5
 42
1.0
 43
10.0
 44
1.0
 45
0.0
 46
0.0
 47
0.1
 48
0.1
140
2.7999999999999989
141
0.0
142
0.0
143
0.0393701
144
1.0
145
0.0
146
0.71
147
1.5
 71
     0
 72
     0
 73
     0
 74
     1
 75
     0
 76
     0
 77
     3
 78
     8
170
     0
171
     2
172
     0
173
     0
174
     0
175
     0
176
   256
177
   256
178
    40
  0
DIMSTYLE
  2
TECHNICAL_OSAKA$4
 70
     0
  3

  4
"
  5
OPEN30
  6

  7

 40
1.0
 41
2.5
 42
1.0
 43
10.0
 44
1.0
 45
0.0
 46
0.0
 47
0.1
 48
0.1
140
2.7999999999999989
141
0.0
142
0.0
143
0.0393701
144
1.0
145
0.0
146
0.71
147
1.5
 71
     0
 72
     0
 73
     0
 74
     1
 75
     0
 76
     0
 77
     3
 78
     8
170
     0
171
     2
172
     0
173
     0
174
     0
175
     0
176
   256
177
   256
178
    40
  0
DIMSTYLE
  2
TECHNICAL_OSAKA$6
 70
     0
  3

  4
"
  5
OPEN30
  6

  7

 40
1.0
 41
2.5
 42
1.0
 43
10.0
 44
1.0
 45
0.0
 46
0.0
 47
0.1
 48
0.1
140
2.7999999999999989
141
0.0
142
0.0
143
0.0393701
144
1.0
145
0.0
146
0.71
147
1.5
 71
     0
 72
     0
 73
     0
 74
     0
 75
     0
 76
     0
 77
     0
 78
     8
170
     0
171
     2
172
     1
173
     0
174
     0
175
     0
176
   256
177
   256
178
    40
  0
DIMSTYLE
  2
TECHNICAL_OSAKA$7
 70
     0
  3

  4
"
  5
OPEN30
  6

  7

 40
1.0
 41
2.5
 42
1.0
 43
10.0
 44
1.0
 45
0.0
 46
0.0
 47
0.1
 48
0.1
140
2.7999999999999989
141
0.0
142
0.0
143
0.0393701
144
1.0
145
0.0
146
0.71
147
1.5
 71
     0
 72
     0
 73
     0
 74
     0
 75
     0
 76
     0
 77
     3
 78
     8
170
     0
171
     2
172
     1
173
     0
174
     0
175
     0
176
   256
177
   256
178
    40
  0
DIMSTYLE
  2
TECHNICAL_OSAKA$SF
 70
     0
  3

  4
"
  5
OPEN30
  6
OPEN30
  7
OPEN30
 40
1.0
 41
2.5
 42
1.0
 43
10.0
 44
1.0
 45
0.0
 46
0.0
 47
0.1
 48
0.1
140
3.5
141
0.0
142
0.0
143
0.0393701
144
1.0
145
0.0
146
0.71
147
1.5
 71
     0
 72
     0
 73
     0
 74
     0
 75
     1
 76
     1
 77
     3
 78
     8
170
     0
171
     2
172
     1
173
     0
174
     0
175
     0
176
   256
177
   256
178
    40
  0
DIMSTYLE
  2
TECHNICAL_OSAKA$SH
 70
     0
  3

  4
"
  5
OPEN30
  6
GENAXEH
  7
OPEN30
 40
1.0
 41
2.5
 42
1.0
 43
10.0
 44
1.0
 45
0.0
 46
0.0
 47
0.1
 48
0.1
140
3.5
141
0.0
142
0.0
143
0.0393701
144
2.0
145
0.0
146
0.71
147
1.5
 71
     0
 72
     0
 73
     0
 74
     0
 75
     1
 76
     1
 77
     3
 78
     8
170
     0
171
     2
172
     1
173
     1
174
     0
175
     0
176
   256
177
   256
178
    40
  0
DIMSTYLE
  2
AM_ANSI
 70
     0
  3

  4
mm
  5

  6

  7

 40
1.0
 41
0.1
 42
0.05
 43
0.5
 44
0.1
 45
0.0
 46
0.0
 47
0.1
 48
0.1
140
0.12
141
0.0
142
0.0
143
25.399999999999999
144
1.0
145
0.0
146
0.71
147
0.06
 71
     0
 72
     0
 73
     1
 74
     1
 75
     0
 76
     0
 77
     0
 78
     7
170
     0
171
     2
172
     0
173
     0
174
     0
175
     0
176
   256
177
   256
178
     2
  0
DIMSTYLE
  2
AM_ANSI$3
 70
     0
  3

  4
mm
  5

  6

  7

 40
1.0
 41
0.1
 42
0.05
 43
0.5
 44
0.1
 45
0.0
 46
0.0
 47
0.1
 48
0.1
140
0.12
141
0.0
142
0.0
143
25.399999999999999
144
1.0
145
0.0
146
0.71
147
0.06
 71
     0
 72
     0
 73
     1
 74
     1
 75
     0
 76
     0
 77
     0
 78
     7
170
     0
171
     2
172
     0
173
     0
174
     0
175
     0
176
   256
177
   256
178
     2
  0
DIMSTYLE
  2
AM_ANSI$4
 70
     0
  3

  4
mm
  5

  6

  7

 40
1.0
 41
0.1
 42
0.05
 43
0.5
 44
0.1
 45
0.0
 46
0.0
 47
0.1
 48
0.1
140
0.12
141
0.0
142
0.0
143
25.399999999999999
144
1.0
145
0.0
146
0.71
147
0.06
 71
     0
 72
     0
 73
     1
 74
     1
 75
     0
 76
     0
 77
     0
 78
     7
170
     0
171
     2
172
     0
173
     0
174
     0
175
     0
176
   256
177
   256
178
     2
  0
DIMSTYLE
  2
AM_ANSI$7
 70
     0
  3

  4
mm
  5

  6

  7

 40
1.0
 41
0.1
 42
0.05
 43
0.5
 44
0.1
 45
0.0
 46
0.0
 47
0.1
 48
0.1
140
0.24
141
0.0
142
0.0
143
25.399999999999999
144
1.0
145
0.0
146
0.71
147
0.06
 71
     0
 72
     0
 73
     1
 74
     1
 75
     0
 76
     0
 77
     0
 78
     7
170
     0
171
     2
172
     0
173
     0
174
     0
175
     0
176
   256
177
   256
178
     2
  0
DIMSTYLE
  2
AM_ANSI$SF
 70
     0
  3

  4
mm
  5

  6

  7

 40
1.0
 41
0.1
 42
0.05
 43
0.5
 44
0.1
 45
0.0
 46
0.0
 47
0.1
 48
0.1
140
0.12
141
0.0
142
0.0
143
25.399999999999999
144
1.0
145
0.0
146
0.71
147
0.06
 71
     0
 72
     0
 73
     1
 74
     1
 75
     1
 76
     1
 77
     0
 78
     7
170
     0
171
     2
172
     0
173
     0
174
     0
175
     0
176
   256
177
   256
178
     2
  0
DIMSTYLE
  2
AM_ANSI$SH
 70
     0
  3

  4
mm
  5

  6
GENAXEH
  7

 40
1.0
 41
0.1
 42
0.05
 43
0.5
 44
0.1
 45
0.0
 46
0.0
 47
0.1
 48
0.1
140
0.12
141
0.0
142
0.0
143
25.399999999999999
144
1.0
145
0.0
146
0.71
147
0.06
 71
     0
 72
     0
 73
     1
 74
     1
 75
     1
 76
     1
 77
     0
 78
     7
170
     0
171
     2
172
     0
173
     1
174
     0
175
     0
176
   256
177
   256
178
     2
  0
ENDTAB
  0
ENDSEC
  0
SECTION
  2
BLOCKS
  0
BLOCK
  8
0
  2
$MODEL_SPACE
 70
     0
 10
0.0
 20
0.0
 30
0.0
  3
$MODEL_SPACE
  1

  0
ENDBLK
  5
1C
  8
0
  0
BLOCK
 67
     1
  8
0
  2
$PAPER_SPACE
 70
     0
 10
0.0
 20
0.0
 30
0.0
  3
$PAPER_SPACE
  1

  0
ENDBLK
  5
19
 67
     1
  8
0
  0
BLOCK
  8
0
  2
_OPEN
 70
     0
 10
0.0
 20
0.0
 30
0.0
  3
_OPEN
  1

  0
LINE
  5
1AE5
  8
0
  6
BYBLOCK
 62
     0
 10
-1.0
 20
0.1666666666666666
 30
0.0
 11
0.0
 21
0.0
 31
0.0
  0
LINE
  5
1AE6
  8
0
  6
BYBLOCK
 62
     0
 10
-1.0
 20
-0.1666666666666666
 30
0.0
 11
0.0
 21
0.0
 31
0.0
  0
LINE
  5
1AE7
  8
0
  6
BYBLOCK
 62
     0
 10
0.0
 20
0.0
 30
0.0
 11
-1.0
 21
0.0
 31
0.0
  0
ENDBLK
  5
1AE8
  8
0
  0
BLOCK
  8
0
  2
矢印なし
 70
     0
 10
0.0
 20
0.0
 30
0.0
  3
矢印なし
  1

  0
ENDBLK
  5
6E5
  8
0
  0
BLOCK
  8
0
  2
GENAXEH
 70
     0
 10
0.0
 20
0.0
 30
0.0
  3
GENAXEH
  1

  0
LINE
  5
1B10
  8
0
 10
-1.0
 20
0.0
 30
0.0
 11
1.0
 21
0.0
 31
0.0
  0
ENDBLK
  5
1B11
  8
0
  0
BLOCK
  8
0
  2
_OPEN30
 70
     0
 10
0.0
 20
0.0
 30
0.0
  3
_OPEN30
  1

  0
LINE
  5
1B35
  8
0
  6
BYBLOCK
 62
     0
 10
-1.0
 20
0.26794919
 30
0.0
 11
0.0
 21
0.0
 31
0.0
  0
LINE
  5
1B36
  8
0
  6
BYBLOCK
 62
     0
 10
0.0
 20
0.0
 30
0.0
 11
-1.0
 21
-0.26794919
 31
0.0
  0
LINE
  5
1B37
  8
0
  6
BYBLOCK
 62
     0
 10
0.0
 20
0.0
 30
0.0
 11
-1.0
 21
0.0
 31
0.0
  0
ENDBLK
  5
1B38
  8
0
  0
BLOCK
  8
0
  2
*U11
 70
     1
 10
0.0
 20
0.0
 30
0.0
  3
*U11
  1

  0
TEXT
  5
1EC6
  8
250
 62
    40
 10
48.333333333333329
 20
29.0
 30
0.0
 40
2.7999999999999989
  1
28
  0
ENDBLK
  5
1EC8
  8
0
  0
BLOCK
  8
0
  2
*U12
 70
     1
 10
0.0
 20
0.0
 30
0.0
  3
*U12
  1

  0
TEXT
  5
1ECA
  8
250
 62
    40
 10
29.766666666666669
 20
36.0
 30
0.0
 40
2.7999999999999989
  1
65
  0
ENDBLK
  5
1ECC
  8
0
  0
BLOCK
  8
0
  2
*U13
 70
     1
 10
0.0
 20
0.0
 30
0.0
  3
*U13
  1

  0
TEXT
  5
1ECE
  8
250
 62
    40
 10
76.0
 20
-3.7999999999999989
 30
0.0
 40
2.7999999999999989
  1
\U+2205
 50
90.0
  0
TEXT
  5
1ECF
  8
250
 62
    40
 10
76.0
 20
-1.2666666666666671
 30
0.0
 40
2.7999999999999989
  1
20
 50
90.0
  0
ENDBLK
  5
1ED1
  8
0
  0
BLOCK
  8
0
  2
*U14
 70
     1
 10
0.0
 20
0.0
 30
0.0
  3
*U14
  1

  0
TEXT
  5
1ED3
  8
250
 62
    40
 10
59.666666666666671
 20
22.0
 30
0.0
 40
2.7999999999999989
  1
8
  0
ENDBLK
  5
1ED5
  8
0
  0
ENDSEC
  0
SECTION
  2
ENTITIES
  0
INSERT
  5
6E6
  8
245
  2
矢印なし
 10
175.62382697000001
 20
90.551235719999994
 30
0.0
  0
TEXT
  5
CB0
  8
241
 10
-48.399999999999991
 20
49.0
 30
0.0
 40
5.0
  1
BBT30-FCR20083-65
  7
YOKO
 11
-48.399999999999991
 21
49.0
 31
0.0
 73
     1
  0
LINE
  5
1862
  8
250
 10
-27.508737409999998
 20
-21.238842340000001
 30
0.0
 11
-45.242070740000003
 21
-21.238842340000001
 31
0.0
1001
ITEMNAME
1000
LNSP2
  0
ARC
  5
1B56
  8
240
 10
40.177487130000003
 20
24.25
 30
0.0
 40
15.0
 50
236.0592058
 51
270.0
  0
ARC
  5
1B57
  8
240
 10
40.17748713999999
 20
-24.25
 30
0.0
 40
15.0
 50
90.0
 51
123.94079404999999
  0
LINE
  5
1B58
  8
245
  6
CENTER2
 10
-49.399999999999999
 20
0.0
 30
0.0
 11
66.0
 21
0.0
 31
0.0
1001
GRPNAME
1000
PASTMD03
  0
LINE
  5
1B59
  8
240
  6
CONTINUOUS
 10
-47.544310230000001
 20
8.9412910399999994
 30
0.0
 11
0.0
 21
15.875
 31
0.0
  0
LINE
  5
1B5A
  8
240
  6
CONTINUOUS
 10
-47.544310230000001
 20
-8.9412910399999994
 30
0.0
 11
0.0
 21
-15.875
 31
0.0
  0
LINE
  5
1B5B
  8
240
  6
CONTINUOUS
 10
-48.399999999999991
 20
-7.9517585400000002
 30
0.0
 11
-48.399999999999991
 21
0.0
 31
0.0
  0
ARC
  5
1B5C
  8
240
  6
CONTINUOUS
 10
-47.399999999999999
 20
-7.9517585400000002
 30
0.0
 40
1.0
 50
180.0
 51
261.70266184000002
  0
LINE
  5
1B5D
  8
240
  6
CONTINUOUS
 10
-48.399999999999991
 20
7.9517585400000002
 30
0.0
 11
-48.399999999999991
 21
0.0
 31
0.0
  0
ARC
  5
1B5E
  8
240
  6
CONTINUOUS
 10
-47.399999999999999
 20
7.9517585400000002
 30
0.0
 40
1.0
 50
98.297338159999995
 51
180.0
  0
LINE
  5
1B5F
  8
241
  6
CONTINUOUS
 10
27.051100229999999
 20
-15.003461679999999
 30
0.0
 11
27.051100229999999
 21
0.0
 31
0.0
1001
GRPNAME
1000
PASTMD01
  0
LINE
  5
1B60
  8
241
  6
CONTINUOUS
 10
26.05556228
 20
-15.6734648
 30
0.0
 11
26.05556228
 21
0.0
 31
0.0
1001
GRPNAME
1000
PASTMD01
  0
LINE
  5
1B61
  8
241
  6
CONTINUOUS
 10
22.0
 20
-20.0
 30
0.0
 11
22.0
 21
0.0
 31
0.0
  0
LINE
  5
1B62
  8
240
 10
31.802448210000001
 20
-11.805775519999999
 30
0.0
 11
23.324992200000001
 21
-17.511155089999999
 31
0.0
  0
LINE
  5
1B63
  8
241
 10
0.0
 20
-15.875
 30
0.0
 11
0.0
 21
0.0
 31
0.0
  0
LINE
  5
1B64
  8
241
 10
1.0
 20
0.0
 30
0.0
 11
1.0
 21
-15.875
 31
0.0
  0
LINE
  5
1B65
  8
245
  6
CENTER2
 10
13.6
 20
-23.0
 30
0.0
 11
13.6
 21
23.0
 31
0.0
  0
LINE
  5
1B66
  8
241
  6
CONTINUOUS
 10
15.290598920000001
 20
-19.0
 30
0.0
 11
15.290598920000001
 21
0.04377196
 31
0.0
  0
LINE
  5
1B67
  8
241
  6
CONTINUOUS
 10
17.600000000000001
 20
0.0
 30
0.0
 11
17.600000000000001
 21
-23.0
 31
0.0
  0
LINE
  5
1B68
  8
241
  6
CONTINUOUS
 10
11.90940108
 20
-19.0
 30
0.0
 11
11.90940108
 21
0.04377196
 31
0.0
  0
LINE
  5
1B69
  8
241
  6
CONTINUOUS
 10
9.5999999999999996
 20
-23.0
 30
0.0
 11
9.5999999999999996
 21
0.0
 31
0.0
  0
LINE
  5
1B6A
  8
243
  6
HIDDEN2
 10
19.0
 20
-16.300000000000001
 30
0.0
 11
1.0
 21
-16.300000000000001
 31
0.0
  0
LINE
  5
1B6B
  8
240
  6
CONTINUOUS
 10
9.5999999999999996
 20
-23.0
 30
0.0
 11
1.0
 21
-23.0
 31
0.0
  0
LINE
  5
1B6C
  8
240
  6
CONTINUOUS
 10
1.0
 20
-15.875
 30
0.0
 11
1.0
 21
-23.0
 31
0.0
  0
LINE
  5
1B6D
  8
240
 10
0.0
 20
-15.875
 30
0.0
 11
1.0
 21
-15.875
 31
0.0
  0
LINE
  5
1B6E
  8
240
  6
CONTINUOUS
 10
17.600000000000001
 20
-23.0
 30
0.0
 11
22.0
 21
-23.0
 31
0.0
  0
LINE
  5
1B6F
  8
240
  6
CONTINUOUS
 10
11.90940108
 20
-19.0
 30
0.0
 11
9.5999999999999996
 21
-23.0
 31
0.0
  0
LINE
  5
1B70
  8
240
  6
CONTINUOUS
 10
15.290598920000001
 20
-19.0
 30
0.0
 11
17.600000000000001
 21
-23.0
 31
0.0
  0
LINE
  5
1B71
  8
243
  6
HIDDEN2
 10
19.0
 20
-16.300000000000001
 30
0.0
 11
19.0
 21
-23.0
 31
0.0
  0
LINE
  5
1B72
  8
240
  6
CONTINUOUS
 10
11.90940108
 20
-19.0
 30
0.0
 11
15.290598920000001
 21
-19.0
 31
0.0
  0
ARC
  5
1B73
  8
240
  6
CONTINUOUS
 10
25.0
 20
-20.0
 30
0.0
 40
2.9999999999999769
 50
123.9407942
 51
179.99999998999999
1001
GRPNAME
1000
PASTMD0D
  0
LINE
  5
1B74
  8
240
  6
CONTINUOUS
 10
22.0
 20
-23.0
 30
0.0
 11
22.0
 21
-20.0
 31
0.0
  0
LINE
  5
1B75
  8
240
  6
CONTINUOUS
 10
9.5999999999999996
 20
23.0
 30
0.0
 11
1.0
 21
23.0
 31
0.0
  0
LINE
  5
1B76
  8
241
  6
HIDDEN2
 10
19.0
 20
16.300000000000001
 30
0.0
 11
1.0
 21
16.300000000000001
 31
0.0
  0
LINE
  5
1B77
  8
241
 10
0.0
 20
15.875
 30
0.0
 11
0.0
 21
0.0
 31
0.0
  0
LINE
  5
1B78
  8
241
 10
1.0
 20
0.0
 30
0.0
 11
1.0
 21
15.875
 31
0.0
  0
LINE
  5
1B79
  8
240
  6
CONTINUOUS
 10
1.0
 20
15.875
 30
0.0
 11
1.0
 21
23.0
 31
0.0
  0
LINE
  5
1B7A
  8
240
 10
0.0
 20
15.875
 30
0.0
 11
1.0
 21
15.875
 31
0.0
  0
LINE
  5
1B7B
  8
240
 10
31.802448210000001
 20
11.805775519999999
 30
0.0
 11
23.324992200000001
 21
17.511155089999999
 31
0.0
  0
LINE
  5
1B7C
  8
241
  6
CONTINUOUS
 10
22.0
 20
0.0
 30
0.0
 11
22.0
 21
20.0
 31
0.0
  0
LINE
  5
1B7D
  8
241
  6
CONTINUOUS
 10
11.90940108
 20
19.0
 30
0.0
 11
11.90940108
 21
-0.04377196
 31
0.0
  0
LINE
  5
1B7E
  8
241
  6
CONTINUOUS
 10
15.290598920000001
 20
19.0
 30
0.0
 11
15.290598920000001
 21
-0.04377196
 31
0.0
  0
LINE
  5
1B7F
  8
241
  6
CONTINUOUS
 10
17.600000000000001
 20
0.0
 30
0.0
 11
17.600000000000001
 21
23.0
 31
0.0
  0
LINE
  5
1B80
  8
241
  6
CONTINUOUS
 10
9.5999999999999996
 20
23.0
 30
0.0
 11
9.5999999999999996
 21
0.0
 31
0.0
  0
LINE
  5
1B81
  8
241
  6
CONTINUOUS
 10
26.05556228
 20
15.6734648
 30
0.0
 11
26.05556228
 21
0.0
 31
0.0
1001
GRPNAME
1000
PASTMD01
  0
LINE
  5
1B82
  8
241
  6
CONTINUOUS
 10
27.051100229999999
 20
15.003461679999999
 30
0.0
 11
27.051100229999999
 21
0.0
 31
0.0
1001
GRPNAME
1000
PASTMD01
  0
LINE
  5
1B83
  8
241
  6
CONTINUOUS
 10
30.05556228
 20
12.9814404
 30
0.0
 11
30.05556228
 21
0.0
 31
0.0
1001
GRPNAME
1000
PASTMD01
  0
LINE
  5
1B84
  8
241
  6
CONTINUOUS
 10
31.051100229999999
 20
12.311437290000001
 30
0.0
 11
31.051100229999999
 21
0.0
 31
0.0
1001
GRPNAME
1000
PASTMD01
  0
LINE
  5
1B85
  8
241
 10
35.600000000000001
 20
-9.25
 30
0.0
 11
35.600000000000001
 21
0.0
 31
0.0
  0
LINE
  5
1B86
  8
241
  6
CONTINUOUS
 10
31.051100229999999
 20
-12.311437290000001
 30
0.0
 11
31.051100229999999
 21
0.0
 31
0.0
1001
GRPNAME
1000
PASTMD01
  0
LINE
  5
1B87
  8
241
  6
CONTINUOUS
 10
30.05556228
 20
-12.9814404
 30
0.0
 11
30.05556228
 21
0.0
 31
0.0
1001
GRPNAME
1000
PASTMD01
  0
LINE
  5
1B88
  8
241
 10
35.600000000000001
 20
9.25
 30
0.0
 11
35.600000000000001
 21
0.0
 31
0.0
  0
LINE
  5
1B89
  8
240
  6
CONTINUOUS
 10
17.600000000000001
 20
23.0
 30
0.0
 11
22.0
 21
23.0
 31
0.0
  0
LINE
  5
1B8A
  8
240
  6
CONTINUOUS
 10
11.90940108
 20
19.0
 30
0.0
 11
9.5999999999999996
 21
23.0
 31
0.0
  0
LINE
  5
1B8B
  8
241
  6
HIDDEN2
 10
19.0
 20
16.300000000000001
 30
0.0
 11
19.0
 21
23.0
 31
0.0
  0
LINE
  5
1B8C
  8
240
  6
CONTINUOUS
 10
15.290598920000001
 20
19.0
 30
0.0
 11
17.600000000000001
 21
23.0
 31
0.0
  0
LINE
  5
1B8D
  8
240
  6
CONTINUOUS
 10
11.90940108
 20
19.0
 30
0.0
 11
15.290598920000001
 21
19.0
 31
0.0
  0
ARC
  5
1B8E
  8
240
  6
CONTINUOUS
 10
25.0
 20
20.0
 30
0.0
 40
2.9999999999999769
 50
180.00000001000001
 51
236.0592058
1001
GRPNAME
1000
PASTMD0D
  0
LINE
  5
1B8F
  8
240
  6
CONTINUOUS
 10
22.0
 20
23.0
 30
0.0
 11
22.0
 21
20.0
 31
0.0
  0
LINE
  5
1B96
  8
240
 10
53.678677099584391
 20
-9.25
 30
0.0
 11
40.17748713999999
 21
-9.25
 31
0.0
  0
LINE
  5
1B98
  8
240
 10
53.667480947161671
 20
9.25
 30
0.0
 11
40.177487130000003
 21
9.25
 31
0.0
  0
LINE
  5
1D03
  8
241
 10
55.067000000014097
 20
-1.964488926102461
 30
0.0
 11
64.249999999999929
 21
-3.5836995899453878
 31
0.0
  0
LINE
  5
1D04
  8
240
 10
64.190776880507684
 20
-7.904520188577087
 30
0.0
 11
64.999999999999943
 21
-8.1990533169523072
 31
0.0
  0
LINE
  5
1D05
  8
241
 10
64.184140976058416
 20
-3.572086867101353
 30
0.0
 11
64.25
 21
-3.9455919522391252
 31
0.0
  0
ARC
  5
1D06
  8
241
 10
49.378930035431658
 20
-6.7031423204526899
 30
0.0
 40
3.1289300354316638
 50
79.999982399907566
 51
233.61238511531769
  0
LINE
  5
1D07
  8
241
 10
55.719321870806588
 20
-4.8211627241205743
 30
0.0
 11
53.630360007157122
 21
-4.4528223858879041
 31
0.0
  0
LINE
  5
1D08
  8
241
 10
49.92226303413161
 20
-3.6217477629268782
 30
0.0
 11
53.72323316918164
 21
-4.2919613506030938
 31
0.0
  0
LINE
  5
1D09
  8
241
 10
53.630360007157122
 20
-4.4528223858879041
 30
0.0
 11
55.067000000014097
 21
-1.964488926102461
 31
0.0
  0
LINE
  5
1D0A
  8
240
 10
64.25
 20
-3.9455919522391358
 30
0.0
 11
64.25
 21
-0.217832974319391
 31
0.0
  0
LINE
  5
1D0B
  8
241
 10
62.826407726704232
 20
3.2179162020602852
 30
0.0
 11
47.328534113835723
 21
7.7552555426302714
 31
0.0
  0
ARC
  5
1D0C
  8
240
 10
62.404941840539891
 20
1.7783445620229701
 30
0.0
 40
1.5
 50
2.9999999999999321
 51
55.59187257624415
  0
ARC
  5
1D0D
  8
241
 10
47.75
 20
9.1948271826675985
 30
0.0
 40
1.5
 50
180.0
 51
253.68146086302619
  0
LINE
  5
1D0F
  8
240
 10
53.667480947161671
 20
9.25
 30
0.0
 11
54.789910090833757
 21
9.5507539826079615
 31
0.0
  0
LINE
  5
1D13
  8
240
 10
53.678677099584391
 20
-9.25
 30
0.0
 11
54.993908797832049
 21
-9.6024152714051247
 31
0.0
  0
ARC
  5
1D14
  8
240
 10
55.123318320383262
 20
-9.1194523582607072
 30
0.0
 40
0.5
 50
255.00000000000051
 51
272.21158143135841
  0
LINE
  5
1D15
  8
240
 10
63.670217821756722
 20
-9.2897561251665675
 30
0.0
 11
55.142613217093981
 21
-9.6190799265162106
 31
0.0
  0
ARC
  5
1D16
  8
240
 10
63.650922925045982
 20
-8.7901285569110321
 30
0.0
 40
0.5
 50
272.21158143135841
 51
357.45519562019069
  0
LINE
  5
1D17
  8
240
 10
64.190776880507684
 20
-7.904520188577087
 30
0.0
 11
64.150429828279101
 21
-8.8123288637213832
 31
0.0
  0
LINE
  5
1D18
  8
245
 10
56.63105437400192
 20
6.6229999999999949
 30
0.0
 11
61.914536641566343
 21
6.6229999999999949
 31
0.0
  0
LINE
  5
1D19
  8
245
 10
59.234000000000023
 20
4.4386324982679417
 30
0.0
 11
59.234000000000002
 21
8.8248088712009771
 31
0.0
  0
LINE
  5
1D1A
  8
240
 10
54.984316202435053
 20
10.000000000000011
 30
0.0
 11
64.999999999999943
 21
10.0
 31
0.0
1001
GRPNAME
1000
PASTMD03
  0
LINE
  5
1D1B
  8
241
 10
61.862913766792751
 20
3.5000000000000191
 30
0.0
 11
63.252567901051897
 21
3.5000000000000169
 31
0.0
1001
GRPNAME
1000
PASTMD03
  0
LINE
  5
1D1C
  8
240
 10
64.999999999999957
 20
6.7500000000000071
 30
0.0
 11
65.0
 21
10.000000000000011
 31
0.0
1001
GRPNAME
1000
PASTMD03
  0
LINE
  5
1D1D
  8
240
 10
64.999999999999957
 20
6.7500000000000071
 30
0.0
 11
63.593599412695802
 21
3.5000000000000169
 31
0.0
  0
LINE
  5
1D1E
  8
241
 10
53.468000000000053
 20
6.4959999999999889
 30
0.0
 11
53.468000000000053
 21
5.9577934654940767
 31
0.0
1001
GRPNAME
1000
PASTMD03
  0
LINE
  5
1D1F
  8
241
 10
53.468000000000053
 20
6.4959999999999889
 30
0.0
 11
54.789910090833757
 21
9.5507539826079615
 31
0.0
  0
LINE
  5
1D20
  8
240
 10
63.252567901051897
 20
3.5000000000000169
 30
0.0
 11
63.252567901051897
 21
3.0158945858769362
 31
0.0
  0
LINE
  5
1D21
  8
240
 10
64.25
 20
-0.217832974319391
 30
0.0
 11
63.902886142671811
 21
1.856848496387361
 31
0.0
  0
LINE
  5
1D22
  8
242
 10
55.503281753615582
 20
9.9070737658590478
 30
0.0
 11
63.26555468175863
 21
8.5171572483835156
 31
0.0
  0
LINE
  5
1D23
  8
242
 10
64.081594796534063
 20
7.4089336604599492
 30
0.0
 11
63.658911081036308
 21
4.0231585938148529
 31
0.0
  0
LINE
  5
1D24
  8
242
 10
63.074633861515252
 20
3.5929262341409731
 30
0.0
 11
59.137611694056702
 21
4.2978914152000067
 31
0.0
  0
LINE
  5
1D25
  8
242
 10
54.44400980223346
 20
5.6720453826875188
 30
0.0
 11
54.919004534094562
 21
9.4768414061851658
 31
0.0
  0
LINE
  5
1D26
  8
241
 10
64.190776880507684
 20
-7.904520188577087
 30
0.0
 11
55.719321870806588
 21
-4.8211627241205743
 31
0.0
  0
LINE
  5
1D27
  8
240
 10
64.25
 20
-3.9455919522391358
 30
0.0
 11
64.999999999999943
 21
-8.1990533169523072
 31
0.0
  0
ARC
  5
1D28
  8
241
 10
62.404941840539891
 20
1.7783445620229701
 30
0.0
 40
1.5
 50
55.59187257624415
 51
73.681460863025364
  0
LINE
  5
1D29
  8
240
 10
63.252567901051897
 20
3.5000000000000169
 30
0.0
 11
63.593599412695802
 21
3.500000000000016
 31
0.0
  0
LINE
  5
1D2A
  8
240
 10
54.789910090833757
 20
9.5507539826079615
 30
0.0
 11
54.984316202435053
 21
10.000000000000011
 31
0.0
  0
CIRCLE
  5
1D2B
  8
241
 10
59.234000000000023
 20
6.6229999999999949
 30
0.0
 40
1.8999999999999999
  0
ARC
  5
1D2C
  8
242
 10
63.089297519625319
 20
7.5328130947478531
 30
0.0
 40
1.0
 50
352.88395086182572
 51
79.848174525525863
1001
GENIUS_GENOBJ-N-FIL_13
1002
{
1000
OWNER
1000
GEN
1002
}
1001
GENIUS_GENODEF_13
1002
{
1000
HIER
1070
     0
1002
}
1002
{
1000
MANEDIT
1070
     0
1002
}
1002
{
1000
NOSEL
1070
     0
1002
}
1002
{
1000
BEHIND
1070
     0
1002
}
1002
{
1000
OTHER
1070
     0
1002
}
1002
{
1000
REACTOR
1002
}
  0
ARC
  5
1D2D
  8
242
 10
55.415153172548919
 20
9.4149016890412156
 30
0.0
 40
0.5
 50
79.848174525525863
 51
172.88395086182561
1001
GENIUS_GENOBJ-N-FIL_13
1002
{
1000
OWNER
1000
GEN
1002
}
1001
GENIUS_GENODEF_13
1002
{
1000
HIER
1070
     0
1002
}
1002
{
1000
MANEDIT
1070
     0
1002
}
1002
{
1000
NOSEL
1070
     0
1002
}
1002
{
1000
BEHIND
1070
     0
1002
}
1002
{
1000
OTHER
1070
     0
1002
}
1002
{
1000
REACTOR
1002
}
  0
ARC
  5
1D2E
  8
242
 10
63.162762442581922
 20
4.0850983109588048
 30
0.0
 40
0.5
 50
259.84817452552579
 51
352.88395086182572
1001
GENIUS_GENOBJ-N-FIL_13
1002
{
1000
OWNER
1000
GEN
1002
}
1001
GENIUS_GENODEF_13
1002
{
1000
HIER
1070
     0
1002
}
1002
{
1000
MANEDIT
1070
     0
1002
}
1002
{
1000
NOSEL
1070
     0
1002
}
1002
{
1000
BEHIND
1070
     0
1002
}
1002
{
1000
OTHER
1070
     0
1002
}
1002
{
1000
REACTOR
1002
}
  0
TEXT
  5
1E6B
  8
250
 10
-42.975404073333323
 20
-20.238842340000001
 30
0.0
 40
2.7999999999999989
  1
BBT30
  7
YOKO
1001
ITEMNAME
1000
LNSP3
1001
ACAD
1000
MTEXTBEGIN
1070
    73
1070
     1
1070
    44
1040
1.0
1070
    74
1070
     0
1000
MTEXTEND
1000
MTEXTBEGIN
1070
    73
1070
     1
1070
    44
1040
1.0
1070
    74
1070
     0
1000
MTEXTEND
1000
MTEXTBEGIN
1070
    73
1070
     1
1070
    44
1040
1.0
1070
    74
1070
     0
1000
MTEXTEND
  0
LINE
  5
1E6C
  8
250
 10
0.0
 20
16.375
 30
0.0
 11
0.0
 21
36.0
 31
0.0
  0
LINE
  5
1E6D
  8
250
 10
65.0
 20
10.5
 30
0.0
 11
65.0
 21
36.0
 31
0.0
  0
LINE
  5
1E6E
  8
250
 10
2.2299999999999991
 20
35.0
 30
0.0
 11
62.77000000000001
 21
35.0
 31
0.0
  0
LINE
  5
1E72
  8
250
 10
37.0
 20
10.09041012
 30
0.0
 11
37.0
 21
29.0
 31
0.0
  0
LINE
  5
1E73
  8
250
 10
65.0
 20
10.5
 30
0.0
 11
65.0
 21
29.0
 31
0.0
  0
LINE
  5
1E74
  8
250
 10
39.229999999999997
 20
28.0
 30
0.0
 11
62.77000000000001
 21
28.0
 31
0.0
  0
LINE
  5
1E78
  8
250
 10
57.0
 20
10.5
 30
0.0
 11
57.0
 21
22.0
 31
0.0
  0
LINE
  5
1E79
  8
250
 10
65.0
 20
10.5
 30
0.0
 11
65.0
 21
22.0
 31
0.0
  0
LINE
  5
1E7A
  8
250
 10
59.229999999999997
 20
21.0
 30
0.0
 11
62.77000000000001
 21
21.0
 31
0.0
  0
LINE
  5
1E7F
  8
250
 10
65.5
 20
10.0
 30
0.0
 11
78.0
 21
10.0
 31
0.0
  0
LINE
  5
1E80
  8
250
 10
77.0
 20
-7.7699999999999987
 30
0.0
 11
77.0
 21
7.7699999999999987
 31
0.0
  0
LINE
  5
1E84
  8
250
 10
-23.631091409633061
 20
-14.522562450651151
 30
0.0
 11
-27.508737409999998
 21
-21.238842340000001
 31
0.0
1001
ACAD
1000
DSTYLE
1002
{
1070
     6
1000
OPEN
1070
   343
1005
594
1002
}
  0
LINE
  5
1E85
  8
250
 10
-23.952964184741582
 20
-14.336729117378971
 30
0.0
 11
-22.516091410000001
 21
-12.5913258
 31
0.0
  0
LINE
  5
1E86
  8
250
 10
-23.309218634524541
 20
-14.708395783923329
 30
0.0
 11
-22.516091410000001
 21
-12.5913258
 31
0.0
  0
LINE
  5
1E87
  8
250
 10
-22.516091410000001
 20
-12.5913258
 30
0.0
 11
-23.631091409633061
 21
-14.522562450651151
 31
0.0
  0
TEXT
  5
1E88
  8
250
 10
29.766666666666669
 20
36.0
 30
0.0
 40
2.7999999999999989
  1
65
1001
ACAD
1000
MTEXTBEGIN
1070
    73
1070
     1
1070
    44
1040
1.0
1070
    74
1070
     0
1000
MTEXTEND
1000
MTEXTBEGIN
1070
    73
1070
     1
1070
    44
1040
1.0
1070
    74
1070
     0
1000
MTEXTEND
1000
MTEXTBEGIN
1070
    73
1070
     1
1070
    44
1040
1.0
1070
    74
1070
     0
1000
MTEXTEND
  0
LINE
  5
1E89
  8
250
 10
62.77000000000001
 20
35.37166666666667
 30
0.0
 11
65.0
 21
35.0
 31
0.0
  0
LINE
  5
1E8A
  8
250
 10
62.77000000000001
 20
34.62833333333333
 30
0.0
 11
65.0
 21
35.0
 31
0.0
  0
LINE
  5
1E8B
  8
250
 10
65.0
 20
35.0
 30
0.0
 11
62.77000000000001
 21
35.0
 31
0.0
  0
LINE
  5
1E8C
  8
250
 10
2.2299999999999991
 20
34.62833333333333
 30
0.0
 11
0.0
 21
35.0
 31
0.0
  0
LINE
  5
1E8D
  8
250
 10
2.2299999999999991
 20
35.37166666666667
 30
0.0
 11
0.0
 21
35.0
 31
0.0
  0
LINE
  5
1E8E
  8
250
 10
0.0
 20
35.0
 30
0.0
 11
2.2299999999999991
 21
35.0
 31
0.0
  0
TEXT
  5
1E8F
  8
250
 10
48.333333333333329
 20
29.0
 30
0.0
 40
2.7999999999999989
  1
28
1001
ACAD
1000
MTEXTBEGIN
1070
    73
1070
     1
1070
    44
1040
1.0
1070
    74
1070
     0
1000
MTEXTEND
1000
MTEXTBEGIN
1070
    73
1070
     1
1070
    44
1040
1.0
1070
    74
1070
     0
1000
MTEXTEND
1000
MTEXTBEGIN
1070
    73
1070
     1
1070
    44
1040
1.0
1070
    74
1070
     0
1000
MTEXTEND
  0
LINE
  5
1E90
  8
250
 10
62.77000000000001
 20
28.371666666666659
 30
0.0
 11
65.0
 21
28.0
 31
0.0
  0
LINE
  5
1E91
  8
250
 10
62.77000000000001
 20
27.62833333333333
 30
0.0
 11
65.0
 21
28.0
 31
0.0
  0
LINE
  5
1E92
  8
250
 10
65.0
 20
28.0
 30
0.0
 11
62.77000000000001
 21
28.0
 31
0.0
  0
LINE
  5
1E93
  8
250
 10
39.229999999999997
 20
27.62833333333333
 30
0.0
 11
37.0
 21
28.0
 31
0.0
  0
LINE
  5
1E94
  8
250
 10
39.229999999999997
 20
28.371666666666659
 30
0.0
 11
37.0
 21
28.0
 31
0.0
  0
LINE
  5
1E95
  8
250
 10
37.0
 20
28.0
 30
0.0
 11
39.229999999999997
 21
28.0
 31
0.0
  0
TEXT
  5
1E96
  8
250
 10
59.666666666666671
 20
22.0
 30
0.0
 40
2.7999999999999989
  1
8
1001
ACAD
1000
MTEXTBEGIN
1070
    73
1070
     1
1070
    44
1040
1.0
1070
    74
1070
     0
1000
MTEXTEND
1000
MTEXTBEGIN
1070
    73
1070
     1
1070
    44
1040
1.0
1070
    74
1070
     0
1000
MTEXTEND
1000
MTEXTBEGIN
1070
    73
1070
     1
1070
    44
1040
1.0
1070
    74
1070
     0
1000
MTEXTEND
  0
LINE
  5
1E97
  8
250
 10
62.77000000000001
 20
21.37166666666667
 30
0.0
 11
65.0
 21
21.0
 31
0.0
  0
LINE
  5
1E98
  8
250
 10
62.77000000000001
 20
20.62833333333333
 30
0.0
 11
65.0
 21
21.0
 31
0.0
  0
LINE
  5
1E99
  8
250
 10
65.0
 20
21.0
 30
0.0
 11
62.77000000000001
 21
21.0
 31
0.0
  0
LINE
  5
1E9A
  8
250
 10
59.229999999999997
 20
20.62833333333333
 30
0.0
 11
57.0
 21
21.0
 31
0.0
  0
LINE
  5
1E9B
  8
250
 10
59.229999999999997
 20
21.37166666666667
 30
0.0
 11
57.0
 21
21.0
 31
0.0
  0
LINE
  5
1E9C
  8
250
 10
57.0
 20
21.0
 30
0.0
 11
59.229999999999997
 21
21.0
 31
0.0
  0
TEXT
  5
1E9D
  8
250
 10
76.0
 20
-3.7999999999999989
 30
0.0
 40
2.7999999999999989
  1
\U+2205
 50
90.0
1001
ACAD
1000
MTEXTBEGIN
1070
    73
1070
     1
1070
    44
1040
1.0
1070
    74
1070
     0
1000
MTEXTEND
1000
MTEXTBEGIN
1070
    73
1070
     1
1070
    44
1040
1.0
1070
    74
1070
     0
1000
MTEXTEND
1000
MTEXTBEGIN
1070
    73
1070
     1
1070
    44
1040
1.0
1070
    74
1070
     0
1000
MTEXTEND
  0
TEXT
  5
1E9E
  8
250
 10
76.0
 20
-1.2666666666666671
 30
0.0
 40
2.7999999999999989
  1
20
 50
90.0
1001
ACAD
1000
MTEXTBEGIN
1070
    73
1070
     1
1070
    44
1040
1.0
1070
    74
1070
     0
1000
MTEXTEND
1000
MTEXTBEGIN
1070
    73
1070
     1
1070
    44
1040
1.0
1070
    74
1070
     0
1000
MTEXTEND
1000
MTEXTBEGIN
1070
    73
1070
     1
1070
    44
1040
1.0
1070
    74
1070
     0
1000
MTEXTEND
  0
LINE
  5
1E9F
  8
250
 10
76.62833333333333
 20
7.7699999999999987
 30
0.0
 11
77.0
 21
10.0
 31
0.0
  0
LINE
  5
1EA0
  8
250
 10
77.371666666666655
 20
7.7699999999999987
 30
0.0
 11
77.0
 21
10.0
 31
0.0
  0
LINE
  5
1EA1
  8
250
 10
77.0
 20
10.0
 30
0.0
 11
77.0
 21
7.7699999999999987
 31
0.0
  0
VIEWPORT
  5
22
 67
     1
  8
0
 10
261.51769911999997
 20
148.5
 30
0.0
 40
523.03539823000006
 41
297.0
 68
     1
 69
     1
1001
ACAD
1000
MVIEW
1002
{
1070
    16
1010
0.0
1020
0.0
1030
0.0
1010
0.0
1020
0.0
1030
1.0
1040
0.0
1040
297.0
1040
261.51769911999997
1040
148.5
1040
50.0
1040
0.0
1040
0.0
1070
     0
1070
   100
1070
     1
1070
     1
1070
     0
1070
     0
1070
     0
1070
     0
1040
0.0
1040
0.0
1040
0.0
1040
1.0
1040
1.0
1040
10.0
1040
10.0
1070
     0
1002
{
1002
}
1002
}
1001
GENIUS_GENODEF_13
1002
{
1000
HIER
1070
     0
1002
}
1002
{
1000
MANEDIT
1070
     0
1002
}
1002
{
1000
NOSEL
1070
     0
1002
}
1002
{
1000
BEHIND
1070
     0
1002
}
1002
{
1000
OTHER
1070
     0
1002
}
1002
{
1000
REACTOR
1002
}
1001
GENIUS_GENOBJ-N-SDF_13
1002
{
1000
OWNER
1000
GEN
1002
}
1001
GENIUS_GENSCREG_15
1000
PF
1040
1.0
1000
DF
1040
1.0
1000
MIN
1011
0.0000000049999471
1021
-8.4504541092405891E+202
1031
0.0
1021
0.0
1031
0.0
1000
MAX
1011
523.035398235
1021
-8.4504541092405891E+202
1031
0.0
1021
297.0
1031
0.0
1000
FLAGS
1070
     2
  0
ENDSEC
  0
EOF
