ISO-10303-21;
HEADER;
FILE_DESCRIPTION((''),'1');
FILE_NAME('//Big_tech03/bigt/Translate/21_\X2\8F2A90ED7DDA\X0\-DXF/71_\X2\5207524A5DE55177\X0\/01_\X2\30A830F330C930DF30EB52A05DE5\X0\/01_\X2\30D530EB30AB30C330C830DF30EB\X0\ FCM/BBT/BBT30/BBT30-FCM50115-50.stp','2012-05-30T00:11:46',(''),(''),'Spatial Interop R18','Kubotek KeyCreator V8.5.1 (14335)',' ');
FILE_SCHEMA(('CONFIG_CONTROL_DESIGN'));
ENDSEC;
DATA;
#1=DESIGN_CONTEXT('',#27,'design');
#2=APPLICATION_PROTOCOL_DEFINITION('INTERNATIONAL STANDARD','config_control_design',1994,#27);
#3=PRODUCT_CATEGORY_RELATIONSHIP('NONE','NONE',#28,#29);
#4=DATE_AND_TIME(#30,#31);
#5=DATE_TIME_ROLE('creation_date');
#6=DATE_TIME_ROLE('classification_date');
#7=PERSON_AND_ORGANIZATION_ROLE('creator');
#8=PERSON_AND_ORGANIZATION_ROLE('design_supplier');
#9=PERSON_AND_ORGANIZATION_ROLE('classification_officer');
#10=PERSON_AND_ORGANIZATION_ROLE('design_owner');
#11=APPROVAL_PERSON_ORGANIZATION(#32,#33,#34);
#12=APPROVAL_DATE_TIME(#4,#33);
#13=CC_DESIGN_APPROVAL(#33,(#35,#36,#37));
#14=CC_DESIGN_DATE_AND_TIME_ASSIGNMENT(#4,#5,(#37));
#15=CC_DESIGN_DATE_AND_TIME_ASSIGNMENT(#4,#6,(#35));
#16=CC_DESIGN_PERSON_AND_ORGANIZATION_ASSIGNMENT(#32,#10,(#38));
#17=CC_DESIGN_PERSON_AND_ORGANIZATION_ASSIGNMENT(#32,#7,(#37));
#18=CC_DESIGN_PERSON_AND_ORGANIZATION_ASSIGNMENT(#32,#7,(#36));
#19=CC_DESIGN_PERSON_AND_ORGANIZATION_ASSIGNMENT(#32,#8,(#36));
#20=CC_DESIGN_SECURITY_CLASSIFICATION(#35,(#36));
#21=CC_DESIGN_PERSON_AND_ORGANIZATION_ASSIGNMENT(#32,#9,(#35));
#22=SHAPE_DEFINITION_REPRESENTATION(#39,#40);
#23= (GEOMETRIC_REPRESENTATION_CONTEXT(3)GLOBAL_UNCERTAINTY_ASSIGNED_CONTEXT((#43))GLOBAL_UNIT_ASSIGNED_CONTEXT((#45,#46,#47))REPRESENTATION_CONTEXT('NONE','WORKSPACE'));
#27=APPLICATION_CONTEXT('CONFIGURATION CONTROLLED 3D DESIGNS OF MECHANICAL PARTS AND ASSEMBLIES');
#28=PRODUCT_CATEGORY('part','NONE');
#29=PRODUCT_RELATED_PRODUCT_CATEGORY('detail',' ',(#38));
#30=CALENDAR_DATE(2012,30,4);
#31=LOCAL_TIME(9,11,46.0,#49);
#32=PERSON_AND_ORGANIZATION(#50,#51);
#33=APPROVAL(#52,'SOLID MODEL');
#34=APPROVAL_ROLE('APPROVED');
#35=SECURITY_CLASSIFICATION('','',#53);
#36=PRODUCT_DEFINITION_FORMATION_WITH_SPECIFIED_SOURCE(' ','NONE',#38,.NOT_KNOWN.);
#37=PRODUCT_DEFINITION('NONE','NONE',#36,#1);
#38=PRODUCT('1','1','PART-1-DESC',(#54));
#39=PRODUCT_DEFINITION_SHAPE('NONE','NONE',#37);
#40=ADVANCED_BREP_SHAPE_REPRESENTATION('1',(#55,#56),#23);
#43=UNCERTAINTY_MEASURE_WITH_UNIT(LENGTH_MEASURE(1.0E-006),#45,'','');
#45= (CONVERSION_BASED_UNIT('MILLIMETRE',#59)LENGTH_UNIT()NAMED_UNIT(#62));
#46= (NAMED_UNIT(#64)PLANE_ANGLE_UNIT()SI_UNIT($,.RADIAN.));
#47= (NAMED_UNIT(#64)SOLID_ANGLE_UNIT()SI_UNIT($,.STERADIAN.));
#49=COORDINATED_UNIVERSAL_TIME_OFFSET(9,0,.AHEAD.);
#50=PERSON('','UNSPECIFIED',$,$,$,$);
#51=ORGANIZATION('UNSPECIFIED','UNSPECIFIED','UNSPECIFIED');
#52=APPROVAL_STATUS('approved');
#53=SECURITY_CLASSIFICATION_LEVEL('unclassified');
#54=MECHANICAL_CONTEXT('',#27,'mechanical');
#55=MANIFOLD_SOLID_BREP('1',#70);
#56=AXIS2_PLACEMENT_3D('',#71,#72,#73);
#59=LENGTH_MEASURE_WITH_UNIT(LENGTH_MEASURE(1.0),#74);
#62=DIMENSIONAL_EXPONENTS(1.0,0.0,0.0,0.0,0.0,0.0,0.0);
#64=DIMENSIONAL_EXPONENTS(0.0,0.0,0.0,0.0,0.0,0.0,0.0);
#70=CLOSED_SHELL('',(#75,#76,#77,#78,#79,#80,#81,#82,#83,#84,#85,#86,#87,#88));
#71=CARTESIAN_POINT('',(0.0,0.0,0.0));
#72=DIRECTION('',(0.0,0.0,1.0));
#73=DIRECTION('',(1.0,0.0,0.0));
#74= (NAMED_UNIT(#62)LENGTH_UNIT()SI_UNIT(.MILLI.,.METRE.));
#75=ADVANCED_FACE('',(#90,#91),#92,.T.);
#76=ADVANCED_FACE('',(#93,#94),#95,.T.);
#77=ADVANCED_FACE('',(#96,#97),#98,.T.);
#78=ADVANCED_FACE('',(#99,#100),#101,.T.);
#79=ADVANCED_FACE('',(#102,#103),#104,.T.);
#80=ADVANCED_FACE('',(#105,#106),#107,.T.);
#81=ADVANCED_FACE('',(#108,#109),#110,.T.);
#82=ADVANCED_FACE('',(#111,#112),#113,.T.);
#83=ADVANCED_FACE('',(#114,#115),#116,.T.);
#84=ADVANCED_FACE('',(#117,#118),#119,.T.);
#85=ADVANCED_FACE('',(#120),#121,.T.);
#86=ADVANCED_FACE('',(#122,#123),#124,.T.);
#87=ADVANCED_FACE('',(#125),#126,.T.);
#88=ADVANCED_FACE('',(#127,#128),#129,.T.);
#90=FACE_OUTER_BOUND('',#130,.T.);
#91=FACE_BOUND('',#131,.T.);
#92=PLANE('',#132);
#93=FACE_BOUND('',#133,.T.);
#94=FACE_BOUND('',#134,.T.);
#95=CYLINDRICAL_SURFACE('',#135,23.0);
#96=FACE_BOUND('',#136,.T.);
#97=FACE_BOUND('',#137,.T.);
#98=CONICAL_SURFACE('',#138,21.0,1.04719755058882);
#99=FACE_BOUND('',#139,.T.);
#100=FACE_BOUND('',#140,.T.);
#101=CYLINDRICAL_SURFACE('',#141,19.0);
#102=FACE_BOUND('',#142,.T.);
#103=FACE_BOUND('',#143,.T.);
#104=CONICAL_SURFACE('',#144,21.0,1.04719755058882);
#105=FACE_BOUND('',#145,.T.);
#106=FACE_BOUND('',#146,.T.);
#107=CYLINDRICAL_SURFACE('',#147,23.0);
#108=FACE_BOUND('',#148,.T.);
#109=FACE_BOUND('',#149,.T.);
#110=CONICAL_SURFACE('',#150,23.7,0.785398163397448);
#111=FACE_BOUND('',#151,.T.);
#112=FACE_BOUND('',#152,.T.);
#113=CYLINDRICAL_SURFACE('',#153,24.4);
#114=FACE_BOUND('',#154,.T.);
#115=FACE_BOUND('',#155,.T.);
#116=CONICAL_SURFACE('',#156,24.7,0.349471099112727);
#117=FACE_BOUND('',#157,.T.);
#118=FACE_BOUND('',#158,.T.);
#119=CYLINDRICAL_SURFACE('',#159,25.0);
#120=FACE_OUTER_BOUND('',#160,.T.);
#121=PLANE('',#161);
#122=FACE_BOUND('',#162,.T.);
#123=FACE_BOUND('',#163,.T.);
#124=CYLINDRICAL_SURFACE('',#164,15.875);
#125=FACE_OUTER_BOUND('',#165,.T.);
#126=PLANE('',#166);
#127=FACE_BOUND('',#167,.T.);
#128=FACE_BOUND('',#168,.T.);
#129=CONICAL_SURFACE('',#169,12.3457500009933,0.14481587001362);
#130=EDGE_LOOP('',(#170));
#131=EDGE_LOOP('',(#171));
#132=AXIS2_PLACEMENT_3D('',#172,#173,#174);
#133=EDGE_LOOP('',(#175));
#134=EDGE_LOOP('',(#176));
#135=AXIS2_PLACEMENT_3D('',#177,#178,#179);
#136=EDGE_LOOP('',(#180));
#137=EDGE_LOOP('',(#181));
#138=AXIS2_PLACEMENT_3D('',#182,#183,#184);
#139=EDGE_LOOP('',(#185));
#140=EDGE_LOOP('',(#186));
#141=AXIS2_PLACEMENT_3D('',#187,#188,#189);
#142=EDGE_LOOP('',(#190));
#143=EDGE_LOOP('',(#191));
#144=AXIS2_PLACEMENT_3D('',#192,#193,#194);
#145=EDGE_LOOP('',(#195));
#146=EDGE_LOOP('',(#196));
#147=AXIS2_PLACEMENT_3D('',#197,#198,#199);
#148=EDGE_LOOP('',(#200));
#149=EDGE_LOOP('',(#201));
#150=AXIS2_PLACEMENT_3D('',#202,#203,#204);
#151=EDGE_LOOP('',(#205));
#152=EDGE_LOOP('',(#206));
#153=AXIS2_PLACEMENT_3D('',#207,#208,#209);
#154=EDGE_LOOP('',(#210));
#155=EDGE_LOOP('',(#211));
#156=AXIS2_PLACEMENT_3D('',#212,#213,#214);
#157=EDGE_LOOP('',(#215));
#158=EDGE_LOOP('',(#216));
#159=AXIS2_PLACEMENT_3D('',#217,#218,#219);
#160=EDGE_LOOP('',(#220));
#161=AXIS2_PLACEMENT_3D('',#221,#222,#223);
#162=EDGE_LOOP('',(#224));
#163=EDGE_LOOP('',(#225));
#164=AXIS2_PLACEMENT_3D('',#226,#227,#228);
#165=EDGE_LOOP('',(#229));
#166=AXIS2_PLACEMENT_3D('',#230,#231,#232);
#167=EDGE_LOOP('',(#233));
#168=EDGE_LOOP('',(#234));
#169=AXIS2_PLACEMENT_3D('',#235,#236,#237);
#170=ORIENTED_EDGE('',*,*,#238,.F.);
#171=ORIENTED_EDGE('',*,*,#239,.T.);
#172=CARTESIAN_POINT('',(6.12323399573674E-017,19.4375,-0.999999999999998));
#173=DIRECTION('',(-6.12323399573677E-017,-1.22464679914735E-016,1.0));
#174=DIRECTION('',(1.23259516440783E-032,-1.0,-1.22464679914735E-016));
#175=ORIENTED_EDGE('',*,*,#240,.F.);
#176=ORIENTED_EDGE('',*,*,#238,.T.);
#177=CARTESIAN_POINT('',(3.24531401774049E-016,6.49062803548097E-016,-5.3));
#178=DIRECTION('',(-6.12323399573677E-017,-1.22464679914735E-016,1.0));
#179=DIRECTION('',(-1.23259516440783E-032,1.0,1.22464679914735E-016));
#180=ORIENTED_EDGE('',*,*,#241,.F.);
#181=ORIENTED_EDGE('',*,*,#240,.T.);
#182=CARTESIAN_POINT('',(6.58535479604966E-016,1.31707095920993E-015,-10.75470054));
#183=DIRECTION('',(-6.12323399573677E-017,-1.22464679914735E-016,1.0));
#184=DIRECTION('',(-1.23259516440783E-032,1.0,1.22464679914735E-016));
#185=ORIENTED_EDGE('',*,*,#242,.F.);
#186=ORIENTED_EDGE('',*,*,#241,.T.);
#187=CARTESIAN_POINT('',(8.327598234202E-016,1.6655196468404E-015,-13.6));
#188=DIRECTION('',(-6.12323399573677E-017,-1.22464679914735E-016,1.0));
#189=DIRECTION('',(-1.23259516440783E-032,1.0,1.22464679914735E-016));
#190=ORIENTED_EDGE('',*,*,#243,.F.);
#191=ORIENTED_EDGE('',*,*,#242,.T.);
#192=CARTESIAN_POINT('',(1.00698416723543E-015,2.01396833447087E-015,-16.44529946));
#193=DIRECTION('',(6.12323399573677E-017,1.22464679914735E-016,-1.0));
#194=DIRECTION('',(-1.23259516440783E-032,1.0,1.22464679914735E-016));
#195=ORIENTED_EDGE('',*,*,#244,.F.);
#196=ORIENTED_EDGE('',*,*,#243,.T.);
#197=CARTESIAN_POINT('',(1.46651454197896E-015,2.93302908395791E-015,-23.95));
#198=DIRECTION('',(-6.12323399573677E-017,-1.22464679914735E-016,1.0));
#199=DIRECTION('',(-1.23259516440783E-032,1.0,1.22464679914735E-016));
#200=ORIENTED_EDGE('',*,*,#245,.F.);
#201=ORIENTED_EDGE('',*,*,#244,.T.);
#202=CARTESIAN_POINT('',(1.8982025386784E-015,3.79640507735679E-015,-31.0));
#203=DIRECTION('',(6.12323399573677E-017,1.22464679914735E-016,-1.0));
#204=DIRECTION('',(-1.23259516440783E-032,1.0,1.22464679914735E-016));
#205=ORIENTED_EDGE('',*,*,#246,.F.);
#206=ORIENTED_EDGE('',*,*,#245,.T.);
#207=CARTESIAN_POINT('',(2.11415644387359E-015,4.22831288774719E-015,-34.526794915));
#208=DIRECTION('',(-6.12323399573677E-017,-1.22464679914735E-016,1.0));
#209=DIRECTION('',(-1.23259516440783E-032,1.0,1.22464679914735E-016));
#210=ORIENTED_EDGE('',*,*,#247,.F.);
#211=ORIENTED_EDGE('',*,*,#246,.T.);
#212=CARTESIAN_POINT('',(2.33765448471799E-015,4.67530896943597E-015,-38.176794915));
#213=DIRECTION('',(6.12323399573677E-017,1.22464679914735E-016,-1.0));
#214=DIRECTION('',(-1.23259516440783E-032,1.0,1.22464679914735E-016));
#215=ORIENTED_EDGE('',*,*,#248,.F.);
#216=ORIENTED_EDGE('',*,*,#247,.T.);
#217=CARTESIAN_POINT('',(2.72483912810286E-015,5.44967825620572E-015,-44.5));
#218=DIRECTION('',(-6.12323399573677E-017,-1.22464679914735E-016,1.0));
#219=DIRECTION('',(-1.23259516440783E-032,1.0,1.22464679914735E-016));
#220=ORIENTED_EDGE('',*,*,#248,.T.);
#221=CARTESIAN_POINT('',(3.06161699786838E-015,12.5,-50.0));
#222=DIRECTION('',(6.12323399573677E-017,1.22464679914735E-016,-1.0));
#223=DIRECTION('',(-1.23259516440783E-032,1.0,1.22464679914735E-016));
#224=ORIENTED_EDGE('',*,*,#239,.F.);
#225=ORIENTED_EDGE('',*,*,#249,.T.);
#226=CARTESIAN_POINT('',(3.06161699786839E-017,6.12323399573677E-017,-0.500000000000001));
#227=DIRECTION('',(-6.12323399573677E-017,-1.22464679914735E-016,1.0));
#228=DIRECTION('',(-1.23259516440783E-032,1.0,1.22464679914735E-016));
#229=ORIENTED_EDGE('',*,*,#250,.F.);
#230=CARTESIAN_POINT('',(-2.96364525393659E-015,4.40825000099333,48.4));
#231=DIRECTION('',(-6.12323399573677E-017,-1.22464679914735E-016,1.0));
#232=DIRECTION('',(1.23259516440783E-032,-1.0,-1.22464679914735E-016));
#233=ORIENTED_EDGE('',*,*,#249,.F.);
#234=ORIENTED_EDGE('',*,*,#250,.T.);
#235=CARTESIAN_POINT('',(-1.4818226269683E-015,-2.96364525393659E-015,24.2));
#236=DIRECTION('',(6.12323399573677E-017,1.22464679914735E-016,-1.0));
#237=DIRECTION('',(-1.23259516440783E-032,1.0,1.22464679914735E-016));
#238=EDGE_CURVE('',#251,#251,#252,.T.);
#239=EDGE_CURVE('',#253,#253,#254,.T.);
#240=EDGE_CURVE('',#255,#255,#256,.T.);
#241=EDGE_CURVE('',#257,#257,#258,.T.);
#242=EDGE_CURVE('',#259,#259,#260,.T.);
#243=EDGE_CURVE('',#261,#261,#262,.T.);
#244=EDGE_CURVE('',#263,#263,#264,.T.);
#245=EDGE_CURVE('',#265,#265,#266,.T.);
#246=EDGE_CURVE('',#267,#267,#268,.T.);
#247=EDGE_CURVE('',#269,#269,#270,.T.);
#248=EDGE_CURVE('',#271,#271,#272,.T.);
#249=EDGE_CURVE('',#273,#273,#274,.T.);
#250=EDGE_CURVE('',#275,#275,#276,.T.);
#251=VERTEX_POINT('',#277);
#252=CIRCLE('',#278,23.0);
#253=VERTEX_POINT('',#279);
#254=CIRCLE('',#280,15.875);
#255=VERTEX_POINT('',#281);
#256=CIRCLE('',#282,23.0);
#257=VERTEX_POINT('',#283);
#258=CIRCLE('',#284,19.0);
#259=VERTEX_POINT('',#285);
#260=CIRCLE('',#286,19.0);
#261=VERTEX_POINT('',#287);
#262=CIRCLE('',#288,23.0);
#263=VERTEX_POINT('',#289);
#264=CIRCLE('',#290,23.0);
#265=VERTEX_POINT('',#291);
#266=CIRCLE('',#292,24.4);
#267=VERTEX_POINT('',#293);
#268=CIRCLE('',#294,24.4);
#269=VERTEX_POINT('',#295);
#270=CIRCLE('',#296,25.0);
#271=VERTEX_POINT('',#297);
#272=CIRCLE('',#298,25.0);
#273=VERTEX_POINT('',#299);
#274=CIRCLE('',#300,15.875);
#275=VERTEX_POINT('',#301);
#276=CIRCLE('',#302,8.81650000198667);
#277=CARTESIAN_POINT('',(6.12323399573674E-017,23.0,-0.999999999999997));
#278=AXIS2_PLACEMENT_3D('',#303,#304,#305);
#279=CARTESIAN_POINT('',(6.12323399573675E-017,15.875,-0.999999999999998));
#280=AXIS2_PLACEMENT_3D('',#306,#307,#308);
#281=CARTESIAN_POINT('',(5.87830463590729E-016,23.0,-9.6));
#282=AXIS2_PLACEMENT_3D('',#309,#310,#311);
#283=CARTESIAN_POINT('',(7.29240495619201E-016,19.0,-11.90940108));
#284=AXIS2_PLACEMENT_3D('',#312,#313,#314);
#285=CARTESIAN_POINT('',(9.36279151221199E-016,19.0,-15.29059892));
#286=AXIS2_PLACEMENT_3D('',#315,#316,#317);
#287=CARTESIAN_POINT('',(1.07768918324967E-015,23.0,-17.6));
#288=AXIS2_PLACEMENT_3D('',#318,#319,#320);
#289=CARTESIAN_POINT('',(1.85533990070824E-015,23.0,-30.3));
#290=AXIS2_PLACEMENT_3D('',#321,#322,#323);
#291=CARTESIAN_POINT('',(1.94106517664855E-015,24.4,-31.7));
#292=AXIS2_PLACEMENT_3D('',#324,#325,#326);
#293=CARTESIAN_POINT('',(2.28724771109863E-015,24.4,-37.35358983));
#294=AXIS2_PLACEMENT_3D('',#327,#328,#329);
#295=CARTESIAN_POINT('',(2.38806125833734E-015,25.0,-39.0));
#296=AXIS2_PLACEMENT_3D('',#330,#331,#332);
#297=CARTESIAN_POINT('',(3.06161699786838E-015,25.0,-50.0));
#298=AXIS2_PLACEMENT_3D('',#333,#334,#335);
#299=CARTESIAN_POINT('',(2.39407461153262E-031,15.875,-5.16130056395458E-015));
#300=AXIS2_PLACEMENT_3D('',#336,#337,#338);
#301=CARTESIAN_POINT('',(-2.96364525393659E-015,8.81650000198666,48.4));
#302=AXIS2_PLACEMENT_3D('',#339,#340,#341);
#303=CARTESIAN_POINT('',(6.12323399573677E-017,1.22464679914735E-016,-1.0));
#304=DIRECTION('',(6.12323399573677E-017,1.22464679914735E-016,-1.0));
#305=DIRECTION('',(-1.23259516440783E-032,1.0,1.22464679914735E-016));
#306=CARTESIAN_POINT('',(6.12323399573677E-017,1.22464679914735E-016,-1.0));
#307=DIRECTION('',(6.12323399573677E-017,1.22464679914735E-016,-1.0));
#308=DIRECTION('',(-1.23259516440783E-032,1.0,1.22464679914735E-016));
#309=CARTESIAN_POINT('',(5.8783046359073E-016,1.17566092718146E-015,-9.6));
#310=DIRECTION('',(6.12323399573677E-017,1.22464679914735E-016,-1.0));
#311=DIRECTION('',(-1.23259516440783E-032,1.0,1.22464679914735E-016));
#312=CARTESIAN_POINT('',(7.29240495619202E-016,1.4584809912384E-015,-11.90940108));
#313=DIRECTION('',(6.12323399573677E-017,1.22464679914735E-016,-1.0));
#314=DIRECTION('',(-1.23259516440783E-032,1.0,1.22464679914735E-016));
#315=CARTESIAN_POINT('',(9.36279151221199E-016,1.8725583024424E-015,-15.29059892));
#316=DIRECTION('',(6.12323399573677E-017,1.22464679914735E-016,-1.0));
#317=DIRECTION('',(-1.23259516440783E-032,1.0,1.22464679914735E-016));
#318=CARTESIAN_POINT('',(1.07768918324967E-015,2.15537836649934E-015,-17.6));
#319=DIRECTION('',(6.12323399573677E-017,1.22464679914735E-016,-1.0));
#320=DIRECTION('',(-1.23259516440783E-032,1.0,1.22464679914735E-016));
#321=CARTESIAN_POINT('',(1.85533990070824E-015,3.71067980141648E-015,-30.3));
#322=DIRECTION('',(6.12323399573677E-017,1.22464679914735E-016,-1.0));
#323=DIRECTION('',(-1.23259516440783E-032,1.0,1.22464679914735E-016));
#324=CARTESIAN_POINT('',(1.94106517664855E-015,3.88213035329711E-015,-31.7));
#325=DIRECTION('',(6.12323399573677E-017,1.22464679914735E-016,-1.0));
#326=DIRECTION('',(-1.23259516440783E-032,1.0,1.22464679914735E-016));
#327=CARTESIAN_POINT('',(2.28724771109863E-015,4.57449542219726E-015,-37.35358983));
#328=DIRECTION('',(6.12323399573677E-017,1.22464679914735E-016,-1.0));
#329=DIRECTION('',(-1.23259516440783E-032,1.0,1.22464679914735E-016));
#330=CARTESIAN_POINT('',(2.38806125833734E-015,4.77612251667468E-015,-39.0));
#331=DIRECTION('',(6.12323399573677E-017,1.22464679914735E-016,-1.0));
#332=DIRECTION('',(-1.23259516440783E-032,1.0,1.22464679914735E-016));
#333=CARTESIAN_POINT('',(3.06161699786838E-015,6.12323399573676E-015,-50.0));
#334=DIRECTION('',(6.12323399573677E-017,1.22464679914735E-016,-1.0));
#335=DIRECTION('',(-1.23259516440783E-032,1.0,1.22464679914735E-016));
#336=CARTESIAN_POINT('',(4.35081943503005E-031,8.7016388700601E-031,-7.105427357601E-015));
#337=DIRECTION('',(6.12323399573677E-017,1.22464679914735E-016,-1.0));
#338=DIRECTION('',(-1.23259516440783E-032,1.0,1.22464679914735E-016));
#339=CARTESIAN_POINT('',(-2.96364525393659E-015,-5.92729050787319E-015,48.4));
#340=DIRECTION('',(6.12323399573676E-017,1.22464679914735E-016,-1.0));
#341=DIRECTION('',(-1.23259516440783E-032,1.0,1.22464679914735E-016));
ENDSEC;
END-ISO-10303-21;
