  0
SECTION
  2
HEADER
  9
$ACADVER
  1
AC1009
  9
$INSBASE
 10
0.0
 20
0.0
 30
0.0
  9
$EXTMIN
 10
-49.407158324212439
 20
-23.023998770599629
 30
-0.0000000000074783
  9
$EXTMAX
 10
64.017564215757261
 20
64.504308067887109
 30
0.0000000000044428
  9
$LIMMIN
 10
0.0
 20
0.0
  9
$LIMMAX
 10
420.0
 20
297.0
  9
$ORTHOMODE
 70
     0
  9
$REGENMODE
 70
     1
  9
$FILLMODE
 70
     1
  9
$QTEXTMODE
 70
     0
  9
$MIRRTEXT
 70
     1
  9
$DRAGMODE
 70
     2
  9
$LTSCALE
 40
10.0
  9
$OSMODE
 70
    39
  9
$ATTMODE
 70
     1
  9
$TEXTSIZE
 40
3.0
  9
$TRACEWID
 40
1.0
  9
$TEXTSTYLE
  7
YOKO
  9
$CLAYER
  8
245
  9
$CELTYPE
  6
BYLAYER
  9
$CECOLOR
 62
   256
  9
$DIMSCALE
 40
1.0
  9
$DIMASZ
 40
2.2299999999999991
  9
$DIMEXO
 40
0.5
  9
$DIMDLI
 40
2.5
  9
$DIMRND
 40
0.0
  9
$DIMDLE
 40
0.0
  9
$DIMEXE
 40
1.0
  9
$DIMTP
 40
0.0
  9
$DIMTM
 40
0.0
  9
$DIMTXT
 40
2.799999999999998
  9
$DIMCEN
 40
0.0
  9
$DIMTSZ
 40
0.0
  9
$DIMTOL
 70
     0
  9
$DIMLIM
 70
     0
  9
$DIMTIH
 70
     0
  9
$DIMTOH
 70
     0
  9
$DIMSE1
 70
     0
  9
$DIMSE2
 70
     0
  9
$DIMTAD
 70
     3
  9
$DIMZIN
 70
     8
  9
$DIMBLK
  1

  9
$DIMASO
 70
     1
  9
$DIMSHO
 70
     1
  9
$DIMPOST
  1

  9
$DIMAPOST
  1

  9
$DIMALT
 70
     0
  9
$DIMALTD
 70
     2
  9
$DIMALTF
 40
25.399999999999999
  9
$DIMLFAC
 40
1.0
  9
$DIMTOFL
 70
     1
  9
$DIMTVP
 40
0.0
  9
$DIMTIX
 70
     1
  9
$DIMSOXD
 70
     0
  9
$DIMSAH
 70
     1
  9
$DIMBLK1
  1
OPEN
  9
$DIMBLK2
  1
OPEN
  9
$DIMSTYLE
  2
BIGT
  9
$DIMCLRD
 70
   256
  9
$DIMCLRE
 70
   256
  9
$DIMCLRT
 70
    40
  9
$DIMTFAC
 40
1.0
  9
$DIMGAP
 40
1.0
  9
$LUNITS
 70
     2
  9
$LUPREC
 70
     3
  9
$SKETCHINC
 40
1.0
  9
$FILLETRAD
 40
0.4
  9
$AUNITS
 70
     0
  9
$AUPREC
 70
     3
  9
$MENU
  1
.
  9
$ELEVATION
 40
0.0
  9
$PELEVATION
 40
0.0
  9
$THICKNESS
 40
0.0
  9
$LIMCHECK
 70
     0
  9
$BLIPMODE
 70
     0
  9
$CHAMFERA
 40
10.0
  9
$CHAMFERB
 40
10.0
  9
$SKPOLY
 70
     0
  9
$TDCREATE
 40
2455140.5583675122
  9
$TDUPDATE
 40
2456086.3701436808
  9
$TDINDWG
 40
0.0145969792
  9
$TDUSRTIMER
 40
0.0145969792
  9
$USRTIMER
 70
     1
  9
$ANGBASE
 50
0.0
  9
$ANGDIR
 70
     0
  9
$PDMODE
 70
     1
  9
$PDSIZE
 40
-5.0
  9
$PLINEWID
 40
0.0
  9
$COORDS
 70
     0
  9
$SPLFRAME
 70
     0
  9
$SPLINETYPE
 70
     6
  9
$SPLINESEGS
 70
     8
  9
$ATTDIA
 70
     1
  9
$ATTREQ
 70
     1
  9
$HANDLING
 70
     1
  9
$HANDSEED
  5
111D
  9
$SURFTAB1
 70
     6
  9
$SURFTAB2
 70
     6
  9
$SURFTYPE
 70
     6
  9
$SURFU
 70
     6
  9
$SURFV
 70
     6
  9
$UCSNAME
  2

  9
$UCSORG
 10
0.0
 20
0.0
 30
0.0
  9
$UCSXDIR
 10
1.0
 20
0.0
 30
0.0
  9
$UCSYDIR
 10
0.0
 20
1.0
 30
0.0
  9
$PUCSNAME
  2

  9
$PUCSORG
 10
0.0
 20
0.0
 30
0.0
  9
$PUCSXDIR
 10
1.0
 20
0.0
 30
0.0
  9
$PUCSYDIR
 10
0.0
 20
1.0
 30
0.0
  9
$USERI1
 70
     1
  9
$USERI2
 70
     0
  9
$USERI3
 70
     0
  9
$USERI4
 70
     0
  9
$USERI5
 70
     0
  9
$USERR1
 40
0.0
  9
$USERR2
 40
0.0
  9
$USERR3
 40
0.0
  9
$USERR4
 40
0.0
  9
$USERR5
 40
0.0
  9
$WORLDVIEW
 70
     1
  9
$SHADEDGE
 70
     3
  9
$SHADEDIF
 70
    70
  9
$TILEMODE
 70
     1
  9
$MAXACTVP
 70
    16
  9
$PLIMCHECK
 70
     0
  9
$PEXTMIN
 10
1.0000000000000000E+020
 20
1.0000000000000000E+020
 30
1.0000000000000000E+020
  9
$PEXTMAX
 10
-1.0000000000000000E+020
 20
-1.0000000000000000E+020
 30
-1.0000000000000000E+020
  9
$PLIMMIN
 10
0.0
 20
0.0
  9
$PLIMMAX
 10
420.0
 20
297.0
  9
$UNITMODE
 70
     0
  9
$VISRETAIN
 70
     0
  9
$PLINEGEN
 70
     0
  9
$PSLTSCALE
 70
     1
  0
ENDSEC
  0
SECTION
  2
TABLES
  0
TABLE
  2
VPORT
 70
    12
  0
VPORT
  2
*ACTIVE
 70
     0
 10
0.0
 20
0.0
 11
1.0
 21
1.0
 12
7.3052029457724119
 22
20.740154648643738
 13
0.0
 23
0.0
 14
7.0
 24
7.0
 15
7.0
 25
7.0
 16
0.0
 26
0.0
 36
1.0
 17
0.0
 27
0.0
 37
0.0
 40
88.104783063548126
 41
1.5472527472527471
 42
50.0
 43
0.0
 44
0.0
 50
0.0
 51
0.0
 71
     0
 72
  2000
 73
     1
 74
     0
 75
     0
 76
     0
 77
     0
 78
     0
  0
ENDTAB
  0
TABLE
  2
LTYPE
 70
    21
  0
LTYPE
  2
CONTINUOUS
 70
     0
  3
Solid line
 72
    65
 73
     0
 40
0.0
  0
LTYPE
  2
CENTER2
 70
     0
  3
___ _ ___ _ ___ _ ___ _ ___ _ ___ _ ___ _ ___ _
 72
    65
 73
     4
 40
1.125
 49
0.75
 49
-0.125
 49
0.125
 49
-0.125
  0
LTYPE
  2
HIDDEN2
 70
     0
  3
_ _ _ _ _ _ _ _ _ _ _ _ _ _ _ _ _ _ _ _ _ _ _ _
 72
    65
 73
     2
 40
0.1875
 49
0.125
 49
-0.0625
  0
LTYPE
  2
PHANTOM2
 70
     0
  3
___ _ _ ___ _ _ ___ _ _ ___ _ _ ___ _ _ ___ _ _
 72
    65
 73
     6
 40
1.25
 49
0.625
 49
-0.125
 49
0.125
 49
-0.125
 49
0.125
 49
-0.125
  0
LTYPE
  2
AMCONSTR
 70
     0
  3
_______________________
 72
    65
 73
     2
 40
9999.0
 49
9999.0
 49
0.0
  0
LTYPE
  2
AM_ISO02W050
 70
     0
  3
__ __ __ __ __ __ __ __ __ __ __ __ __ __ __
 72
    65
 73
     2
 40
7.5
 49
6.0
 49
-1.5
  0
LTYPE
  2
HIDDEN
 70
     0
  3
Hidden __ __ __ __ __ __ __ __ __ __ __ __ __ _
 72
    65
 73
     2
 40
9.5249999999999986
 49
6.3499999999999979
 49
-3.174999999999998
  0
LTYPE
  2
CENTER
 70
     0
  3
____ _ ____ _ ____ _ ____ _ ____ _ ____ _ ____ 
 72
    65
 73
     4
 40
2.0
 49
1.25
 49
-0.25
 49
0.25
 49
-0.25
  0
LTYPE
  2
ACJISTGB
 70
     0
  3
__ . . __ . .
 72
    65
 73
     6
 40
9.0
 49
4.0
 49
-1.0
 49
1.0
 49
-1.0
 49
1.0
 49
-1.0
  0
LTYPE
  2
ACJISTGL
 70
     0
  3
_ _ _ _ _
 72
    65
 73
     2
 40
3.0
 49
2.0
 49
-1.0
  0
LTYPE
  2
ACISOWELD
 70
     0
  3
_ _ _ _ _
 72
    65
 73
     2
 40
2.0
 49
2.0
 49
-1.0
  0
LTYPE
  2
ACISOTGB
 70
     0
  3
__ . . __ . .
 72
    65
 73
     6
 40
9.0
 49
4.0
 49
-1.0
 49
1.0
 49
-1.0
 49
1.0
 49
-1.0
  0
LTYPE
  2
ACISOTGL
 70
     0
  3
_ _ _ _ _
 72
    65
 73
     2
 40
3.0
 49
2.0
 49
-1.0
  0
LTYPE
  2
AMZIGZAG2
 70
     0
  3
/\/-/\/-/\/-/\/-/\/-/\/
 72
    65
 73
     2
 40
0.4401
 49
0.0001
 49
-0.4400000000000003
  0
LTYPE
  2
ACANSTGB
 70
     0
  3
__ . . __ . .
 72
    65
 73
     6
 40
0.35433070866
 49
0.15748031496
 49
-0.03937007874
 49
0.03937007874
 49
-0.03937007874
 49
0.03937007874
 49
-0.03937007874
  0
LTYPE
  2
ACANSTGL
 70
     0
  3
_ _ _ _ _
 72
    65
 73
     2
 40
0.11811023622
 49
0.07874015748
 49
-0.03937007874
  0
LTYPE
  2
AM_ISO08W050
 70
     0
  3
____ . ____ . ____ . ____ . ____ . ____ . ____
 72
    65
 73
     4
 40
18.0
 49
12.0
 49
-1.5
 49
3.0
 49
-1.5
  0
LTYPE
  2
AM_ISO09W050
 70
     0
  3
_____ . . _____ . . _____ . . ____ .. ____
 72
    65
 73
     6
 40
22.5
 49
12.0
 49
-1.5
 49
3.0
 49
-1.5
 49
3.0
 49
-1.5
  0
LTYPE
  2
AM_ISO08W050X2
 70
     0
  3
__ . __ . __ . __ . __ . __
 72
    65
 73
     4
 40
9.0
 49
6.0
 49
-0.75
 49
1.5
 49
-0.75
  0
LTYPE
  2
AM_ISO02W050X2
 70
     0
  3
 _ _ _ _ _ _ _ _ _ _ _ _
 72
    65
 73
     2
 40
3.75
 49
3.0
 49
-0.75
  0
LTYPE
  2
AMZIGZAG
 70
     0
  3
/\/-/\/-/\/-/\/-/\/-/\/
 72
    65
 73
     2
 40
11.0001
 49
0.0001
 49
-11.0
  0
ENDTAB
  0
TABLE
  2
LAYER
 70
    11
  0
LAYER
  2
0
 70
     0
 62
     7
  6
CONTINUOUS
  0
LAYER
  2
245
 70
     0
 62
     2
  6
CENTER2
  0
LAYER
  2
240
 70
     0
 62
     4
  6
CONTINUOUS
  0
LAYER
  2
241
 70
     0
 62
   211
  6
CONTINUOUS
  0
LAYER
  2
243
 70
     0
 62
   211
  6
HIDDEN2
  0
LAYER
  2
246
 70
     0
 62
     3
  6
PHANTOM2
  0
LAYER
  2
250
 70
     0
 62
     3
  6
CONTINUOUS
  0
LAYER
  2
251
 70
     0
 62
    40
  6
CONTINUOUS
  0
LAYER
  2
DEFPOINTS
 70
     0
 62
     7
  6
CONTINUOUS
  0
LAYER
  2
AM_5
 70
     0
 62
     3
  6
CONTINUOUS
  0
LAYER
  2
AM_CL
 70
     0
 62
   254
  6
AMCONSTR
  0
ENDTAB
  0
TABLE
  2
STYLE
 70
     9
  0
STYLE
  2
STANDARD
 70
     0
 40
0.0
 41
1.0
 50
0.0
 71
     0
 42
3.0
  3
romans.shx
  4
BIGFONT.SHX
  0
STYLE
  2
YOKO
 70
     0
 40
0.0
 41
1.0
 50
0.0
 71
     0
 42
3.0
  3
romans.shx
  4
extfont.shx
  0
STYLE
  2
ACJISGDT
 70
     0
 40
0.0
 41
1.0
 50
0.0
 71
     0
 42
3.0
  3
amgdt.shx
  4
extfont.shx
  0
STYLE
  2
ACJISTS
 70
     0
 40
1.0
 41
1.0
 50
0.0
 71
     0
 42
3.0
  3
amgdt.shx
  4
extfont.shx
  0
STYLE
  2
ACISOTS
 70
     0
 40
1.0
 41
1.0
 50
0.0
 71
     0
 42
3.0
  3
amgdt.shx
  4
extfont.shx
  0
STYLE
  2
ACISOGDT
 70
     0
 40
0.0
 41
1.0
 50
0.0
 71
     0
 42
3.0
  3
amgdt.shx
  4
extfont.shx
  0
STYLE
  2
ACANSTS
 70
     0
 40
1.0
 41
1.0
 50
0.0
 71
     0
 42
3.0
  3
romans.shx
  4
extfont.shx
  0
STYLE
  2
ACANSGDT
 70
     0
 40
0.0
 41
1.0
 50
0.0
 71
     0
 42
3.0
  3
amgdtans.shx
  4

  0
STYLE
  2

 70
     1
 40
0.0
 41
1.0
 50
0.0
 71
     0
 42
3.0
  3
ltypeshp.shx
  4

  0
ENDTAB
  0
TABLE
  2
VIEW
 70
     0
  0
ENDTAB
  0
TABLE
  2
UCS
 70
     0
  0
ENDTAB
  0
TABLE
  2
APPID
 70
    35
  0
APPID
  2
ACAD
 70
     0
  0
APPID
  2
GLOBAL
 70
     0
  0
APPID
  2
DETAIL
 70
     0
  0
APPID
  2
GRPNAME
 70
     0
  0
APPID
  2
GPARA
 70
     0
  0
APPID
  2
DCO15
 70
     0
  0
APPID
  2
ITEMNAME
 70
     0
  0
APPID
  2
GRADE_0
 70
     0
  0
APPID
  2
HATCH_TYPE
 70
     0
  0
APPID
  2
HATCH_DISPLAY
 70
     0
  0
APPID
  2
HATCH_DISTANCE
 70
     0
  0
APPID
  2
CONTENTBLOCKICON
 70
     0
  0
APPID
  2
MCAD_NO_VIS
 70
     0
  0
APPID
  2
ACAD_TEMP_GRAPHIC
 70
     0
  0
APPID
  2
ACATTRIBSERVICES
 70
     0
  0
APPID
  2
GENIUS_GENSCREG_15
 70
     0
  0
APPID
  2
GENIUS_GENODEF_13
 70
     0
  0
APPID
  2
GENIUS_GENOBJ-N-SDF_13
 70
     0
  0
APPID
  2
GENIUS_GENREC_14
 70
     0
  0
APPID
  2
GENIUS_GENOBJ-N-REC_13
 70
     0
  0
APPID
  2
GENIUS_GENDIMSH_14
 70
     0
  0
APPID
  2
GENIUS_GENOBJ-N-DIM_13
 70
     0
  0
APPID
  2
GENIUS_GENDIM_13
 70
     0
  0
APPID
  2
GENIUS_GENDTOL_13
 70
     0
  0
APPID
  2
GENIUS_GENOLIS_13
 70
     0
  0
APPID
  2
GENIUS_GENOENT_13
 70
     0
  0
APPID
  2
GENIUS_GENOBJ-F-FEM_13
 70
     0
  0
APPID
  2
GENIUS_GENOREF_13
 70
     0
  0
APPID
  2
GENIUS_GEFFEM_13
 70
     0
  0
APPID
  2
GENIUS_GEFFEMP_13
 70
     0
  0
APPID
  2
AD_DRAW
 70
     0
  0
APPID
  2
DESIGNERASSEMBLIES
 70
     0
  0
APPID
  2
ACADM_DIM_EDIT
 70
     0
  0
APPID
  2
AMDT_DM_ADJ
 70
     0
  0
APPID
  2
GENIUS_GENOBJ-N-FIL_13
 70
     0
  0
ENDTAB
  0
TABLE
  2
DIMSTYLE
 70
    29
  0
DIMSTYLE
  2
BIGT
 70
     0
  3

  4

  5

  6

  7

 40
1.0
 41
2.2299999999999991
 42
0.5
 43
7.0
 44
1.0
 45
0.0
 46
0.0
 47
0.0
 48
0.01
140
2.799999999999998
141
0.0
142
0.0
143
25.399999999999999
144
1.0
145
0.0
146
1.0
147
1.0
 71
     0
 72
     0
 73
     0
 74
     0
 75
     0
 76
     0
 77
     3
 78
     9
170
     0
171
     2
172
     1
173
     0
174
     1
175
     0
176
   256
177
   256
178
    40
  0
DIMSTYLE
  2
BIGT$0
 70
     0
  3

  4

  5

  6

  7

 40
1.0
 41
2.2299999999999991
 42
0.5
 43
7.0
 44
1.0
 45
0.0
 46
0.0
 47
0.0
 48
0.01
140
2.799999999999998
141
0.0
142
0.0
143
25.399999999999999
144
1.0
145
0.0
146
1.0
147
1.0
 71
     0
 72
     0
 73
     0
 74
     0
 75
     0
 76
     0
 77
     3
 78
     9
170
     0
171
     2
172
     1
173
     0
174
     0
175
     0
176
   256
177
   256
178
    40
  0
DIMSTYLE
  2
BIGT$2
 70
     0
  3

  4

  5

  6

  7

 40
1.0
 41
2.2299999999999991
 42
0.5
 43
7.0
 44
1.0
 45
0.0
 46
0.0
 47
0.0
 48
0.01
140
2.799999999999998
141
0.0
142
0.0
143
25.399999999999999
144
1.0
145
0.0
146
1.0
147
1.0
 71
     0
 72
     0
 73
     0
 74
     0
 75
     0
 76
     0
 77
     3
 78
     9
170
     0
171
     2
172
     1
173
     0
174
     0
175
     0
176
   256
177
   256
178
    40
  0
DIMSTYLE
  2
BIGT$3
 70
     0
  3

  4

  5

  6

  7

 40
1.0
 41
2.2299999999999991
 42
0.5
 43
2.5
 44
1.0
 45
0.0
 46
0.0
 47
0.0
 48
0.01
140
2.799999999999998
141
0.0
142
0.0
143
25.399999999999999
144
1.0
145
0.0
146
1.0
147
1.0
 71
     0
 72
     0
 73
     0
 74
     0
 75
     0
 76
     0
 77
     3
 78
     9
170
     0
171
     2
172
     1
173
     0
174
     0
175
     0
176
   256
177
   256
178
    40
  0
DIMSTYLE
  2
BIGT$4
 70
     0
  3

  4

  5

  6

  7

 40
1.0
 41
2.2299999999999991
 42
0.5
 43
2.5
 44
1.0
 45
0.0
 46
0.0
 47
0.0
 48
0.01
140
2.799999999999998
141
0.0
142
0.0
143
25.399999999999999
144
1.0
145
0.0
146
1.0
147
1.0
 71
     0
 72
     0
 73
     0
 74
     0
 75
     0
 76
     0
 77
     3
 78
     9
170
     0
171
     2
172
     1
173
     0
174
     0
175
     0
176
   256
177
   256
178
    40
  0
DIMSTYLE
  2
BIGT$6
 70
     0
  3

  4

  5

  6

  7

 40
1.0
 41
2.2299999999999991
 42
0.5
 43
2.5
 44
1.0
 45
0.0
 46
0.0
 47
0.0
 48
0.01
140
2.799999999999998
141
0.0
142
0.0
143
25.399999999999999
144
1.0
145
0.0
146
1.0
147
1.0
 71
     0
 72
     0
 73
     0
 74
     0
 75
     0
 76
     0
 77
     3
 78
     9
170
     0
171
     2
172
     1
173
     0
174
     0
175
     0
176
   256
177
   256
178
    40
  0
DIMSTYLE
  2
BIGT$7
 70
     0
  3

  4

  5

  6

  7

 40
0.0
 41
2.2299999999999991
 42
0.5
 43
7.0
 44
1.0
 45
0.0
 46
0.0
 47
0.0
 48
0.01
140
2.799999999999998
141
0.0
142
0.0
143
25.399999999999999
144
1.0
145
0.0
146
1.0
147
1.0
 71
     0
 72
     0
 73
     0
 74
     0
 75
     0
 76
     0
 77
     3
 78
     9
170
     0
171
     2
172
     0
173
     0
174
     0
175
     0
176
   256
177
   256
178
    40
  0
DIMSTYLE
  2
BIGT$SF
 70
     0
  3

  4

  5

  6

  7

 40
1.0
 41
2.2299999999999991
 42
0.5
 43
7.0
 44
1.0
 45
0.0
 46
0.0
 47
0.0
 48
0.0
140
2.799999999999998
141
0.0
142
0.0
143
25.399999999999999
144
1.0
145
0.0
146
1.0
147
1.0
 71
     0
 72
     0
 73
     0
 74
     0
 75
     0
 76
     0
 77
     3
 78
     9
170
     0
171
     2
172
     1
173
     0
174
     0
175
     0
176
   256
177
   256
178
    40
  0
DIMSTYLE
  2
BIGT$SH
 70
     0
  3

  4

  5

  6

  7

 40
1.0
 41
2.2299999999999991
 42
0.5
 43
7.0
 44
1.0
 45
0.0
 46
0.0
 47
0.0
 48
0.0
140
2.799999999999998
141
0.0
142
0.0
143
25.399999999999999
144
1.0
145
0.0
146
1.0
147
1.0
 71
     0
 72
     0
 73
     0
 74
     0
 75
     0
 76
     0
 77
     3
 78
     9
170
     0
171
     2
172
     1
173
     0
174
     0
175
     0
176
   256
177
   256
178
    40
  0
DIMSTYLE
  2
AM_ISO
 70
     0
  3

  4
"
  5

  6

  7

 40
1.0
 41
2.5
 42
1.0
 43
10.0
 44
1.0
 45
0.0
 46
0.0
 47
0.1
 48
0.1
140
3.5
141
0.0
142
0.0
143
0.0393701
144
1.0
145
0.0
146
0.71
147
1.5
 71
     0
 72
     0
 73
     0
 74
     0
 75
     0
 76
     0
 77
     1
 78
     8
170
     0
171
     2
172
     1
173
     0
174
     0
175
     0
176
   256
177
   256
178
     2
  0
DIMSTYLE
  2
AM_ISO$3
 70
     0
  3

  4
"
  5

  6

  7

 40
1.0
 41
2.5
 42
1.0
 43
10.0
 44
1.0
 45
0.0
 46
0.0
 47
0.1
 48
0.1
140
3.5
141
0.0
142
0.0
143
0.0393701
144
1.0
145
0.0
146
0.71
147
1.5
 71
     0
 72
     0
 73
     0
 74
     1
 75
     0
 76
     0
 77
     1
 78
     8
170
     0
171
     2
172
     0
173
     0
174
     0
175
     0
176
   256
177
   256
178
     2
  0
DIMSTYLE
  2
AM_ISO$4
 70
     0
  3

  4
"
  5

  6

  7

 40
1.0
 41
2.5
 42
1.0
 43
10.0
 44
1.0
 45
0.0
 46
0.0
 47
0.1
 48
0.1
140
3.5
141
0.0
142
0.0
143
0.0393701
144
1.0
145
0.0
146
0.71
147
1.5
 71
     0
 72
     0
 73
     0
 74
     1
 75
     0
 76
     0
 77
     1
 78
     8
170
     0
171
     2
172
     0
173
     0
174
     0
175
     0
176
   256
177
   256
178
     2
  0
DIMSTYLE
  2
AM_ISO$6
 70
     0
  3

  4
"
  5

  6

  7

 40
1.0
 41
2.5
 42
1.0
 43
10.0
 44
1.0
 45
0.0
 46
0.0
 47
0.1
 48
0.1
140
3.5
141
0.0
142
0.0
143
0.0393701
144
1.0
145
0.0
146
0.71
147
1.5
 71
     0
 72
     0
 73
     0
 74
     0
 75
     0
 76
     0
 77
     0
 78
     8
170
     0
171
     2
172
     1
173
     0
174
     0
175
     0
176
   256
177
   256
178
     2
  0
DIMSTYLE
  2
AM_ISO$7
 70
     0
  3

  4
"
  5

  6

  7

 40
1.0
 41
2.5
 42
1.0
 43
10.0
 44
1.0
 45
0.0
 46
0.0
 47
0.1
 48
0.1
140
5.0
141
0.0
142
0.0
143
0.0393701
144
1.0
145
0.0
146
0.71
147
1.5
 71
     0
 72
     0
 73
     0
 74
     0
 75
     0
 76
     0
 77
     1
 78
     8
170
     0
171
     2
172
     1
173
     0
174
     0
175
     0
176
   256
177
   256
178
     2
  0
DIMSTYLE
  2
AM_ISO$SF
 70
     0
  3

  4
"
  5

  6

  7

 40
1.0
 41
2.5
 42
1.0
 43
10.0
 44
1.0
 45
0.0
 46
0.0
 47
0.1
 48
0.1
140
3.5
141
0.0
142
0.0
143
0.0393701
144
1.0
145
0.0
146
0.71
147
1.5
 71
     0
 72
     0
 73
     0
 74
     0
 75
     1
 76
     1
 77
     1
 78
     8
170
     0
171
     2
172
     1
173
     0
174
     0
175
     0
176
   256
177
   256
178
     2
  0
DIMSTYLE
  2
AM_ISO$SH
 70
     0
  3

  4
"
  5

  6

  7

 40
1.0
 41
2.5
 42
1.0
 43
10.0
 44
1.0
 45
0.0
 46
0.0
 47
0.1
 48
0.1
140
3.5
141
0.0
142
0.0
143
0.0393701
144
2.0
145
0.0
146
0.71
147
1.5
 71
     0
 72
     0
 73
     0
 74
     0
 75
     1
 76
     1
 77
     1
 78
     8
170
     0
171
     2
172
     1
173
     1
174
     0
175
     0
176
   256
177
   256
178
     2
  0
DIMSTYLE
  2
TECHNICAL_OSAKA
 70
     0
  3

  4
"
  5

  6

  7

 40
1.0
 41
2.5
 42
1.0
 43
10.0
 44
1.0
 45
0.0
 46
0.0
 47
0.1
 48
0.1
140
2.799999999999998
141
0.0
142
0.0
143
0.0393701
144
1.0
145
0.0
146
0.71
147
1.5
 71
     0
 72
     0
 73
     0
 74
     0
 75
     0
 76
     0
 77
     3
 78
     8
170
     0
171
     2
172
     1
173
     0
174
     0
175
     0
176
   256
177
   256
178
    40
  0
DIMSTYLE
  2
TECHNICAL_OSAKA$3
 70
     0
  3

  4
"
  5

  6

  7

 40
1.0
 41
2.5
 42
1.0
 43
10.0
 44
1.0
 45
0.0
 46
0.0
 47
0.1
 48
0.1
140
2.799999999999998
141
0.0
142
0.0
143
0.0393701
144
1.0
145
0.0
146
0.71
147
1.5
 71
     0
 72
     0
 73
     0
 74
     1
 75
     0
 76
     0
 77
     3
 78
     8
170
     0
171
     2
172
     0
173
     0
174
     0
175
     0
176
   256
177
   256
178
    40
  0
DIMSTYLE
  2
TECHNICAL_OSAKA$4
 70
     0
  3

  4
"
  5

  6

  7

 40
1.0
 41
2.5
 42
1.0
 43
10.0
 44
1.0
 45
0.0
 46
0.0
 47
0.1
 48
0.1
140
2.799999999999998
141
0.0
142
0.0
143
0.0393701
144
1.0
145
0.0
146
0.71
147
1.5
 71
     0
 72
     0
 73
     0
 74
     1
 75
     0
 76
     0
 77
     3
 78
     8
170
     0
171
     2
172
     0
173
     0
174
     0
175
     0
176
   256
177
   256
178
    40
  0
DIMSTYLE
  2
TECHNICAL_OSAKA$6
 70
     0
  3

  4
"
  5

  6

  7

 40
1.0
 41
2.5
 42
1.0
 43
10.0
 44
1.0
 45
0.0
 46
0.0
 47
0.1
 48
0.1
140
2.799999999999998
141
0.0
142
0.0
143
0.0393701
144
1.0
145
0.0
146
0.71
147
1.5
 71
     0
 72
     0
 73
     0
 74
     0
 75
     0
 76
     0
 77
     0
 78
     8
170
     0
171
     2
172
     1
173
     0
174
     0
175
     0
176
   256
177
   256
178
    40
  0
DIMSTYLE
  2
TECHNICAL_OSAKA$7
 70
     0
  3

  4
"
  5

  6

  7

 40
1.0
 41
2.5
 42
1.0
 43
10.0
 44
1.0
 45
0.0
 46
0.0
 47
0.1
 48
0.1
140
2.799999999999998
141
0.0
142
0.0
143
0.0393701
144
1.0
145
0.0
146
0.71
147
1.5
 71
     0
 72
     0
 73
     0
 74
     0
 75
     0
 76
     0
 77
     3
 78
     8
170
     0
171
     2
172
     1
173
     0
174
     0
175
     0
176
   256
177
   256
178
    40
  0
DIMSTYLE
  2
TECHNICAL_OSAKA$SF
 70
     0
  3

  4
"
  5

  6

  7

 40
1.0
 41
2.5
 42
1.0
 43
10.0
 44
1.0
 45
0.0
 46
0.0
 47
0.1
 48
0.1
140
3.5
141
0.0
142
0.0
143
0.0393701
144
1.0
145
0.0
146
0.71
147
1.5
 71
     0
 72
     0
 73
     0
 74
     0
 75
     1
 76
     1
 77
     3
 78
     8
170
     0
171
     2
172
     1
173
     0
174
     0
175
     0
176
   256
177
   256
178
    40
  0
DIMSTYLE
  2
TECHNICAL_OSAKA$SH
 70
     0
  3

  4
"
  5

  6

  7

 40
1.0
 41
2.5
 42
1.0
 43
10.0
 44
1.0
 45
0.0
 46
0.0
 47
0.1
 48
0.1
140
3.5
141
0.0
142
0.0
143
0.0393701
144
2.0
145
0.0
146
0.71
147
1.5
 71
     0
 72
     0
 73
     0
 74
     0
 75
     1
 76
     1
 77
     3
 78
     8
170
     0
171
     2
172
     1
173
     1
174
     0
175
     0
176
   256
177
   256
178
    40
  0
DIMSTYLE
  2
AM_ANSI
 70
     0
  3

  4
mm
  5

  6

  7

 40
1.0
 41
0.1
 42
0.05
 43
0.5
 44
0.1
 45
0.0
 46
0.0
 47
0.1
 48
0.1
140
0.12
141
0.0
142
0.0
143
25.399999999999999
144
1.0
145
0.0
146
0.71
147
0.06
 71
     0
 72
     0
 73
     1
 74
     1
 75
     0
 76
     0
 77
     0
 78
     7
170
     0
171
     2
172
     0
173
     0
174
     0
175
     0
176
   256
177
   256
178
     2
  0
DIMSTYLE
  2
AM_ANSI$3
 70
     0
  3

  4
mm
  5

  6

  7

 40
1.0
 41
0.1
 42
0.05
 43
0.5
 44
0.1
 45
0.0
 46
0.0
 47
0.1
 48
0.1
140
0.12
141
0.0
142
0.0
143
25.399999999999999
144
1.0
145
0.0
146
0.71
147
0.06
 71
     0
 72
     0
 73
     1
 74
     1
 75
     0
 76
     0
 77
     0
 78
     7
170
     0
171
     2
172
     0
173
     0
174
     0
175
     0
176
   256
177
   256
178
     2
  0
DIMSTYLE
  2
AM_ANSI$4
 70
     0
  3

  4
mm
  5

  6

  7

 40
1.0
 41
0.1
 42
0.05
 43
0.5
 44
0.1
 45
0.0
 46
0.0
 47
0.1
 48
0.1
140
0.12
141
0.0
142
0.0
143
25.399999999999999
144
1.0
145
0.0
146
0.71
147
0.06
 71
     0
 72
     0
 73
     1
 74
     1
 75
     0
 76
     0
 77
     0
 78
     7
170
     0
171
     2
172
     0
173
     0
174
     0
175
     0
176
   256
177
   256
178
     2
  0
DIMSTYLE
  2
AM_ANSI$7
 70
     0
  3

  4
mm
  5

  6

  7

 40
1.0
 41
0.1
 42
0.05
 43
0.5
 44
0.1
 45
0.0
 46
0.0
 47
0.1
 48
0.1
140
0.24
141
0.0
142
0.0
143
25.399999999999999
144
1.0
145
0.0
146
0.71
147
0.06
 71
     0
 72
     0
 73
     1
 74
     1
 75
     0
 76
     0
 77
     0
 78
     7
170
     0
171
     2
172
     0
173
     0
174
     0
175
     0
176
   256
177
   256
178
     2
  0
DIMSTYLE
  2
AM_ANSI$SF
 70
     0
  3

  4
mm
  5

  6

  7

 40
1.0
 41
0.1
 42
0.05
 43
0.5
 44
0.1
 45
0.0
 46
0.0
 47
0.1
 48
0.1
140
0.12
141
0.0
142
0.0
143
25.399999999999999
144
1.0
145
0.0
146
0.71
147
0.06
 71
     0
 72
     0
 73
     1
 74
     1
 75
     1
 76
     1
 77
     0
 78
     7
170
     0
171
     2
172
     0
173
     0
174
     0
175
     0
176
   256
177
   256
178
     2
  0
DIMSTYLE
  2
AM_ANSI$SH
 70
     0
  3

  4
mm
  5

  6

  7

 40
1.0
 41
0.1
 42
0.05
 43
0.5
 44
0.1
 45
0.0
 46
0.0
 47
0.1
 48
0.1
140
0.12
141
0.0
142
0.0
143
25.399999999999999
144
1.0
145
0.0
146
0.71
147
0.06
 71
     0
 72
     0
 73
     1
 74
     1
 75
     1
 76
     1
 77
     0
 78
     7
170
     0
171
     2
172
     0
173
     1
174
     0
175
     0
176
   256
177
   256
178
     2
  0
ENDTAB
  0
ENDSEC
  0
SECTION
  2
BLOCKS
  0
BLOCK
  8
0
  2
$MODEL_SPACE
 70
     0
 10
0.0
 20
0.0
 30
0.0
  3
$MODEL_SPACE
  1

  0
ENDBLK
  5
FD9
  8
0
  0
BLOCK
 67
     1
  8
0
  2
$PAPER_SPACE
 70
     0
 10
0.0
 20
0.0
 30
0.0
  3
$PAPER_SPACE
  1

  0
ENDBLK
  5
FD5
 67
     1
  8
0
  0
BLOCK
  8
0
  2
_OPEN
 70
     0
 10
0.0
 20
0.0
 30
0.0
  3
_OPEN
  1

  0
LINE
  5
C95
  8
0
  6
BYBLOCK
 62
     0
 10
-1.0
 20
0.1666666666666666
 30
0.0
 11
0.0
 21
0.0
 31
0.0
  0
LINE
  5
C96
  8
0
  6
BYBLOCK
 62
     0
 10
-1.0
 20
-0.1666666666666666
 30
0.0
 11
0.0
 21
0.0
 31
0.0
  0
LINE
  5
C97
  8
0
  6
BYBLOCK
 62
     0
 10
0.0
 20
0.0
 30
0.0
 11
-1.0
 21
0.0
 31
0.0
  0
ENDBLK
  5
C98
  8
0
  0
BLOCK
  8
0
  2
矢印なし
 70
     0
 10
0.0
 20
0.0
 30
0.0
  3
矢印なし
  1

  0
ENDBLK
  5
6E5
  8
0
  0
BLOCK
  8
0
  2
*D4
 70
     1
 10
0.0
 20
0.0
 30
0.0
  3
*D4
  1

  0
LINE
  5
9F9
  8
250
  6
CONTINUOUS
 10
50.5
 20
-20.0
 30
0.0
 11
64.0
 21
-20.0
 31
0.0
  0
LINE
  5
9FA
  8
250
  6
CONTINUOUS
 10
50.5
 20
20.0
 30
0.0
 11
64.0
 21
20.0
 31
0.0
  0
LINE
  5
9FB
  8
250
  6
CONTINUOUS
 10
63.0
 20
-17.77
 30
0.0
 11
63.0
 21
17.77
 31
0.0
  0
INSERT
  5
9FC
  8
250
  6
CONTINUOUS
  2
_OPEN
 10
63.0
 20
-20.0
 30
0.0
 41
2.2299999999999991
 42
2.2299999999999991
 43
2.2299999999999991
 50
270.0
  0
INSERT
  5
9FD
  8
250
  6
CONTINUOUS
  2
_OPEN
 10
63.0
 20
20.0
 30
0.0
 41
2.2299999999999991
 42
2.2299999999999991
 43
2.2299999999999991
 50
90.0
  0
INSERT
  5
9FE
  8
245
  2
*U5
 10
0.0
 20
0.0
 30
0.0
  0
POINT
  5
9FF
  8
DEFPOINTS
  6
CONTINUOUS
 62
     0
 10
50.0
 20
-20.0
 30
0.0
  0
POINT
  5
A00
  8
DEFPOINTS
  6
CONTINUOUS
 62
     0
 10
50.0
 20
20.0
 30
0.0
  0
POINT
  5
A01
  8
DEFPOINTS
  6
CONTINUOUS
 62
     0
 10
63.0
 20
20.0
 30
0.0
  0
ENDBLK
  5
987
  8
0
  0
BLOCK
  8
0
  2
*U5
 70
     1
 10
0.0
 20
0.0
 30
0.0
  3
*U5
  1

  0
TEXT
  5
F17
  8
250
 62
    40
 10
62.0
 20
-3.7999999999999989
 30
0.0
 40
2.799999999999998
  1
\U+2205
 50
90.0
  0
TEXT
  5
F18
  8
250
 62
    40
 10
62.0
 20
-1.2666666666666671
 30
0.0
 40
2.799999999999998
  1
40
 50
90.0
  0
ENDBLK
  5
F1A
  8
0
  0
BLOCK
  8
0
  2
*D6
 70
     1
 10
0.0
 20
0.0
 30
0.0
  3
*D6
  1

  0
LINE
  5
A0B
  8
250
  6
CONTINUOUS
 10
39.0
 20
20.5
 30
0.0
 11
39.0
 21
32.5
 31
0.0
  0
LINE
  5
A0C
  8
250
  6
CONTINUOUS
 10
50.0
 20
20.5
 30
0.0
 11
50.0
 21
32.5
 31
0.0
  0
LINE
  5
A0D
  8
250
  6
CONTINUOUS
 10
41.229999999999997
 20
31.5
 30
0.0
 11
47.770000000000003
 21
31.5
 31
0.0
  0
INSERT
  5
A0E
  8
250
  6
CONTINUOUS
  2
_OPEN
 10
39.0
 20
31.5
 30
0.0
 41
2.2299999999999991
 42
2.2299999999999991
 43
2.2299999999999991
 50
180.0
  0
INSERT
  5
A0F
  8
250
  6
CONTINUOUS
  2
_OPEN
 10
50.0
 20
31.5
 30
0.0
 41
2.2299999999999991
 42
2.2299999999999991
 43
2.2299999999999991
  0
INSERT
  5
A10
  8
245
  2
*U7
 10
0.0
 20
0.0
 30
0.0
  0
POINT
  5
A11
  8
DEFPOINTS
  6
CONTINUOUS
 62
     0
 10
39.0
 20
20.0
 30
0.0
  0
POINT
  5
A12
  8
DEFPOINTS
  6
CONTINUOUS
 62
     0
 10
50.0
 20
20.0
 30
0.0
  0
POINT
  5
A13
  8
DEFPOINTS
  6
CONTINUOUS
 62
     0
 10
50.0
 20
31.5
 30
0.0
  0
ENDBLK
  5
996
  8
0
  0
BLOCK
  8
0
  2
*U7
 70
     1
 10
0.0
 20
0.0
 30
0.0
  3
*U7
  1

  0
TEXT
  5
F20
  8
250
 62
    40
 10
42.033333333333331
 20
32.5
 30
0.0
 40
2.799999999999998
  1
11
  0
ENDBLK
  5
F22
  8
0
  0
BLOCK
  8
0
  2
*D8
 70
     1
 10
0.0
 20
0.0
 30
0.0
  3
*D8
  1

  0
LINE
  5
A02
  8
250
  6
CONTINUOUS
 10
25.0
 20
19.899999999999999
 30
0.0
 11
25.0
 21
39.5
 31
0.0
  0
LINE
  5
A03
  8
250
  6
CONTINUOUS
 10
50.0
 20
20.5
 30
0.0
 11
50.0
 21
39.5
 31
0.0
  0
LINE
  5
A04
  8
250
  6
CONTINUOUS
 10
27.23
 20
38.5
 30
0.0
 11
47.770000000000003
 21
38.5
 31
0.0
  0
INSERT
  5
A05
  8
250
  6
CONTINUOUS
  2
_OPEN
 10
25.0
 20
38.5
 30
0.0
 41
2.2299999999999991
 42
2.2299999999999991
 43
2.2299999999999991
 50
180.0
  0
INSERT
  5
A06
  8
250
  6
CONTINUOUS
  2
_OPEN
 10
50.0
 20
38.5
 30
0.0
 41
2.2299999999999991
 42
2.2299999999999991
 43
2.2299999999999991
  0
INSERT
  5
A07
  8
245
  2
*U9
 10
0.0
 20
0.0
 30
0.0
  0
POINT
  5
A08
  8
DEFPOINTS
  6
CONTINUOUS
 62
     0
 10
25.0
 20
19.399999999999999
 30
0.0
  0
POINT
  5
A09
  8
DEFPOINTS
  6
CONTINUOUS
 62
     0
 10
50.0
 20
20.0
 30
0.0
  0
POINT
  5
A0A
  8
DEFPOINTS
  6
CONTINUOUS
 62
     0
 10
50.0
 20
38.5
 30
0.0
  0
ENDBLK
  5
9A5
  8
0
  0
BLOCK
  8
0
  2
*U9
 70
     1
 10
0.0
 20
0.0
 30
0.0
  3
*U9
  1

  0
TEXT
  5
F1C
  8
250
 62
    40
 10
34.833333333333343
 20
39.5
 30
0.0
 40
2.799999999999998
  1
25
  0
ENDBLK
  5
F1E
  8
0
  0
BLOCK
  8
0
  2
*D10
 70
     1
 10
0.0
 20
0.0
 30
0.0
  3
*D10
  1

  0
LINE
  5
9F0
  8
250
  6
CONTINUOUS
 10
0.0
 20
16.375
 30
0.0
 11
0.0
 21
46.5
 31
0.0
  0
LINE
  5
9F1
  8
250
  6
CONTINUOUS
 10
50.0
 20
20.5
 30
0.0
 11
50.0
 21
46.5
 31
0.0
  0
LINE
  5
9F2
  8
250
  6
CONTINUOUS
 10
2.2299999999999991
 20
45.499999999999993
 30
0.0
 11
47.770000000000003
 21
45.499999999999993
 31
0.0
  0
INSERT
  5
9F3
  8
250
  6
CONTINUOUS
  2
_OPEN
 10
0.0
 20
45.499999999999993
 30
0.0
 41
2.2299999999999991
 42
2.2299999999999991
 43
2.2299999999999991
 50
180.0
  0
INSERT
  5
9F4
  8
250
  6
CONTINUOUS
  2
_OPEN
 10
50.0
 20
45.499999999999993
 30
0.0
 41
2.2299999999999991
 42
2.2299999999999991
 43
2.2299999999999991
  0
INSERT
  5
9F5
  8
245
  2
*U11
 10
0.0
 20
0.0
 30
0.0
  0
POINT
  5
9F6
  8
DEFPOINTS
  6
CONTINUOUS
 62
     0
 10
0.0
 20
15.875
 30
0.0
  0
POINT
  5
9F7
  8
DEFPOINTS
  6
CONTINUOUS
 62
     0
 10
50.0
 20
20.0
 30
0.0
  0
POINT
  5
9F8
  8
DEFPOINTS
  6
CONTINUOUS
 62
     0
 10
50.0
 20
45.499999999999993
 30
0.0
  0
ENDBLK
  5
9B4
  8
0
  0
BLOCK
  8
0
  2
*U11
 70
     1
 10
0.0
 20
0.0
 30
0.0
  3
*U11
  1

  0
TEXT
  5
F13
  8
250
 62
    40
 10
22.333333333333339
 20
46.5
 30
0.0
 40
2.799999999999998
  1
50
  0
ENDBLK
  5
F15
  8
0
  0
BLOCK
  8
0
  2
1
 70
     0
 10
0.0
 20
0.0
 30
0.0
  3
1
  1

  0
LINE
  5
B8C
  8
241
  6
CONTINUOUS
 10
37.105124600000003
 20
0.66335082
 30
0.0
 11
49.399999999999999
 21
-3.8116178600000001
 31
0.0
1001
GRPNAME
1000
PASTMD0O
  0
LINE
  5
B8D
  8
241
  6
CONTINUOUS
 10
38.590494190000001
 20
3.7088097999999992
 30
0.0
 11
49.38670132
 21
1.8051471999999991
 31
0.0
1001
GRPNAME
1000
PASTMD0O
  0
LINE
  5
B8E
  8
240
  6
CONTINUOUS
 10
49.399999999999999
 20
-19.300000000000001
 30
0.0
 11
38.100000000000001
 21
-19.600000000000001
 31
0.0
1001
GRPNAME
1000
PASTMD0O
  0
LINE
  5
B8F
  8
240
  6
CONTINUOUS
 10
49.399999999999999
 20
19.300000000000001
 30
0.0
 11
38.100000000000001
 21
19.600000000000001
 31
0.0
1001
GRPNAME
1000
PASTMD0O
  0
LINE
  5
B90
  8
241
  6
CONTINUOUS
 10
26.2356607
 20
-6.6410552499999991
 30
0.0
 11
49.399999999999999
 21
-16.708980329999999
 31
0.0
1001
GRPNAME
1000
PASTMD0O
  0
LINE
  5
B91
  8
245
  6
CENTER2
 10
-49.399999999999999
 20
0.0
 30
0.0
 11
51.0
 21
0.0
 31
0.0
1001
GRPNAME
1000
PASTMD01
  0
LINE
  5
B92
  8
240
  6
CONTINUOUS
 10
-47.544310230000001
 20
8.9412910399999976
 30
0.0
 11
0.0
 21
15.875
 31
0.0
  0
LINE
  5
B93
  8
240
  6
CONTINUOUS
 10
-47.544310230000001
 20
-8.9412910399999976
 30
0.0
 11
0.0
 21
-15.875
 31
0.0
  0
LINE
  5
B94
  8
240
  6
CONTINUOUS
 10
-48.399999999999991
 20
-7.9517585400000002
 30
0.0
 11
-48.399999999999991
 21
0.0
 31
0.0
  0
ARC
  5
B95
  8
240
  6
CONTINUOUS
 10
-47.399999999999999
 20
-7.9517585400000002
 30
0.0
 40
1.0
 50
180.0
 51
261.70266184000002
  0
LINE
  5
B96
  8
240
  6
CONTINUOUS
 10
-48.399999999999991
 20
7.9517585400000002
 30
0.0
 11
-48.399999999999991
 21
0.0
 31
0.0
  0
ARC
  5
B97
  8
240
  6
CONTINUOUS
 10
-47.399999999999999
 20
7.9517585400000002
 30
0.0
 40
1.0
 50
98.297338159999995
 51
180.0
  0
LINE
  5
B98
  8
241
  6
CONTINUOUS
 10
22.0
 20
-20.399999999999999
 30
0.0
 11
22.0
 21
0.0
 31
0.0
  0
LINE
  5
B99
  8
241
 10
0.0
 20
-15.875
 30
0.0
 11
0.0
 21
0.0
 31
0.0
  0
LINE
  5
B9A
  8
241
 10
1.0
 20
0.0
 30
0.0
 11
1.0
 21
-15.875
 31
0.0
  0
LINE
  5
B9B
  8
245
  6
CENTER2
 10
13.6
 20
-23.0
 30
0.0
 11
13.6
 21
23.0
 31
0.0
  0
LINE
  5
B9C
  8
241
  6
CONTINUOUS
 10
15.290598920000001
 20
-19.0
 30
0.0
 11
15.290598920000001
 21
0.04377196
 31
0.0
  0
LINE
  5
B9D
  8
241
  6
CONTINUOUS
 10
17.600000000000001
 20
0.0
 30
0.0
 11
17.600000000000001
 21
-23.0
 31
0.0
  0
LINE
  5
B9E
  8
241
  6
CONTINUOUS
 10
11.90940108
 20
-19.0
 30
0.0
 11
11.90940108
 21
0.04377196
 31
0.0
  0
LINE
  5
B9F
  8
241
  6
CONTINUOUS
 10
9.5999999999999996
 20
-23.0
 30
0.0
 11
9.5999999999999996
 21
0.0
 31
0.0
  0
LINE
  5
BA0
  8
243
  6
HIDDEN2
 10
19.0
 20
-16.300000000000001
 30
0.0
 11
1.0
 21
-16.300000000000001
 31
0.0
  0
LINE
  5
BA1
  8
240
  6
CONTINUOUS
 10
9.5999999999999996
 20
-23.0
 30
0.0
 11
1.0
 21
-23.0
 31
0.0
  0
LINE
  5
BA2
  8
240
  6
CONTINUOUS
 10
1.0
 20
-15.875
 30
0.0
 11
1.0
 21
-23.0
 31
0.0
  0
LINE
  5
BA3
  8
240
 10
0.0
 20
-15.875
 30
0.0
 11
1.0
 21
-15.875
 31
0.0
  0
LINE
  5
BA4
  8
240
  6
CONTINUOUS
 10
17.600000000000001
 20
-23.0
 30
0.0
 11
22.0
 21
-23.0
 31
0.0
  0
LINE
  5
BA5
  8
240
  6
CONTINUOUS
 10
11.90940108
 20
-19.0
 30
0.0
 11
9.5999999999999996
 21
-23.0
 31
0.0
  0
LINE
  5
BA6
  8
240
  6
CONTINUOUS
 10
15.290598920000001
 20
-19.0
 30
0.0
 11
17.600000000000001
 21
-23.0
 31
0.0
  0
LINE
  5
BA7
  8
243
  6
HIDDEN2
 10
19.0
 20
-16.300000000000001
 30
0.0
 11
19.0
 21
-23.0
 31
0.0
  0
LINE
  5
BA8
  8
240
  6
CONTINUOUS
 10
11.90940108
 20
-19.0
 30
0.0
 11
15.290598920000001
 21
-19.0
 31
0.0
  0
LINE
  5
BA9
  8
240
  6
CONTINUOUS
 10
37.353589839999998
 20
-19.399999999999999
 30
0.0
 11
23.0
 21
-19.399999999999999
 31
0.0
1001
GRPNAME
1000
PASTMD0O
  0
ARC
  5
BAA
  8
240
  6
CONTINUOUS
 10
23.0
 20
-20.399999999999999
 30
0.0
 40
1.0
 50
90.0
 51
180.0
1001
GRPNAME
1000
PASTMD01
  0
LINE
  5
BAB
  8
240
  6
CONTINUOUS
 10
22.0
 20
-23.0
 30
0.0
 11
22.0
 21
-20.399999999999999
 31
0.0
  0
LINE
  5
BAC
  8
240
  6
CONTINUOUS
 10
37.353589839999998
 20
-19.399999999999999
 30
0.0
 11
38.100000000000001
 21
-19.600000000000001
 31
0.0
1001
GRPNAME
1000
PASTMD0O
  0
LINE
  5
BAD
  8
240
  6
CONTINUOUS
 10
9.5999999999999996
 20
23.0
 30
0.0
 11
1.0
 21
23.0
 31
0.0
  0
LINE
  5
BAE
  8
241
  6
HIDDEN2
 10
19.0
 20
16.300000000000001
 30
0.0
 11
1.0
 21
16.300000000000001
 31
0.0
  0
LINE
  5
BAF
  8
241
 10
0.0
 20
15.875
 30
0.0
 11
0.0
 21
0.0
 31
0.0
  0
LINE
  5
BB0
  8
241
 10
1.0
 20
0.0
 30
0.0
 11
1.0
 21
15.875
 31
0.0
  0
LINE
  5
BB1
  8
240
  6
CONTINUOUS
 10
1.0
 20
15.875
 30
0.0
 11
1.0
 21
23.0
 31
0.0
  0
LINE
  5
BB2
  8
240
 10
0.0
 20
15.875
 30
0.0
 11
1.0
 21
15.875
 31
0.0
  0
LINE
  5
BB3
  8
241
  6
CONTINUOUS
 10
22.0
 20
20.399999999999999
 30
0.0
 11
22.0
 21
0.0
 31
0.0
  0
LINE
  5
BB4
  8
241
  6
CONTINUOUS
 10
11.90940108
 20
19.0
 30
0.0
 11
11.90940108
 21
-0.04377196
 31
0.0
  0
LINE
  5
BB5
  8
241
  6
CONTINUOUS
 10
15.290598920000001
 20
19.0
 30
0.0
 11
15.290598920000001
 21
-0.04377196
 31
0.0
  0
LINE
  5
BB6
  8
241
  6
CONTINUOUS
 10
17.600000000000001
 20
0.0
 30
0.0
 11
17.600000000000001
 21
23.0
 31
0.0
  0
LINE
  5
BB7
  8
241
  6
CONTINUOUS
 10
9.5999999999999996
 20
23.0
 30
0.0
 11
9.5999999999999996
 21
0.0
 31
0.0
  0
ARC
  5
BB8
  8
241
  6
CONTINUOUS
 10
28.115167289999999
 20
-2.3166757999999992
 30
0.0
 40
4.7151672949827264
 50
79.999999959999982
 51
246.50875360000001
1001
GRPNAME
1000
PASTMD0O
  0
LINE
  5
BB9
  8
241
  6
CONTINUOUS
 10
28.933947499999999
 20
2.3268575099999991
 30
0.0
 11
37.20514464
 21
0.8684222899999999
 31
0.0
1001
GRPNAME
1000
PASTMD0O
  0
LINE
  5
BBA
  8
241
  6
CONTINUOUS
 10
38.590494190000001
 20
3.7088097999999992
 30
0.0
 11
37.105124600000003
 21
0.66335082
 31
0.0
1001
GRPNAME
1000
PASTMD0O
  0
LINE
  5
BBB
  8
240
  6
CONTINUOUS
 10
17.600000000000001
 20
23.0
 30
0.0
 11
22.0
 21
23.0
 31
0.0
  0
LINE
  5
BBC
  8
240
  6
CONTINUOUS
 10
11.90940108
 20
19.0
 30
0.0
 11
9.5999999999999996
 21
23.0
 31
0.0
  0
LINE
  5
BBD
  8
241
  6
HIDDEN2
 10
19.0
 20
16.300000000000001
 30
0.0
 11
19.0
 21
23.0
 31
0.0
  0
LINE
  5
BBE
  8
240
  6
CONTINUOUS
 10
15.290598920000001
 20
19.0
 30
0.0
 11
17.600000000000001
 21
23.0
 31
0.0
  0
LINE
  5
BBF
  8
240
  6
CONTINUOUS
 10
11.90940108
 20
19.0
 30
0.0
 11
15.290598920000001
 21
19.0
 31
0.0
  0
LINE
  5
BC0
  8
240
  6
CONTINUOUS
 10
37.353589839999998
 20
19.399999999999999
 30
0.0
 11
23.0
 21
19.399999999999999
 31
0.0
1001
GRPNAME
1000
PASTMD0O
  0
LINE
  5
BC1
  8
240
  6
CONTINUOUS
 10
22.0
 20
23.0
 30
0.0
 11
22.0
 21
20.399999999999999
 31
0.0
  0
ARC
  5
BC2
  8
240
  6
CONTINUOUS
 10
23.0
 20
20.399999999999999
 30
0.0
 40
1.0
 50
179.99999998999999
 51
269.99999998999999
1001
GRPNAME
1000
PASTMD01
  0
LINE
  5
BC3
  8
240
  6
CONTINUOUS
 10
37.353589839999998
 20
19.399999999999999
 30
0.0
 11
38.100000000000001
 21
19.600000000000001
 31
0.0
1001
GRPNAME
1000
PASTMD0O
  0
LINE
  5
BC4
  8
240
  6
CONTINUOUS
 10
49.399999999999999
 20
-19.300000000000001
 30
0.0
 11
49.399999999999999
 21
-3.8116178600000001
 31
0.0
1001
GRPNAME
1000
PASTMD0O
  0
LINE
  5
BC5
  8
246
 10
50.0
 20
-20.0
 30
0.0
 11
50.0
 21
20.0
 31
0.0
  0
LINE
  5
BC6
  8
246
 10
50.0
 20
-20.0
 30
0.0
 11
39.0
 21
-20.0
 31
0.0
  0
LINE
  5
BC7
  8
240
  6
CONTINUOUS
 10
49.399999999999999
 20
1.8028022800000001
 30
0.0
 11
49.399999999999999
 21
19.300000000000001
 31
0.0
1001
GRPNAME
1000
PASTMD0O
  0
POLYLINE
  5
BC8
  8
241
  6
CONTINUOUS
 66
     1
 10
0.0
 20
0.0
 30
0.0
1001
GRPNAME
1000
PASTMD0O
  0
VERTEX
  5
F24
  8
241
  6
CONTINUOUS
 10
43.417630200000012
 20
12.426442120000001
 30
0.0
  0
VERTEX
  5
F25
  8
241
  6
CONTINUOUS
 10
43.39773529
 20
12.30254334
 30
0.0
  0
VERTEX
  5
F26
  8
241
  6
CONTINUOUS
 10
43.381657529999998
 20
12.178235900000001
 30
0.0
  0
VERTEX
  5
F27
  8
241
  6
CONTINUOUS
 10
43.369430260000001
 20
12.05377741
 30
0.0
  0
VERTEX
  5
F28
  8
241
  6
CONTINUOUS
 10
43.361078799999987
 20
11.929425820000001
 30
0.0
  0
VERTEX
  5
F29
  8
241
  6
CONTINUOUS
 10
43.356620470000003
 20
11.805438840000001
 30
0.0
  0
VERTEX
  5
F2A
  8
241
  6
CONTINUOUS
 10
43.356064500000002
 20
11.682073450000001
 30
0.0
  0
VERTEX
  5
F2B
  8
241
  6
CONTINUOUS
 10
43.359412059999997
 20
11.5595853
 30
0.0
  0
VERTEX
  5
F2C
  8
241
  6
CONTINUOUS
 10
43.36665619
 20
11.43822827
 30
0.0
  0
VERTEX
  5
F2D
  8
241
  6
CONTINUOUS
 10
43.377781890000001
 20
11.31825385
 30
0.0
  0
VERTEX
  5
F2E
  8
241
  6
CONTINUOUS
 10
43.392766100000003
 20
11.1999107
 30
0.0
  0
VERTEX
  5
F2F
  8
241
  6
CONTINUOUS
 10
43.411577770000001
 20
11.08344408
 30
0.0
  0
VERTEX
  5
F30
  8
241
  6
CONTINUOUS
 10
43.434177899999987
 20
10.969095360000001
 30
0.0
  0
VERTEX
  5
F31
  8
241
  6
CONTINUOUS
 10
43.460519660000003
 20
10.857101549999999
 30
0.0
  0
VERTEX
  5
F32
  8
241
  6
CONTINUOUS
 10
43.490548459999999
 20
10.747694729999999
 30
0.0
  0
VERTEX
  5
F33
  8
241
  6
CONTINUOUS
 10
43.52420206
 20
10.64110166
 30
0.0
  0
VERTEX
  5
F34
  8
241
  6
CONTINUOUS
 10
43.561410719999976
 20
10.53754324
 30
0.0
  0
VERTEX
  5
F35
  8
241
  6
CONTINUOUS
 10
43.602097309999998
 20
10.437234119999999
 30
0.0
  0
VERTEX
  5
F36
  8
241
  6
CONTINUOUS
 10
43.646177520000002
 20
10.340382160000001
 30
0.0
  0
VERTEX
  5
F37
  8
241
  6
CONTINUOUS
 10
43.693559999999977
 20
10.247188100000001
 30
0.0
  0
VERTEX
  5
F38
  8
241
  6
CONTINUOUS
 10
43.744146530000002
 20
10.15784509
 30
0.0
  0
VERTEX
  5
F39
  8
241
  6
CONTINUOUS
 10
43.797832290000002
 20
10.07253828
 30
0.0
  0
VERTEX
  5
F3A
  8
241
  6
CONTINUOUS
 10
43.854506000000001
 20
9.9914444699999994
 30
0.0
  0
VERTEX
  5
F3B
  8
241
  6
CONTINUOUS
 10
43.914050219999993
 20
9.9147317400000006
 30
0.0
  0
VERTEX
  5
F3C
  8
241
  6
CONTINUOUS
 10
43.976341529999999
 20
9.8425590599999992
 30
0.0
  0
VERTEX
  5
F3D
  8
241
  6
CONTINUOUS
 10
44.041250839999989
 20
9.7750760099999994
 30
0.0
  0
VERTEX
  5
F3E
  8
241
  6
CONTINUOUS
 10
44.108643620000002
 20
9.7124224600000009
 30
0.0
  0
VERTEX
  5
F3F
  8
241
  6
CONTINUOUS
 10
44.17838021
 20
9.6547282400000007
 30
0.0
  0
VERTEX
  5
F40
  8
241
  6
CONTINUOUS
 10
44.250316069999997
 20
9.6021129399999996
 30
0.0
  0
VERTEX
  5
F41
  8
241
  6
CONTINUOUS
 10
44.324302129999992
 20
9.5546855900000001
 30
0.0
  0
VERTEX
  5
F42
  8
241
  6
CONTINUOUS
 10
44.400185030000003
 20
9.5125445000000006
 30
0.0
  0
VERTEX
  5
F43
  8
241
  6
CONTINUOUS
 10
44.477807519999992
 20
9.4757769899999982
 30
0.0
  0
VERTEX
  5
F44
  8
241
  6
CONTINUOUS
 10
44.557008719999999
 20
9.4444592699999994
 30
0.0
  0
VERTEX
  5
F45
  8
241
  6
CONTINUOUS
 10
44.637624489999993
 20
9.4186562400000007
 30
0.0
  0
VERTEX
  5
F46
  8
241
  6
CONTINUOUS
 10
44.71948776
 20
9.3984213800000003
 30
0.0
  0
VERTEX
  5
F47
  8
241
  6
CONTINUOUS
 10
44.802428849999998
 20
9.3837966300000009
 30
0.0
  0
VERTEX
  5
F48
  8
241
  6
CONTINUOUS
 10
44.88627589
 20
9.3748122899999995
 30
0.0
  0
VERTEX
  5
F49
  8
241
  6
CONTINUOUS
 10
44.970855090000001
 20
9.3714869899999993
 30
0.0
  0
VERTEX
  5
F4A
  8
241
  6
CONTINUOUS
 10
45.055991169999999
 20
9.3738276099999993
 30
0.0
  0
VERTEX
  5
F4B
  8
241
  6
CONTINUOUS
 10
45.141507679999989
 20
9.3818293100000005
 30
0.0
  0
VERTEX
  5
F4C
  8
241
  6
CONTINUOUS
 10
45.227227380000002
 20
9.3954755100000007
 30
0.0
  0
VERTEX
  5
F4D
  8
241
  6
CONTINUOUS
 10
45.312972639999991
 20
9.4147379200000003
 30
0.0
  0
VERTEX
  5
F4E
  8
241
  6
CONTINUOUS
 10
45.398565730000001
 20
9.4395766099999996
 30
0.0
  0
VERTEX
  5
F4F
  8
241
  6
CONTINUOUS
 10
45.483829270000001
 20
9.4699401200000004
 30
0.0
  0
VERTEX
  5
F50
  8
241
  6
CONTINUOUS
 10
45.568586549999999
 20
9.5057655200000006
 30
0.0
  0
VERTEX
  5
F51
  8
241
  6
CONTINUOUS
 10
45.652661909999999
 20
9.5469785399999996
 30
0.0
  0
VERTEX
  5
F52
  8
241
  6
CONTINUOUS
 10
45.735881110000001
 20
9.5934937999999992
 30
0.0
  0
VERTEX
  5
F53
  8
241
  6
CONTINUOUS
 10
45.818071670000002
 20
9.6452148700000002
 30
0.0
  0
VERTEX
  5
F54
  8
241
  6
CONTINUOUS
 10
45.899063259999998
 20
9.7020345700000004
 30
0.0
  0
VERTEX
  5
F55
  8
241
  6
CONTINUOUS
 10
45.978688009999992
 20
9.7638351399999994
 30
0.0
  0
VERTEX
  5
F56
  8
241
  6
CONTINUOUS
 10
46.056780910000001
 20
9.8304884900000005
 30
0.0
  0
VERTEX
  5
F57
  8
241
  6
CONTINUOUS
 10
46.133180119999992
 20
9.9018564999999992
 30
0.0
  0
VERTEX
  5
F58
  8
241
  6
CONTINUOUS
 10
46.207727290000001
 20
9.9777912499999992
 30
0.0
  0
VERTEX
  5
F59
  8
241
  6
CONTINUOUS
 10
46.28026792
 20
10.05813536
 30
0.0
  0
VERTEX
  5
F5A
  8
241
  6
CONTINUOUS
 10
46.350651689999992
 20
10.14272233
 30
0.0
  0
VERTEX
  5
F5B
  8
241
  6
CONTINUOUS
 10
46.4187327
 20
10.231376839999999
 30
0.0
  0
VERTEX
  5
F5C
  8
241
  6
CONTINUOUS
 10
46.484369880000003
 20
10.323915169999999
 30
0.0
  0
VERTEX
  5
F5D
  8
241
  6
CONTINUOUS
 10
46.54742718
 20
10.42014552
 30
0.0
  0
VERTEX
  5
F5E
  8
241
  6
CONTINUOUS
 10
46.607773919999993
 20
10.51986846
 30
0.0
  0
VERTEX
  5
F5F
  8
241
  6
CONTINUOUS
 10
46.665285040000001
 20
10.62287731
 30
0.0
  0
VERTEX
  5
F60
  8
241
  6
CONTINUOUS
 10
46.719841330000001
 20
10.7289586
 30
0.0
  0
VERTEX
  5
F61
  8
241
  6
CONTINUOUS
 10
46.771329739999999
 20
10.837892460000001
 30
0.0
  0
VERTEX
  5
F62
  8
241
  6
CONTINUOUS
 10
46.819643550000002
 20
10.94945313
 30
0.0
  0
VERTEX
  5
F63
  8
241
  6
CONTINUOUS
 10
46.864682629999997
 20
11.06340941
 30
0.0
  0
VERTEX
  5
F64
  8
241
  6
CONTINUOUS
 10
46.90635365
 20
11.17952511
 30
0.0
  0
VERTEX
  5
F65
  8
241
  6
CONTINUOUS
 10
46.944570229999997
 20
11.297559590000001
 30
0.0
  0
VERTEX
  5
F66
  8
241
  6
CONTINUOUS
 10
46.97925317
 20
11.417268229999999
 30
0.0
  0
VERTEX
  5
F67
  8
241
  6
CONTINUOUS
 10
47.010330600000003
 20
11.53840293
 30
0.0
  0
VERTEX
  5
F68
  8
241
  6
CONTINUOUS
 10
47.037738109999999
 20
11.66071264
 30
0.0
  0
VERTEX
  5
F69
  8
241
  6
CONTINUOUS
 10
47.061418879999998
 20
11.783943860000001
 30
0.0
  0
SEQEND
  5
F6A
  8
241
  6
CONTINUOUS
  0
POLYLINE
  5
BC9
  8
241
  6
CONTINUOUS
 66
     1
 10
0.0
 20
0.0
 30
0.0
1001
GRPNAME
1000
PASTMD0O
  0
VERTEX
  5
F6B
  8
241
  6
CONTINUOUS
 10
47.061418879999998
 20
11.783943860000001
 30
0.0
  0
VERTEX
  5
F6C
  8
241
  6
CONTINUOUS
 10
47.07534381
 20
11.873965399999999
 30
0.0
  0
VERTEX
  5
F6D
  8
241
  6
CONTINUOUS
 10
47.085463789999999
 20
11.96446611
 30
0.0
  0
VERTEX
  5
F6E
  8
241
  6
CONTINUOUS
 10
47.091757860000001
 20
12.05525841
 30
0.0
  0
VERTEX
  5
F6F
  8
241
  6
CONTINUOUS
 10
47.094212970000001
 20
12.146154129999999
 30
0.0
  0
VERTEX
  5
F70
  8
241
  6
CONTINUOUS
 10
47.092824030000003
 20
12.23696488
 30
0.0
  0
VERTEX
  5
F71
  8
241
  6
CONTINUOUS
 10
47.087593920000003
 20
12.32750244
 30
0.0
  0
VERTEX
  5
F72
  8
241
  6
CONTINUOUS
 10
47.078533489999991
 20
12.41757917
 30
0.0
  0
VERTEX
  5
F73
  8
241
  6
CONTINUOUS
 10
47.06566149999999
 20
12.507008369999999
 30
0.0
  0
VERTEX
  5
F74
  8
241
  6
CONTINUOUS
 10
47.049004629999999
 20
12.59560469
 30
0.0
  0
VERTEX
  5
F75
  8
241
  6
CONTINUOUS
 10
47.028597419999997
 20
12.68318451
 30
0.0
  0
VERTEX
  5
F76
  8
241
  6
CONTINUOUS
 10
47.004482160000002
 20
12.76956631
 30
0.0
  0
VERTEX
  5
F77
  8
241
  6
CONTINUOUS
 10
46.976708819999992
 20
12.854571050000001
 30
0.0
  0
VERTEX
  5
F78
  8
241
  6
CONTINUOUS
 10
46.945334969999998
 20
12.938022549999999
 30
0.0
  0
VERTEX
  5
F79
  8
241
  6
CONTINUOUS
 10
46.910425639999993
 20
13.019747840000001
 30
0.0
  0
VERTEX
  5
F7A
  8
241
  6
CONTINUOUS
 10
46.872053180000002
 20
13.09957756
 30
0.0
  0
VERTEX
  5
F7B
  8
241
  6
CONTINUOUS
 10
46.830297119999983
 20
13.177346229999999
 30
0.0
  0
VERTEX
  5
F7C
  8
241
  6
CONTINUOUS
 10
46.785244009999992
 20
13.25289268
 30
0.0
  0
VERTEX
  5
F7D
  8
241
  6
CONTINUOUS
 10
46.736987220000003
 20
13.32606032
 30
0.0
  0
VERTEX
  5
F7E
  8
241
  6
CONTINUOUS
 10
46.685626759999991
 20
13.39669752
 30
0.0
  0
VERTEX
  5
F7F
  8
241
  6
CONTINUOUS
 10
46.63126909999999
 20
13.464657860000001
 30
0.0
  0
VERTEX
  5
F80
  8
241
  6
CONTINUOUS
 10
46.574026889999999
 20
13.5298005
 30
0.0
  0
VERTEX
  5
F81
  8
241
  6
CONTINUOUS
 10
46.514018759999999
 20
13.591990409999999
 30
0.0
  0
VERTEX
  5
F82
  8
241
  6
CONTINUOUS
 10
46.451369110000002
 20
13.6510987
 30
0.0
  0
VERTEX
  5
F83
  8
241
  6
CONTINUOUS
 10
46.386207759999976
 20
13.70700287
 30
0.0
  0
VERTEX
  5
F84
  8
241
  6
CONTINUOUS
 10
46.31866978
 20
13.75958705
 30
0.0
  0
VERTEX
  5
F85
  8
241
  6
CONTINUOUS
 10
46.248895150000003
 20
13.80874225
 30
0.0
  0
VERTEX
  5
F86
  8
241
  6
CONTINUOUS
 10
46.17702847999999
 20
13.85436659
 30
0.0
  0
VERTEX
  5
F87
  8
241
  6
CONTINUOUS
 10
46.103218720000001
 20
13.8963655
 30
0.0
  0
VERTEX
  5
F88
  8
241
  6
CONTINUOUS
 10
46.027618850000003
 20
13.93465196
 30
0.0
  0
VERTEX
  5
F89
  8
241
  6
CONTINUOUS
 10
45.950385560000001
 20
13.969146589999999
 30
0.0
  0
VERTEX
  5
F8A
  8
241
  6
CONTINUOUS
 10
45.871678920000001
 20
13.999777910000001
 30
0.0
  0
VERTEX
  5
F8B
  8
241
  6
CONTINUOUS
 10
45.79166206
 20
14.02648243
 30
0.0
  0
VERTEX
  5
F8C
  8
241
  6
CONTINUOUS
 10
45.710500830000001
 20
14.0492048
 30
0.0
  0
VERTEX
  5
F8D
  8
241
  6
CONTINUOUS
 10
45.628363439999987
 20
14.067897930000001
 30
0.0
  0
VERTEX
  5
F8E
  8
241
  6
CONTINUOUS
 10
45.545420120000003
 20
14.08252308
 30
0.0
  0
VERTEX
  5
F8F
  8
241
  6
CONTINUOUS
 10
45.461842789999999
 20
14.09304992
 30
0.0
  0
VERTEX
  5
F90
  8
241
  6
CONTINUOUS
 10
45.377804670000003
 20
14.09945665
 30
0.0
  0
VERTEX
  5
F91
  8
241
  6
CONTINUOUS
 10
45.293479939999997
 20
14.101729990000001
 30
0.0
  0
VERTEX
  5
F92
  8
241
  6
CONTINUOUS
 10
45.209043360000003
 20
14.09986522
 30
0.0
  0
VERTEX
  5
F93
  8
241
  6
CONTINUOUS
 10
45.124669949999991
 20
14.09386621
 30
0.0
  0
VERTEX
  5
F94
  8
241
  6
CONTINUOUS
 10
45.040534569999998
 20
14.083745390000001
 30
0.0
  0
VERTEX
  5
F95
  8
241
  6
CONTINUOUS
 10
44.956811610000003
 20
14.069523739999999
 30
0.0
  0
VERTEX
  5
F96
  8
241
  6
CONTINUOUS
 10
44.87367459
 20
14.051230739999999
 30
0.0
  0
VERTEX
  5
F97
  8
241
  6
CONTINUOUS
 10
44.791295810000001
 20
14.02890429
 30
0.0
  0
VERTEX
  5
F98
  8
241
  6
CONTINUOUS
 10
44.709846020000001
 20
14.002590680000001
 30
0.0
  0
VERTEX
  5
F99
  8
241
  6
CONTINUOUS
 10
44.629494039999983
 20
13.97234443
 30
0.0
  0
VERTEX
  5
F9A
  8
241
  6
CONTINUOUS
 10
44.550406389999992
 20
13.93822825
 30
0.0
  0
VERTEX
  5
F9B
  8
241
  6
CONTINUOUS
 10
44.472746999999998
 20
13.900312830000001
 30
0.0
  0
VERTEX
  5
F9C
  8
241
  6
CONTINUOUS
 10
44.396676820000003
 20
13.858676770000001
 30
0.0
  0
VERTEX
  5
F9D
  8
241
  6
CONTINUOUS
 10
44.322353509999999
 20
13.813406349999999
 30
0.0
  0
VERTEX
  5
F9E
  8
241
  6
CONTINUOUS
 10
44.24993113
 20
13.76459541
 30
0.0
  0
VERTEX
  5
F9F
  8
241
  6
CONTINUOUS
 10
44.179559769999997
 20
13.712345109999999
 30
0.0
  0
VERTEX
  5
FA0
  8
241
  6
CONTINUOUS
 10
44.111385290000001
 20
13.656763740000001
 30
0.0
  0
VERTEX
  5
FA1
  8
241
  6
CONTINUOUS
 10
44.045548969999992
 20
13.597966509999999
 30
0.0
  0
VERTEX
  5
FA2
  8
241
  6
CONTINUOUS
 10
43.982187289999978
 20
13.53607527
 30
0.0
  0
VERTEX
  5
FA3
  8
241
  6
CONTINUOUS
 10
43.921431550000001
 20
13.471218309999999
 30
0.0
  0
VERTEX
  5
FA4
  8
241
  6
CONTINUOUS
 10
43.863407680000002
 20
13.40353004
 30
0.0
  0
VERTEX
  5
FA5
  8
241
  6
CONTINUOUS
 10
43.808235949999982
 20
13.33315075
 30
0.0
  0
VERTEX
  5
FA6
  8
241
  6
CONTINUOUS
 10
43.75603069999999
 20
13.260226319999999
 30
0.0
  0
VERTEX
  5
FA7
  8
241
  6
CONTINUOUS
 10
43.706900129999987
 20
13.18490789
 30
0.0
  0
VERTEX
  5
FA8
  8
241
  6
CONTINUOUS
 10
43.660946069999987
 20
13.10735156
 30
0.0
  0
VERTEX
  5
FA9
  8
241
  6
CONTINUOUS
 10
43.618263769999977
 20
13.02771808
 30
0.0
  0
VERTEX
  5
FAA
  8
241
  6
CONTINUOUS
 10
43.578941690000001
 20
12.946172499999999
 30
0.0
  0
VERTEX
  5
FAB
  8
241
  6
CONTINUOUS
 10
43.54306132
 20
12.86288382
 30
0.0
  0
VERTEX
  5
FAC
  8
241
  6
CONTINUOUS
 10
43.510697039999989
 20
12.778024670000001
 30
0.0
  0
VERTEX
  5
FAD
  8
241
  6
CONTINUOUS
 10
43.481915919999999
 20
12.69177094
 30
0.0
  0
VERTEX
  5
FAE
  8
241
  6
CONTINUOUS
 10
43.456777619999997
 20
12.604301380000001
 30
0.0
  0
VERTEX
  5
FAF
  8
241
  6
CONTINUOUS
 10
43.435334230000002
 20
12.515797299999999
 30
0.0
  0
VERTEX
  5
FB0
  8
241
  6
CONTINUOUS
 10
43.417630200000012
 20
12.426442120000001
 30
0.0
  0
SEQEND
  5
FB1
  8
241
  6
CONTINUOUS
  0
LINE
  5
BCA
  8
240
  6
CONTINUOUS
 10
49.38670132
 20
1.8051471999999991
 30
0.0
 11
50.0
 21
-4.0300000000000002
 31
0.0
1001
GRPNAME
1000
PASTMD0O
  0
LINE
  5
BCB
  8
240
  6
CONTINUOUS
 10
49.399999999999999
 20
-3.8116178600000001
 30
0.0
 11
50.0
 21
-4.0300000000000002
 31
0.0
1001
GRPNAME
1000
PASTMD0O
  0
LINE
  5
BCC
  8
240
  6
CONTINUOUS
 10
49.399999999999999
 20
1.8028022800000001
 30
0.0
 11
49.38670132
 21
1.8051471999999991
 31
0.0
1001
GRPNAME
1000
PASTMD0O
  0
LINE
  5
BCD
  8
246
 10
50.0
 20
20.0
 30
0.0
 11
39.0
 21
20.0
 31
0.0
  0
ENDBLK
  5
A16
  8
0
  0
BLOCK
  8
0
  2
GENAXEH
 70
     0
 10
0.0
 20
0.0
 30
0.0
  3
GENAXEH
  1

  0
LINE
  5
CC0
  8
0
 10
-1.0
 20
0.0
 30
0.0
 11
1.0
 21
0.0
 31
0.0
  0
ENDBLK
  5
CC1
  8
0
  0
BLOCK
  8
0
  2
_OPEN30
 70
     0
 10
0.0
 20
0.0
 30
0.0
  3
_OPEN30
  1

  0
LINE
  5
CE5
  8
0
  6
BYBLOCK
 62
     0
 10
-1.0
 20
0.26794919
 30
0.0
 11
0.0
 21
0.0
 31
0.0
  0
LINE
  5
CE6
  8
0
  6
BYBLOCK
 62
     0
 10
0.0
 20
0.0
 30
0.0
 11
-1.0
 21
-0.26794919
 31
0.0
  0
LINE
  5
CE7
  8
0
  6
BYBLOCK
 62
     0
 10
0.0
 20
0.0
 30
0.0
 11
-1.0
 21
0.0
 31
0.0
  0
ENDBLK
  5
CE8
  8
0
  0
ENDSEC
  0
SECTION
  2
ENTITIES
  0
INSERT
  5
6E6
  8
245
  2
矢印なし
 10
175.62382697000001
 20
90.551235719999994
 30
0.0
  0
TEXT
  5
898
  8
241
 10
-48.399999999999991
 20
59.5
 30
0.0
 40
5.0
  1
BBT30-FCM40114-50
  7
YOKO
 11
-48.399999999999991
 21
59.5
 31
0.0
 73
     1
  0
LINE
  5
B44
  8
250
 10
-27.508737409999998
 20
-21.238842340000001
 30
0.0
 11
-45.242070740000003
 21
-21.238842340000001
 31
0.0
1001
ITEMNAME
1000
LNSP2
  0
LINE
  5
D00
  8
245
  6
CENTER2
 10
-49.399999999999999
 20
0.0
 30
0.0
 11
51.0
 21
0.0
 31
0.0
1001
GRPNAME
1000
PASTMD01
  0
LINE
  5
D01
  8
240
  6
CONTINUOUS
 10
-47.544310230000001
 20
8.9412910399999976
 30
0.0
 11
0.0
 21
15.875
 31
0.0
  0
LINE
  5
D02
  8
240
  6
CONTINUOUS
 10
-47.544310230000001
 20
-8.9412910399999976
 30
0.0
 11
0.0
 21
-15.875
 31
0.0
  0
LINE
  5
D03
  8
240
  6
CONTINUOUS
 10
-48.399999999999991
 20
-7.9517585400000002
 30
0.0
 11
-48.399999999999991
 21
0.0
 31
0.0
  0
ARC
  5
D04
  8
240
  6
CONTINUOUS
 10
-47.399999999999999
 20
-7.9517585400000002
 30
0.0
 40
1.0
 50
180.0
 51
261.70266184000002
  0
LINE
  5
D05
  8
240
  6
CONTINUOUS
 10
-48.399999999999991
 20
7.9517585400000002
 30
0.0
 11
-48.399999999999991
 21
0.0
 31
0.0
  0
ARC
  5
D06
  8
240
  6
CONTINUOUS
 10
-47.399999999999999
 20
7.9517585400000002
 30
0.0
 40
1.0
 50
98.297338159999995
 51
180.0
  0
LINE
  5
D07
  8
241
  6
CONTINUOUS
 10
22.0
 20
-20.399999999999999
 30
0.0
 11
22.0
 21
0.0
 31
0.0
  0
LINE
  5
D08
  8
241
 10
0.0
 20
-15.875
 30
0.0
 11
0.0
 21
0.0
 31
0.0
  0
LINE
  5
D09
  8
241
 10
1.0
 20
0.0
 30
0.0
 11
1.0
 21
-15.875
 31
0.0
  0
LINE
  5
D0A
  8
245
  6
CENTER2
 10
13.6
 20
-23.0
 30
0.0
 11
13.6
 21
23.0
 31
0.0
  0
LINE
  5
D0B
  8
241
  6
CONTINUOUS
 10
15.290598920000001
 20
-19.0
 30
0.0
 11
15.290598920000001
 21
0.04377196
 31
0.0
  0
LINE
  5
D0C
  8
241
  6
CONTINUOUS
 10
17.600000000000001
 20
0.0
 30
0.0
 11
17.600000000000001
 21
-23.0
 31
0.0
  0
LINE
  5
D0D
  8
241
  6
CONTINUOUS
 10
11.90940108
 20
-19.0
 30
0.0
 11
11.90940108
 21
0.04377196
 31
0.0
  0
LINE
  5
D0E
  8
241
  6
CONTINUOUS
 10
9.5999999999999996
 20
-23.0
 30
0.0
 11
9.5999999999999996
 21
0.0
 31
0.0
  0
LINE
  5
D0F
  8
243
  6
HIDDEN2
 10
19.0
 20
-16.300000000000001
 30
0.0
 11
1.0
 21
-16.300000000000001
 31
0.0
  0
LINE
  5
D10
  8
240
  6
CONTINUOUS
 10
9.5999999999999996
 20
-23.0
 30
0.0
 11
1.0
 21
-23.0
 31
0.0
  0
LINE
  5
D11
  8
240
  6
CONTINUOUS
 10
1.0
 20
-15.875
 30
0.0
 11
1.0
 21
-23.0
 31
0.0
  0
LINE
  5
D12
  8
240
 10
0.0
 20
-15.875
 30
0.0
 11
1.0
 21
-15.875
 31
0.0
  0
LINE
  5
D13
  8
240
  6
CONTINUOUS
 10
17.600000000000001
 20
-23.0
 30
0.0
 11
22.0
 21
-23.0
 31
0.0
  0
LINE
  5
D14
  8
240
  6
CONTINUOUS
 10
11.90940108
 20
-19.0
 30
0.0
 11
9.5999999999999996
 21
-23.0
 31
0.0
  0
LINE
  5
D15
  8
240
  6
CONTINUOUS
 10
15.290598920000001
 20
-19.0
 30
0.0
 11
17.600000000000001
 21
-23.0
 31
0.0
  0
LINE
  5
D16
  8
243
  6
HIDDEN2
 10
19.0
 20
-16.300000000000001
 30
0.0
 11
19.0
 21
-23.0
 31
0.0
  0
LINE
  5
D17
  8
240
  6
CONTINUOUS
 10
11.90940108
 20
-19.0
 30
0.0
 11
15.290598920000001
 21
-19.0
 31
0.0
  0
LINE
  5
D18
  8
240
  6
CONTINUOUS
 10
37.353589839999998
 20
-19.399999999999999
 30
0.0
 11
23.0
 21
-19.399999999999999
 31
0.0
1001
GRPNAME
1000
PASTMD0O
  0
ARC
  5
D19
  8
240
  6
CONTINUOUS
 10
23.0
 20
-20.399999999999999
 30
0.0
 40
1.0
 50
90.0
 51
180.0
1001
GRPNAME
1000
PASTMD01
  0
LINE
  5
D1A
  8
240
  6
CONTINUOUS
 10
22.0
 20
-23.0
 30
0.0
 11
22.0
 21
-20.399999999999999
 31
0.0
  0
LINE
  5
D1C
  8
240
  6
CONTINUOUS
 10
9.5999999999999996
 20
23.0
 30
0.0
 11
1.0
 21
23.0
 31
0.0
  0
LINE
  5
D1D
  8
241
  6
HIDDEN2
 10
19.0
 20
16.300000000000001
 30
0.0
 11
1.0
 21
16.300000000000001
 31
0.0
  0
LINE
  5
D1E
  8
241
 10
0.0
 20
15.875
 30
0.0
 11
0.0
 21
0.0
 31
0.0
  0
LINE
  5
D1F
  8
241
 10
1.0
 20
0.0
 30
0.0
 11
1.0
 21
15.875
 31
0.0
  0
LINE
  5
D20
  8
240
  6
CONTINUOUS
 10
1.0
 20
15.875
 30
0.0
 11
1.0
 21
23.0
 31
0.0
  0
LINE
  5
D21
  8
240
 10
0.0
 20
15.875
 30
0.0
 11
1.0
 21
15.875
 31
0.0
  0
LINE
  5
D22
  8
241
  6
CONTINUOUS
 10
22.0
 20
20.399999999999999
 30
0.0
 11
22.0
 21
0.0
 31
0.0
  0
LINE
  5
D23
  8
241
  6
CONTINUOUS
 10
11.90940108
 20
19.0
 30
0.0
 11
11.90940108
 21
-0.04377196
 31
0.0
  0
LINE
  5
D24
  8
241
  6
CONTINUOUS
 10
15.290598920000001
 20
19.0
 30
0.0
 11
15.290598920000001
 21
-0.04377196
 31
0.0
  0
LINE
  5
D25
  8
241
  6
CONTINUOUS
 10
17.600000000000001
 20
0.0
 30
0.0
 11
17.600000000000001
 21
23.0
 31
0.0
  0
LINE
  5
D26
  8
241
  6
CONTINUOUS
 10
9.5999999999999996
 20
23.0
 30
0.0
 11
9.5999999999999996
 21
0.0
 31
0.0
  0
LINE
  5
D2A
  8
240
  6
CONTINUOUS
 10
17.600000000000001
 20
23.0
 30
0.0
 11
22.0
 21
23.0
 31
0.0
  0
LINE
  5
D2B
  8
240
  6
CONTINUOUS
 10
11.90940108
 20
19.0
 30
0.0
 11
9.5999999999999996
 21
23.0
 31
0.0
  0
LINE
  5
D2C
  8
241
  6
HIDDEN2
 10
19.0
 20
16.300000000000001
 30
0.0
 11
19.0
 21
23.0
 31
0.0
  0
LINE
  5
D2D
  8
240
  6
CONTINUOUS
 10
15.290598920000001
 20
19.0
 30
0.0
 11
17.600000000000001
 21
23.0
 31
0.0
  0
LINE
  5
D2E
  8
240
  6
CONTINUOUS
 10
11.90940108
 20
19.0
 30
0.0
 11
15.290598920000001
 21
19.0
 31
0.0
  0
LINE
  5
D2F
  8
240
  6
CONTINUOUS
 10
37.484296789270047
 20
19.399999999999999
 30
0.0
 11
23.0
 21
19.399999999999999
 31
0.0
1001
GRPNAME
1000
PASTMD0O
  0
LINE
  5
D30
  8
240
  6
CONTINUOUS
 10
22.0
 20
23.0
 30
0.0
 11
22.0
 21
20.399999999999999
 31
0.0
  0
ARC
  5
D31
  8
240
  6
CONTINUOUS
 10
23.0
 20
20.399999999999999
 30
0.0
 40
1.0
 50
179.99999998999999
 51
269.99999998999988
1001
GRPNAME
1000
PASTMD01
  0
LINE
  5
D64
  8
250
 10
0.0
 20
16.375
 30
0.0
 11
0.0
 21
46.5
 31
0.0
  0
LINE
  5
D65
  8
250
 10
50.0
 20
20.5
 30
0.0
 11
50.0
 21
46.5
 31
0.0
  0
LINE
  5
D66
  8
250
 10
2.2299999999999991
 20
45.499999999999993
 30
0.0
 11
47.770000000000003
 21
45.499999999999993
 31
0.0
  0
LINE
  5
D6A
  8
250
 10
25.0
 20
19.899999999999999
 30
0.0
 11
25.0
 21
39.5
 31
0.0
  0
LINE
  5
D6B
  8
250
 10
50.0
 20
20.5
 30
0.0
 11
50.0
 21
39.5
 31
0.0
  0
LINE
  5
D6C
  8
250
 10
27.23
 20
38.5
 30
0.0
 11
47.770000000000003
 21
38.5
 31
0.0
  0
LINE
  5
D70
  8
250
 10
39.0
 20
20.5
 30
0.0
 11
39.0
 21
32.5
 31
0.0
  0
LINE
  5
D71
  8
250
 10
50.0
 20
20.5
 30
0.0
 11
50.0
 21
32.5
 31
0.0
  0
LINE
  5
D72
  8
250
 10
41.229999999999997
 20
31.5
 30
0.0
 11
47.770000000000003
 21
31.5
 31
0.0
  0
TEXT
  5
D76
  8
250
 10
22.333333333333339
 20
46.5
 30
0.0
 40
2.799999999999998
  1
50
1001
ACAD
1000
MTEXTBEGIN
1070
    73
1070
     1
1070
    44
1040
1.0
1070
    74
1070
     0
1000
MTEXTEND
1000
MTEXTBEGIN
1070
    73
1070
     1
1070
    44
1040
1.0
1070
    74
1070
     0
1000
MTEXTEND
  0
LINE
  5
D77
  8
250
 10
47.770000000000003
 20
45.87166666666667
 30
0.0
 11
50.0
 21
45.499999999999993
 31
0.0
  0
LINE
  5
D78
  8
250
 10
47.770000000000003
 20
45.12833333333333
 30
0.0
 11
50.0
 21
45.499999999999993
 31
0.0
  0
LINE
  5
D79
  8
250
 10
50.0
 20
45.499999999999993
 30
0.0
 11
47.770000000000003
 21
45.499999999999993
 31
0.0
  0
LINE
  5
D7A
  8
250
 10
2.2299999999999991
 20
45.12833333333333
 30
0.0
 11
0.0
 21
45.499999999999993
 31
0.0
  0
LINE
  5
D7B
  8
250
 10
2.2299999999999991
 20
45.87166666666667
 30
0.0
 11
0.0
 21
45.499999999999993
 31
0.0
  0
LINE
  5
D7C
  8
250
 10
0.0
 20
45.499999999999993
 30
0.0
 11
2.2299999999999991
 21
45.499999999999993
 31
0.0
  0
TEXT
  5
D7D
  8
250
 10
34.833333333333343
 20
39.5
 30
0.0
 40
2.799999999999998
  1
25
1001
ACAD
1000
MTEXTBEGIN
1070
    73
1070
     1
1070
    44
1040
1.0
1070
    74
1070
     0
1000
MTEXTEND
1000
MTEXTBEGIN
1070
    73
1070
     1
1070
    44
1040
1.0
1070
    74
1070
     0
1000
MTEXTEND
  0
LINE
  5
D7E
  8
250
 10
47.770000000000003
 20
38.87166666666667
 30
0.0
 11
50.0
 21
38.5
 31
0.0
  0
LINE
  5
D7F
  8
250
 10
47.770000000000003
 20
38.12833333333333
 30
0.0
 11
50.0
 21
38.5
 31
0.0
  0
LINE
  5
D80
  8
250
 10
50.0
 20
38.5
 30
0.0
 11
47.770000000000003
 21
38.5
 31
0.0
  0
LINE
  5
D81
  8
250
 10
27.23
 20
38.12833333333333
 30
0.0
 11
25.0
 21
38.5
 31
0.0
  0
LINE
  5
D82
  8
250
 10
27.23
 20
38.87166666666667
 30
0.0
 11
25.0
 21
38.5
 31
0.0
  0
LINE
  5
D83
  8
250
 10
25.0
 20
38.5
 30
0.0
 11
27.23
 21
38.5
 31
0.0
  0
TEXT
  5
D84
  8
250
 10
42.033333333333331
 20
32.5
 30
0.0
 40
2.799999999999998
  1
11
1001
ACAD
1000
MTEXTBEGIN
1070
    73
1070
     1
1070
    44
1040
1.0
1070
    74
1070
     0
1000
MTEXTEND
1000
MTEXTBEGIN
1070
    73
1070
     1
1070
    44
1040
1.0
1070
    74
1070
     0
1000
MTEXTEND
  0
LINE
  5
D85
  8
250
 10
47.770000000000003
 20
31.87166666666667
 30
0.0
 11
50.0
 21
31.5
 31
0.0
  0
LINE
  5
D86
  8
250
 10
47.770000000000003
 20
31.128333333333341
 30
0.0
 11
50.0
 21
31.5
 31
0.0
  0
LINE
  5
D87
  8
250
 10
50.0
 20
31.5
 30
0.0
 11
47.770000000000003
 21
31.5
 31
0.0
  0
LINE
  5
D88
  8
250
 10
41.229999999999997
 20
31.128333333333341
 30
0.0
 11
39.0
 21
31.5
 31
0.0
  0
LINE
  5
D89
  8
250
 10
41.229999999999997
 20
31.87166666666667
 30
0.0
 11
39.0
 21
31.5
 31
0.0
  0
LINE
  5
D8A
  8
250
 10
39.0
 20
31.5
 30
0.0
 11
41.229999999999997
 21
31.5
 31
0.0
  0
LINE
  5
D8B
  8
250
 10
50.5
 20
-20.0
 30
0.0
 11
64.0
 21
-20.0
 31
0.0
  0
LINE
  5
D8C
  8
250
 10
50.5
 20
20.0
 30
0.0
 11
64.0
 21
20.0
 31
0.0
  0
LINE
  5
D8D
  8
250
 10
63.0
 20
-17.77
 30
0.0
 11
63.0
 21
17.77
 31
0.0
  0
TEXT
  5
D91
  8
250
 10
62.0
 20
-3.7999999999999989
 30
0.0
 40
2.799999999999998
  1
\U+2205
 50
90.0
1001
ACAD
1000
MTEXTBEGIN
1070
    73
1070
     1
1070
    44
1040
1.0
1070
    74
1070
     0
1000
MTEXTEND
1000
MTEXTBEGIN
1070
    73
1070
     1
1070
    44
1040
1.0
1070
    74
1070
     0
1000
MTEXTEND
  0
TEXT
  5
D92
  8
250
 10
62.0
 20
-1.2666666666666671
 30
0.0
 40
2.799999999999998
  1
40
 50
90.0
1001
ACAD
1000
MTEXTBEGIN
1070
    73
1070
     1
1070
    44
1040
1.0
1070
    74
1070
     0
1000
MTEXTEND
1000
MTEXTBEGIN
1070
    73
1070
     1
1070
    44
1040
1.0
1070
    74
1070
     0
1000
MTEXTEND
  0
LINE
  5
D93
  8
250
 10
62.62833333333333
 20
17.77
 30
0.0
 11
63.0
 21
20.0
 31
0.0
  0
LINE
  5
D94
  8
250
 10
63.37166666666667
 20
17.77
 30
0.0
 11
63.0
 21
20.0
 31
0.0
  0
LINE
  5
D95
  8
250
 10
63.0
 20
20.0
 30
0.0
 11
63.0
 21
17.77
 31
0.0
  0
LINE
  5
D96
  8
250
 10
63.37166666666667
 20
-17.77
 30
0.0
 11
63.0
 21
-20.0
 31
0.0
  0
LINE
  5
D97
  8
250
 10
62.62833333333333
 20
-17.77
 30
0.0
 11
63.0
 21
-20.0
 31
0.0
  0
LINE
  5
D98
  8
250
 10
63.0
 20
-20.0
 30
0.0
 11
63.0
 21
-17.77
 31
0.0
  0
TEXT
  5
D9B
  8
250
 10
-42.975404073333323
 20
-20.238842340000001
 30
0.0
 40
2.799999999999998
  1
BBT30
  7
YOKO
1001
ITEMNAME
1000
LNSP3
1001
ACAD
1000
MTEXTBEGIN
1070
    73
1070
     1
1070
    44
1040
1.0
1070
    74
1070
     0
1000
MTEXTEND
1000
MTEXTBEGIN
1070
    73
1070
     1
1070
    44
1040
1.0
1070
    74
1070
     0
1000
MTEXTEND
1000
MTEXTBEGIN
1070
    73
1070
     1
1070
    44
1040
1.0
1070
    74
1070
     0
1000
MTEXTEND
  0
LINE
  5
D9C
  8
250
 10
-23.631091409633061
 20
-14.522562450651151
 30
0.0
 11
-27.508737409999998
 21
-21.238842340000001
 31
0.0
1001
ACAD
1000
DSTYLE
1002
{
1070
     6
1000
OPEN
1070
   343
1005
594
1002
}
  0
LINE
  5
D9D
  8
250
 10
-23.952964184741589
 20
-14.336729117378971
 30
0.0
 11
-22.516091410000001
 21
-12.5913258
 31
0.0
  0
LINE
  5
D9E
  8
250
 10
-23.309218634524541
 20
-14.708395783923329
 30
0.0
 11
-22.516091410000001
 21
-12.5913258
 31
0.0
  0
LINE
  5
D9F
  8
250
 10
-22.516091410000001
 20
-12.5913258
 30
0.0
 11
-23.631091409633061
 21
-14.522562450651151
 31
0.0
  0
LINE
  5
E17
  8
241
 10
27.799999999998558
 20
-18.35000000000009
 30
0.0
 11
27.799999999998871
 21
-7.1931858526656027
 31
0.0
  0
LINE
  5
E1A
  8
240
 10
49.39999999999992
 20
-10.500000000000041
 30
0.0
 11
49.399999999999942
 21
-4.0216178594402869
 31
0.0
  0
LINE
  5
E1B
  8
240
 10
49.39999999999992
 20
1.46861867253381
 30
0.0
 11
49.39999999999992
 21
9.0180641695105663
 31
0.0
  0
LINE
  5
E1D
  8
240
 10
49.099999999999952
 20
10.50000000000003
 30
0.0
 11
49.099999999999952
 21
9.7322070123648103
 31
0.0
  0
LINE
  5
E24
  8
241
 10
48.688533690841211
 20
9.9755339127659237
 30
0.0
 11
24.822932618317338
 21
17.167437375102921
 31
0.0
  0
ARC
  5
E25
  8
240
 10
48.39999999999992
 20
9.0180641695105663
 30
0.0
 40
1.0
 50
0.0
 51
45.572978399097167
  0
ARC
  5
E26
  8
241
 10
48.39999999999992
 20
9.0180641695105663
 30
0.0
 40
1.0
 50
45.572978399097167
 51
73.229809418405196
  0
ARC
  5
E27
  8
241
 10
25.39999999999992
 20
19.08237686161366
 30
0.0
 40
2.0
 50
180.0
 51
253.22980941840521
  0
LINE
  5
E28
  8
245
 10
39.880809970896742
 20
15.159999999999989
 30
0.0
 11
47.378118664001718
 21
15.159999999999989
 31
0.0
  0
LINE
  5
E29
  8
245
 10
43.602999999999952
 20
11.76570507707204
 30
0.0
 11
43.602999999999952
 21
18.9468543854892
 31
0.0
  0
LINE
  5
E2A
  8
240
 10
49.721703210729878
 20
17.299999999999962
 30
0.0
 11
49.721703210729864
 21
10.50000000000003
 31
0.0
1001
GRPNAME
1000
PASTMD03
  0
LINE
  5
E2B
  8
240
 10
50.0
 20
17.631661198420058
 30
0.0
 11
49.721703210729878
 21
17.299999999999962
 31
0.0
1001
GRPNAME
1000
PASTMD03
  0
LINE
  5
E2C
  8
240
 10
50.0
 20
20.0
 30
0.0
 11
50.0
 21
17.631661198420058
 31
0.0
1001
GRPNAME
1000
PASTMD03
  0
LINE
  5
E2D
  8
240
 10
37.484296789270047
 20
19.999999999999989
 30
0.0
 11
50.0
 21
20.0
 31
0.0
1001
GRPNAME
1000
PASTMD03
  0
LINE
  5
E2E
  8
240
 10
37.484296789270047
 20
19.399999999999999
 30
0.0
 11
37.484296789270047
 21
19.999999999999989
 31
0.0
1001
GRPNAME
1000
PASTMD03
  0
LINE
  5
E2F
  8
241
 10
49.099999999999952
 20
10.50000000000003
 30
0.0
 11
46.948146256618131
 21
10.50000000000003
 31
0.0
  0
CIRCLE
  5
E30
  8
241
 10
43.602999999999952
 20
15.159999999999989
 30
0.0
 40
2.8999999999999999
  0
LINE
  5
E31
  8
241
 10
37.484296789270047
 20
19.385022821907729
 30
0.0
 11
37.484296789270047
 21
13.35193285282965
 31
0.0
  0
LINE
  5
E32
  8
240
 10
49.099999999999952
 20
10.50000000000003
 30
0.0
 11
49.721703210729864
 21
10.50000000000003
 31
0.0
  0
LINE
  5
E33
  8
241
 10
37.484296789270047
 20
19.999999999999989
 30
0.0
 11
43.003221757405171
 21
17.99729907829785
 31
0.0
  0
LINE
  5
E34
  8
241
 10
45.882785716557592
 20
16.952366337158711
 30
0.0
 11
49.721703210729878
 21
15.55930452742095
 31
0.0
  0
LINE
  5
E35
  8
241
 10
37.484296789270047
 20
14.94069547257906
 30
0.0
 11
41.152167762623208
 21
13.60970282067116
 31
0.0
  0
LINE
  5
E36
  8
241
 10
44.489260445279847
 20
12.398742601072421
 30
0.0
 11
49.721703210729864
 21
10.50000000000003
 31
0.0
  0
LINE
  5
E37
  8
240
 10
49.721703210729878
 20
-17.299999999999979
 30
0.0
 11
49.721703210729864
 21
-10.500000000000041
 31
0.0
1001
GRPNAME
1000
PASTMD03
  0
LINE
  5
E38
  8
240
 10
50.0
 20
-17.63166119842009
 30
0.0
 11
49.721703210729878
 21
-17.299999999999979
 31
0.0
1001
GRPNAME
1000
PASTMD03
  0
LINE
  5
E39
  8
240
 10
50.0
 20
-20.0
 30
0.0
 11
50.0
 21
-17.63166119842009
 31
0.0
1001
GRPNAME
1000
PASTMD03
  0
LINE
  5
E3A
  8
240
 10
37.484296789270047
 20
-19.999999999999989
 30
0.0
 11
50.0
 21
-20.0
 31
0.0
1001
GRPNAME
1000
PASTMD03
  0
LINE
  5
E3B
  8
240
 10
49.39999999999992
 20
-10.500000000000041
 30
0.0
 11
49.721703210729864
 21
-10.500000000000041
 31
0.0
  0
LINE
  5
E3C
  8
240
 10
37.484296789270047
 20
-19.435022821573071
 30
0.0
 11
37.484296789270047
 21
-19.999999999999989
 31
0.0
1001
GRPNAME
1000
PASTMD03
  0
LINE
  5
E3D
  8
241
 10
49.39999999999992
 20
-10.500000000000041
 30
0.0
 11
49.399999999999913
 21
-18.910478527454188
 31
0.0
  0
LINE
  5
E3F
  8
241
  6
CONTINUOUS
 10
49.39999999999997
 20
1.59280227946064
 30
0.0
 11
38.590494189148743
 21
3.4988098020386431
 31
0.0
  0
LINE
  5
E40
  8
241
 10
37.105124597070017
 20
0.4533508212379047
 30
0.0
 11
49.399999999999942
 21
-4.0216178594402798
 31
0.0
  0
LINE
  5
E41
  8
240
 10
49.399999999999942
 20
-4.0216178594402869
 30
0.0
 11
49.999999999999929
 21
-4.2400000000000073
 31
0.0
  0
LINE
  5
E42
  8
241
 10
27.27319191595512
 20
-7.1002953737933563
 30
0.0
 11
49.39999999999992
 21
-11.001848635968649
 31
0.0
  0
ARC
  5
E43
  8
241
 10
28.08709793005568
 20
-2.4844049931469638
 30
0.0
 40
4.6870979300557689
 50
79.999982399904269
 51
259.99999999999818
  0
LINE
  5
E44
  8
241
 10
37.209105346751471
 20
0.6665429517598512
 30
0.0
 11
28.901003944156461
 21
2.1314853874994211
 31
0.0
  0
LINE
  5
E45
  8
241
  6
CONTINUOUS
 10
38.590494189148743
 20
3.4988098020386431
 30
0.0
 11
37.105124597070017
 21
0.4533508212379047
 31
0.0
  0
LINE
  5
E46
  8
241
 10
49.386701316279812
 20
1.5951471962084141
 30
0.0
 11
49.39999999999992
 21
1.468618672533833
 31
0.0
  0
LINE
  5
E47
  8
240
 10
49.39999999999992
 20
1.46861867253381
 30
0.0
 11
49.999999999999929
 21
-4.2400000000000349
 31
0.0
  0
LINE
  5
E48
  8
241
 10
27.799999999999159
 20
2.193891896159049
 30
0.0
 11
27.799999999999532
 21
15.3202975484182
 31
0.0
  0
LINE
  5
10FD
  8
241
 10
49.010615728532777
 20
-19.31033763552567
 30
0.0
 11
38.100000000000001
 21
-19.600000000000001
 31
0.0
1001
GRPNAME
1000
PASTMD0O
  0
LINE
  5
10FE
  8
240
  6
CONTINUOUS
 10
37.353589839999998
 20
-19.399999999999999
 30
0.0
 11
37.484296789270047
 21
-19.435022821573071
 31
0.0
1001
GRPNAME
1000
PASTMD0O
  0
ARC
  5
1101
  8
241
 10
48.999999999999908
 20
-18.910478527454188
 30
0.0
 40
0.4
 50
271.52076966114367
 51
0.0
1001
GENIUS_GENOBJ-N-FIL_13
1002
{
1000
OWNER
1000
GEN
1002
}
1001
GENIUS_GENODEF_13
1002
{
1000
HIER
1070
     0
1002
}
1002
{
1000
MANEDIT
1070
     0
1002
}
1002
{
1000
NOSEL
1070
     0
1002
}
1002
{
1000
BEHIND
1070
     0
1002
}
1002
{
1000
OTHER
1070
     0
1002
}
1002
{
1000
REACTOR
1002
}
  0
LINE
  5
1106
  8
241
 10
37.484296789270047
 20
-19.435022821573071
 30
0.0
 11
38.100000000000001
 21
-19.600000000000001
 31
0.0
1001
GRPNAME
1000
PASTMD0O
  0
VIEWPORT
  5
22
 67
     1
  8
0
 10
261.51769911999997
 20
148.5
 30
0.0
 40
523.03539823000006
 41
297.0
 68
     1
 69
     1
1001
ACAD
1000
MVIEW
1002
{
1070
    16
1010
0.0
1020
0.0
1030
0.0
1010
0.0
1020
0.0
1030
1.0
1040
0.0
1040
297.0
1040
261.51769911999997
1040
148.5
1040
50.0
1040
0.0
1040
0.0
1070
     0
1070
   100
1070
     1
1070
     1
1070
     0
1070
     0
1070
     0
1070
     0
1040
0.0
1040
0.0
1040
0.0
1040
1.0
1040
1.0
1040
10.0
1040
10.0
1070
     0
1002
{
1002
}
1002
}
1001
GENIUS_GENOBJ-N-SDF_13
1002
{
1000
OWNER
1000
GEN
1002
}
1001
GENIUS_GENODEF_13
1002
{
1000
HIER
1070
     0
1002
}
1002
{
1000
MANEDIT
1070
     0
1002
}
1002
{
1000
NOSEL
1070
     0
1002
}
1002
{
1000
BEHIND
1070
     0
1002
}
1002
{
1000
OTHER
1070
     0
1002
}
1002
{
1000
REACTOR
1002
}
1001
GENIUS_GENSCREG_15
1000
PF
1040
1.0
1000
DF
1040
1.0
1000
MIN
1011
0.0000000049999471
1021
-1.#QNAN00000000000E+000
1031
0.0
1021
0.0
1031
0.0
1000
MAX
1011
523.035398235
1021
-1.#QNAN00000000000E+000
1031
0.0
1021
297.0
1031
0.0
1000
FLAGS
1070
     2
  0
ENDSEC
  0
EOF
