  0
SECTION
  2
HEADER
  9
$ACADVER
  1
AC1009
  9
$INSBASE
 10
0.0
 20
0.0
 30
0.0
  9
$EXTMIN
 10
-49.407158324212439
 20
-23.023998770599629
 30
-0.0000000000074783
  9
$EXTMAX
 10
78.021058603760025
 20
61.012941838827821
 30
0.0000000000044428
  9
$LIMMIN
 10
0.0
 20
0.0
  9
$LIMMAX
 10
420.0
 20
297.0
  9
$ORTHOMODE
 70
     0
  9
$REGENMODE
 70
     1
  9
$FILLMODE
 70
     1
  9
$QTEXTMODE
 70
     0
  9
$MIRRTEXT
 70
     1
  9
$DRAGMODE
 70
     2
  9
$LTSCALE
 40
10.0
  9
$OSMODE
 70
    39
  9
$ATTMODE
 70
     1
  9
$TEXTSIZE
 40
3.0
  9
$TRACEWID
 40
1.0
  9
$TEXTSTYLE
  7
YOKO
  9
$CLAYER
  8
245
  9
$CELTYPE
  6
BYLAYER
  9
$CECOLOR
 62
   256
  9
$DIMSCALE
 40
1.0
  9
$DIMASZ
 40
2.2299999999999991
  9
$DIMEXO
 40
0.5
  9
$DIMDLI
 40
2.5
  9
$DIMRND
 40
0.0
  9
$DIMDLE
 40
0.0
  9
$DIMEXE
 40
1.0
  9
$DIMTP
 40
0.0
  9
$DIMTM
 40
0.0
  9
$DIMTXT
 40
2.799999999999998
  9
$DIMCEN
 40
0.0
  9
$DIMTSZ
 40
0.0
  9
$DIMTOL
 70
     0
  9
$DIMLIM
 70
     0
  9
$DIMTIH
 70
     0
  9
$DIMTOH
 70
     0
  9
$DIMSE1
 70
     0
  9
$DIMSE2
 70
     0
  9
$DIMTAD
 70
     3
  9
$DIMZIN
 70
     8
  9
$DIMBLK
  1

  9
$DIMASO
 70
     1
  9
$DIMSHO
 70
     1
  9
$DIMPOST
  1

  9
$DIMAPOST
  1

  9
$DIMALT
 70
     0
  9
$DIMALTD
 70
     2
  9
$DIMALTF
 40
25.399999999999999
  9
$DIMLFAC
 40
1.0
  9
$DIMTOFL
 70
     1
  9
$DIMTVP
 40
0.0
  9
$DIMTIX
 70
     1
  9
$DIMSOXD
 70
     0
  9
$DIMSAH
 70
     1
  9
$DIMBLK1
  1
OPEN
  9
$DIMBLK2
  1
OPEN
  9
$DIMSTYLE
  2
BIGT
  9
$DIMCLRD
 70
   256
  9
$DIMCLRE
 70
   256
  9
$DIMCLRT
 70
    40
  9
$DIMTFAC
 40
1.0
  9
$DIMGAP
 40
1.0
  9
$LUNITS
 70
     2
  9
$LUPREC
 70
     3
  9
$SKETCHINC
 40
1.0
  9
$FILLETRAD
 40
0.4
  9
$AUNITS
 70
     0
  9
$AUPREC
 70
     3
  9
$MENU
  1
.
  9
$ELEVATION
 40
0.0
  9
$PELEVATION
 40
0.0
  9
$THICKNESS
 40
0.0
  9
$LIMCHECK
 70
     0
  9
$BLIPMODE
 70
     0
  9
$CHAMFERA
 40
10.0
  9
$CHAMFERB
 40
10.0
  9
$SKPOLY
 70
     0
  9
$TDCREATE
 40
2455140.5562590389
  9
$TDUPDATE
 40
2456086.3689475688
  9
$TDINDWG
 40
0.0159583681
  9
$TDUSRTIMER
 40
0.0159581829
  9
$USRTIMER
 70
     1
  9
$ANGBASE
 50
0.0
  9
$ANGDIR
 70
     0
  9
$PDMODE
 70
     1
  9
$PDSIZE
 40
-5.0
  9
$PLINEWID
 40
0.0
  9
$COORDS
 70
     0
  9
$SPLFRAME
 70
     0
  9
$SPLINETYPE
 70
     6
  9
$SPLINESEGS
 70
     8
  9
$ATTDIA
 70
     1
  9
$ATTREQ
 70
     1
  9
$HANDLING
 70
     1
  9
$HANDSEED
  5
11CA
  9
$SURFTAB1
 70
     6
  9
$SURFTAB2
 70
     6
  9
$SURFTYPE
 70
     6
  9
$SURFU
 70
     6
  9
$SURFV
 70
     6
  9
$UCSNAME
  2

  9
$UCSORG
 10
0.0
 20
0.0
 30
0.0
  9
$UCSXDIR
 10
1.0
 20
0.0
 30
0.0
  9
$UCSYDIR
 10
0.0
 20
1.0
 30
0.0
  9
$PUCSNAME
  2

  9
$PUCSORG
 10
0.0
 20
0.0
 30
0.0
  9
$PUCSXDIR
 10
1.0
 20
0.0
 30
0.0
  9
$PUCSYDIR
 10
0.0
 20
1.0
 30
0.0
  9
$USERI1
 70
     1
  9
$USERI2
 70
     0
  9
$USERI3
 70
     0
  9
$USERI4
 70
     0
  9
$USERI5
 70
     0
  9
$USERR1
 40
0.0
  9
$USERR2
 40
0.0
  9
$USERR3
 40
0.0
  9
$USERR4
 40
0.0
  9
$USERR5
 40
0.0
  9
$WORLDVIEW
 70
     1
  9
$SHADEDGE
 70
     3
  9
$SHADEDIF
 70
    70
  9
$TILEMODE
 70
     1
  9
$MAXACTVP
 70
    16
  9
$PLIMCHECK
 70
     0
  9
$PEXTMIN
 10
1.0000000000000000E+020
 20
1.0000000000000000E+020
 30
1.0000000000000000E+020
  9
$PEXTMAX
 10
-1.0000000000000000E+020
 20
-1.0000000000000000E+020
 30
-1.0000000000000000E+020
  9
$PLIMMIN
 10
0.0
 20
0.0
  9
$PLIMMAX
 10
420.0
 20
297.0
  9
$UNITMODE
 70
     0
  9
$VISRETAIN
 70
     0
  9
$PLINEGEN
 70
     0
  9
$PSLTSCALE
 70
     1
  0
ENDSEC
  0
SECTION
  2
TABLES
  0
TABLE
  2
VPORT
 70
    28
  0
VPORT
  2
*ACTIVE
 70
     0
 10
0.0
 20
0.0
 11
1.0
 21
1.0
 12
14.3069501397738
 22
18.994471534114101
 13
0.0
 23
0.0
 14
7.0
 24
7.0
 15
7.0
 25
7.0
 16
0.0
 26
0.0
 36
1.0
 17
0.0
 27
0.0
 37
0.0
 40
84.590422106306235
 41
1.5472527472527471
 42
50.0
 43
0.0
 44
0.0
 50
0.0
 51
0.0
 71
     0
 72
  2000
 73
     1
 74
     0
 75
     0
 76
     0
 77
     0
 78
     0
  0
ENDTAB
  0
TABLE
  2
LTYPE
 70
    21
  0
LTYPE
  2
CONTINUOUS
 70
     0
  3
Solid line
 72
    65
 73
     0
 40
0.0
  0
LTYPE
  2
CENTER2
 70
     0
  3
___ _ ___ _ ___ _ ___ _ ___ _ ___ _ ___ _ ___ _
 72
    65
 73
     4
 40
1.125
 49
0.75
 49
-0.125
 49
0.125
 49
-0.125
  0
LTYPE
  2
HIDDEN2
 70
     0
  3
_ _ _ _ _ _ _ _ _ _ _ _ _ _ _ _ _ _ _ _ _ _ _ _
 72
    65
 73
     2
 40
0.1875
 49
0.125
 49
-0.0625
  0
LTYPE
  2
PHANTOM2
 70
     0
  3
___ _ _ ___ _ _ ___ _ _ ___ _ _ ___ _ _ ___ _ _
 72
    65
 73
     6
 40
1.25
 49
0.625
 49
-0.125
 49
0.125
 49
-0.125
 49
0.125
 49
-0.125
  0
LTYPE
  2
AMCONSTR
 70
     0
  3
_______________________
 72
    65
 73
     2
 40
9999.0
 49
9999.0
 49
0.0
  0
LTYPE
  2
AM_ISO02W050
 70
     0
  3
__ __ __ __ __ __ __ __ __ __ __ __ __ __ __
 72
    65
 73
     2
 40
7.5
 49
6.0
 49
-1.5
  0
LTYPE
  2
HIDDEN
 70
     0
  3
Hidden __ __ __ __ __ __ __ __ __ __ __ __ __ _
 72
    65
 73
     2
 40
9.5249999999999986
 49
6.3499999999999979
 49
-3.174999999999998
  0
LTYPE
  2
CENTER
 70
     0
  3
____ _ ____ _ ____ _ ____ _ ____ _ ____ _ ____ 
 72
    65
 73
     4
 40
2.0
 49
1.25
 49
-0.25
 49
0.25
 49
-0.25
  0
LTYPE
  2
ACJISTGB
 70
     0
  3
__ . . __ . .
 72
    65
 73
     6
 40
9.0
 49
4.0
 49
-1.0
 49
1.0
 49
-1.0
 49
1.0
 49
-1.0
  0
LTYPE
  2
ACJISTGL
 70
     0
  3
_ _ _ _ _
 72
    65
 73
     2
 40
3.0
 49
2.0
 49
-1.0
  0
LTYPE
  2
ACISOWELD
 70
     0
  3
_ _ _ _ _
 72
    65
 73
     2
 40
2.0
 49
2.0
 49
-1.0
  0
LTYPE
  2
ACISOTGB
 70
     0
  3
__ . . __ . .
 72
    65
 73
     6
 40
9.0
 49
4.0
 49
-1.0
 49
1.0
 49
-1.0
 49
1.0
 49
-1.0
  0
LTYPE
  2
ACISOTGL
 70
     0
  3
_ _ _ _ _
 72
    65
 73
     2
 40
3.0
 49
2.0
 49
-1.0
  0
LTYPE
  2
ACANSTGB
 70
     0
  3
__ . . __ . .
 72
    65
 73
     6
 40
0.35433070866
 49
0.15748031496
 49
-0.03937007874
 49
0.03937007874
 49
-0.03937007874
 49
0.03937007874
 49
-0.03937007874
  0
LTYPE
  2
ACANSTGL
 70
     0
  3
_ _ _ _ _
 72
    65
 73
     2
 40
0.11811023622
 49
0.07874015748
 49
-0.03937007874
  0
LTYPE
  2
AM_ISO08W050
 70
     0
  3
____ . ____ . ____ . ____ . ____ . ____ . ____
 72
    65
 73
     4
 40
18.0
 49
12.0
 49
-1.5
 49
3.0
 49
-1.5
  0
LTYPE
  2
AM_ISO09W050
 70
     0
  3
_____ . . _____ . . _____ . . ____ .. ____
 72
    65
 73
     6
 40
22.5
 49
12.0
 49
-1.5
 49
3.0
 49
-1.5
 49
3.0
 49
-1.5
  0
LTYPE
  2
AM_ISO08W050X2
 70
     0
  3
__ . __ . __ . __ . __ . __
 72
    65
 73
     4
 40
9.0
 49
6.0
 49
-0.75
 49
1.5
 49
-0.75
  0
LTYPE
  2
AM_ISO02W050X2
 70
     0
  3
 _ _ _ _ _ _ _ _ _ _ _ _
 72
    65
 73
     2
 40
3.75
 49
3.0
 49
-0.75
  0
LTYPE
  2
AMZIGZAG
 70
     0
  3
/\/-/\/-/\/-/\/-/\/-/\/
 72
    65
 73
     2
 40
11.0001
 49
0.0001
 49
-11.0
  0
LTYPE
  2
AMZIGZAG2
 70
     0
  3
/\/-/\/-/\/-/\/-/\/-/\/
 72
    65
 73
     2
 40
0.4401
 49
0.0001
 49
-0.4400000000000001
  0
ENDTAB
  0
TABLE
  2
LAYER
 70
     8
  0
LAYER
  2
0
 70
     0
 62
     7
  6
CONTINUOUS
  0
LAYER
  2
245
 70
     0
 62
     2
  6
CENTER2
  0
LAYER
  2
240
 70
     0
 62
     4
  6
CONTINUOUS
  0
LAYER
  2
241
 70
     0
 62
   211
  6
CONTINUOUS
  0
LAYER
  2
243
 70
     0
 62
   211
  6
HIDDEN2
  0
LAYER
  2
250
 70
     0
 62
     3
  6
CONTINUOUS
  0
LAYER
  2
DEFPOINTS
 70
     0
 62
     7
  6
CONTINUOUS
  0
LAYER
  2
AM_5
 70
     0
 62
     3
  6
CONTINUOUS
  0
ENDTAB
  0
TABLE
  2
STYLE
 70
     9
  0
STYLE
  2
STANDARD
 70
     0
 40
0.0
 41
1.0
 50
0.0
 71
     0
 42
3.0
  3
romans.shx
  4
BIGFONT.SHX
  0
STYLE
  2
YOKO
 70
     0
 40
0.0
 41
1.0
 50
0.0
 71
     0
 42
3.0
  3
romans.shx
  4
extfont.shx
  0
STYLE
  2
ACJISGDT
 70
     0
 40
0.0
 41
1.0
 50
0.0
 71
     0
 42
3.0
  3
amgdt.shx
  4
extfont.shx
  0
STYLE
  2
ACJISTS
 70
     0
 40
1.0
 41
1.0
 50
0.0
 71
     0
 42
3.0
  3
amgdt.shx
  4
extfont.shx
  0
STYLE
  2
ACISOTS
 70
     0
 40
1.0
 41
1.0
 50
0.0
 71
     0
 42
3.0
  3
amgdt.shx
  4
extfont.shx
  0
STYLE
  2
ACISOGDT
 70
     0
 40
0.0
 41
1.0
 50
0.0
 71
     0
 42
3.0
  3
amgdt.shx
  4
extfont.shx
  0
STYLE
  2
ACANSTS
 70
     0
 40
1.0
 41
1.0
 50
0.0
 71
     0
 42
3.0
  3
romans.shx
  4
extfont.shx
  0
STYLE
  2
ACANSGDT
 70
     0
 40
0.0
 41
1.0
 50
0.0
 71
     0
 42
3.0
  3
amgdtans.shx
  4

  0
STYLE
  2

 70
     1
 40
0.0
 41
1.0
 50
0.0
 71
     0
 42
3.0
  3
ltypeshp.shx
  4

  0
ENDTAB
  0
TABLE
  2
VIEW
 70
     0
  0
ENDTAB
  0
TABLE
  2
UCS
 70
     0
  0
ENDTAB
  0
TABLE
  2
APPID
 70
    35
  0
APPID
  2
ACAD
 70
     0
  0
APPID
  2
GLOBAL
 70
     0
  0
APPID
  2
DETAIL
 70
     0
  0
APPID
  2
GRPNAME
 70
     0
  0
APPID
  2
GPARA
 70
     0
  0
APPID
  2
DCO15
 70
     0
  0
APPID
  2
ITEMNAME
 70
     0
  0
APPID
  2
GRADE_0
 70
     0
  0
APPID
  2
HATCH_TYPE
 70
     0
  0
APPID
  2
HATCH_DISPLAY
 70
     0
  0
APPID
  2
HATCH_DISTANCE
 70
     0
  0
APPID
  2
CONTENTBLOCKICON
 70
     0
  0
APPID
  2
MCAD_NO_VIS
 70
     0
  0
APPID
  2
ACAD_TEMP_GRAPHIC
 70
     0
  0
APPID
  2
ACATTRIBSERVICES
 70
     0
  0
APPID
  2
GENIUS_GENSCREG_15
 70
     0
  0
APPID
  2
GENIUS_GENODEF_13
 70
     0
  0
APPID
  2
GENIUS_GENOBJ-N-SDF_13
 70
     0
  0
APPID
  2
GENIUS_GENREC_14
 70
     0
  0
APPID
  2
GENIUS_GENOBJ-N-REC_13
 70
     0
  0
APPID
  2
GENIUS_GENDIMSH_14
 70
     0
  0
APPID
  2
GENIUS_GENOBJ-N-DIM_13
 70
     0
  0
APPID
  2
GENIUS_GENDIM_13
 70
     0
  0
APPID
  2
GENIUS_GENDTOL_13
 70
     0
  0
APPID
  2
GENIUS_GENOLIS_13
 70
     0
  0
APPID
  2
GENIUS_GENOENT_13
 70
     0
  0
APPID
  2
GENIUS_GENOBJ-F-FEM_13
 70
     0
  0
APPID
  2
GENIUS_GENOREF_13
 70
     0
  0
APPID
  2
GENIUS_GEFFEM_13
 70
     0
  0
APPID
  2
GENIUS_GEFFEMP_13
 70
     0
  0
APPID
  2
AD_DRAW
 70
     0
  0
APPID
  2
DESIGNERASSEMBLIES
 70
     0
  0
APPID
  2
ACADM_DIM_EDIT
 70
     0
  0
APPID
  2
AMDT_DM_ADJ
 70
     0
  0
APPID
  2
GENIUS_GENOBJ-N-FIL_13
 70
     0
  0
ENDTAB
  0
TABLE
  2
DIMSTYLE
 70
    29
  0
DIMSTYLE
  2
BIGT
 70
     0
  3

  4

  5

  6

  7

 40
1.0
 41
2.2299999999999991
 42
0.5
 43
7.0
 44
1.0
 45
0.0
 46
0.0
 47
0.0
 48
0.01
140
2.799999999999998
141
0.0
142
0.0
143
25.399999999999999
144
1.0
145
0.0
146
1.0
147
1.0
 71
     0
 72
     0
 73
     0
 74
     0
 75
     0
 76
     0
 77
     3
 78
     9
170
     0
171
     2
172
     1
173
     0
174
     1
175
     0
176
   256
177
   256
178
    40
  0
DIMSTYLE
  2
BIGT$0
 70
     0
  3

  4

  5

  6

  7

 40
1.0
 41
2.2299999999999991
 42
0.5
 43
7.0
 44
1.0
 45
0.0
 46
0.0
 47
0.0
 48
0.01
140
2.799999999999998
141
0.0
142
0.0
143
25.399999999999999
144
1.0
145
0.0
146
1.0
147
1.0
 71
     0
 72
     0
 73
     0
 74
     0
 75
     0
 76
     0
 77
     3
 78
     9
170
     0
171
     2
172
     1
173
     0
174
     0
175
     0
176
   256
177
   256
178
    40
  0
DIMSTYLE
  2
BIGT$2
 70
     0
  3

  4

  5

  6

  7

 40
1.0
 41
2.2299999999999991
 42
0.5
 43
7.0
 44
1.0
 45
0.0
 46
0.0
 47
0.0
 48
0.01
140
2.799999999999998
141
0.0
142
0.0
143
25.399999999999999
144
1.0
145
0.0
146
1.0
147
1.0
 71
     0
 72
     0
 73
     0
 74
     0
 75
     0
 76
     0
 77
     3
 78
     9
170
     0
171
     2
172
     1
173
     0
174
     0
175
     0
176
   256
177
   256
178
    40
  0
DIMSTYLE
  2
BIGT$3
 70
     0
  3

  4

  5

  6

  7

 40
1.0
 41
2.2299999999999991
 42
0.5
 43
2.5
 44
1.0
 45
0.0
 46
0.0
 47
0.0
 48
0.01
140
2.799999999999998
141
0.0
142
0.0
143
25.399999999999999
144
1.0
145
0.0
146
1.0
147
1.0
 71
     0
 72
     0
 73
     0
 74
     0
 75
     0
 76
     0
 77
     3
 78
     9
170
     0
171
     2
172
     1
173
     0
174
     0
175
     0
176
   256
177
   256
178
    40
  0
DIMSTYLE
  2
BIGT$4
 70
     0
  3

  4

  5

  6

  7

 40
1.0
 41
2.2299999999999991
 42
0.5
 43
2.5
 44
1.0
 45
0.0
 46
0.0
 47
0.0
 48
0.01
140
2.799999999999998
141
0.0
142
0.0
143
25.399999999999999
144
1.0
145
0.0
146
1.0
147
1.0
 71
     0
 72
     0
 73
     0
 74
     0
 75
     0
 76
     0
 77
     3
 78
     9
170
     0
171
     2
172
     1
173
     0
174
     0
175
     0
176
   256
177
   256
178
    40
  0
DIMSTYLE
  2
BIGT$6
 70
     0
  3

  4

  5

  6

  7

 40
1.0
 41
2.2299999999999991
 42
0.5
 43
2.5
 44
1.0
 45
0.0
 46
0.0
 47
0.0
 48
0.01
140
2.799999999999998
141
0.0
142
0.0
143
25.399999999999999
144
1.0
145
0.0
146
1.0
147
1.0
 71
     0
 72
     0
 73
     0
 74
     0
 75
     0
 76
     0
 77
     3
 78
     9
170
     0
171
     2
172
     1
173
     0
174
     0
175
     0
176
   256
177
   256
178
    40
  0
DIMSTYLE
  2
BIGT$7
 70
     0
  3

  4

  5

  6

  7

 40
0.0
 41
2.2299999999999991
 42
0.5
 43
7.0
 44
1.0
 45
0.0
 46
0.0
 47
0.0
 48
0.01
140
2.799999999999998
141
0.0
142
0.0
143
25.399999999999999
144
1.0
145
0.0
146
1.0
147
1.0
 71
     0
 72
     0
 73
     0
 74
     0
 75
     0
 76
     0
 77
     3
 78
     9
170
     0
171
     2
172
     0
173
     0
174
     0
175
     0
176
   256
177
   256
178
    40
  0
DIMSTYLE
  2
BIGT$SF
 70
     0
  3

  4

  5

  6

  7

 40
1.0
 41
2.2299999999999991
 42
0.5
 43
7.0
 44
1.0
 45
0.0
 46
0.0
 47
0.0
 48
0.0
140
2.799999999999998
141
0.0
142
0.0
143
25.399999999999999
144
1.0
145
0.0
146
1.0
147
1.0
 71
     0
 72
     0
 73
     0
 74
     0
 75
     0
 76
     0
 77
     3
 78
     9
170
     0
171
     2
172
     1
173
     0
174
     0
175
     0
176
   256
177
   256
178
    40
  0
DIMSTYLE
  2
BIGT$SH
 70
     0
  3

  4

  5

  6

  7

 40
1.0
 41
2.2299999999999991
 42
0.5
 43
7.0
 44
1.0
 45
0.0
 46
0.0
 47
0.0
 48
0.0
140
2.799999999999998
141
0.0
142
0.0
143
25.399999999999999
144
1.0
145
0.0
146
1.0
147
1.0
 71
     0
 72
     0
 73
     0
 74
     0
 75
     0
 76
     0
 77
     3
 78
     9
170
     0
171
     2
172
     1
173
     0
174
     0
175
     0
176
   256
177
   256
178
    40
  0
DIMSTYLE
  2
AM_ISO
 70
     0
  3

  4
"
  5

  6

  7

 40
1.0
 41
2.5
 42
1.0
 43
10.0
 44
1.0
 45
0.0
 46
0.0
 47
0.1
 48
0.1
140
3.5
141
0.0
142
0.0
143
0.0393701
144
1.0
145
0.0
146
0.71
147
1.5
 71
     0
 72
     0
 73
     0
 74
     0
 75
     0
 76
     0
 77
     1
 78
     8
170
     0
171
     2
172
     1
173
     0
174
     0
175
     0
176
   256
177
   256
178
     2
  0
DIMSTYLE
  2
AM_ISO$3
 70
     0
  3

  4
"
  5

  6

  7

 40
1.0
 41
2.5
 42
1.0
 43
10.0
 44
1.0
 45
0.0
 46
0.0
 47
0.1
 48
0.1
140
3.5
141
0.0
142
0.0
143
0.0393701
144
1.0
145
0.0
146
0.71
147
1.5
 71
     0
 72
     0
 73
     0
 74
     1
 75
     0
 76
     0
 77
     1
 78
     8
170
     0
171
     2
172
     0
173
     0
174
     0
175
     0
176
   256
177
   256
178
     2
  0
DIMSTYLE
  2
AM_ISO$4
 70
     0
  3

  4
"
  5

  6

  7

 40
1.0
 41
2.5
 42
1.0
 43
10.0
 44
1.0
 45
0.0
 46
0.0
 47
0.1
 48
0.1
140
3.5
141
0.0
142
0.0
143
0.0393701
144
1.0
145
0.0
146
0.71
147
1.5
 71
     0
 72
     0
 73
     0
 74
     1
 75
     0
 76
     0
 77
     1
 78
     8
170
     0
171
     2
172
     0
173
     0
174
     0
175
     0
176
   256
177
   256
178
     2
  0
DIMSTYLE
  2
AM_ISO$6
 70
     0
  3

  4
"
  5

  6

  7

 40
1.0
 41
2.5
 42
1.0
 43
10.0
 44
1.0
 45
0.0
 46
0.0
 47
0.1
 48
0.1
140
3.5
141
0.0
142
0.0
143
0.0393701
144
1.0
145
0.0
146
0.71
147
1.5
 71
     0
 72
     0
 73
     0
 74
     0
 75
     0
 76
     0
 77
     0
 78
     8
170
     0
171
     2
172
     1
173
     0
174
     0
175
     0
176
   256
177
   256
178
     2
  0
DIMSTYLE
  2
AM_ISO$7
 70
     0
  3

  4
"
  5

  6

  7

 40
1.0
 41
2.5
 42
1.0
 43
10.0
 44
1.0
 45
0.0
 46
0.0
 47
0.1
 48
0.1
140
5.0
141
0.0
142
0.0
143
0.0393701
144
1.0
145
0.0
146
0.71
147
1.5
 71
     0
 72
     0
 73
     0
 74
     0
 75
     0
 76
     0
 77
     1
 78
     8
170
     0
171
     2
172
     1
173
     0
174
     0
175
     0
176
   256
177
   256
178
     2
  0
DIMSTYLE
  2
AM_ISO$SF
 70
     0
  3

  4
"
  5

  6

  7

 40
1.0
 41
2.5
 42
1.0
 43
10.0
 44
1.0
 45
0.0
 46
0.0
 47
0.1
 48
0.1
140
3.5
141
0.0
142
0.0
143
0.0393701
144
1.0
145
0.0
146
0.71
147
1.5
 71
     0
 72
     0
 73
     0
 74
     0
 75
     1
 76
     1
 77
     1
 78
     8
170
     0
171
     2
172
     1
173
     0
174
     0
175
     0
176
   256
177
   256
178
     2
  0
DIMSTYLE
  2
AM_ISO$SH
 70
     0
  3

  4
"
  5

  6

  7

 40
1.0
 41
2.5
 42
1.0
 43
10.0
 44
1.0
 45
0.0
 46
0.0
 47
0.1
 48
0.1
140
3.5
141
0.0
142
0.0
143
0.0393701
144
2.0
145
0.0
146
0.71
147
1.5
 71
     0
 72
     0
 73
     0
 74
     0
 75
     1
 76
     1
 77
     1
 78
     8
170
     0
171
     2
172
     1
173
     1
174
     0
175
     0
176
   256
177
   256
178
     2
  0
DIMSTYLE
  2
TECHNICAL_OSAKA
 70
     0
  3

  4
"
  5

  6

  7

 40
1.0
 41
2.5
 42
1.0
 43
10.0
 44
1.0
 45
0.0
 46
0.0
 47
0.1
 48
0.1
140
2.799999999999998
141
0.0
142
0.0
143
0.0393701
144
1.0
145
0.0
146
0.71
147
1.5
 71
     0
 72
     0
 73
     0
 74
     0
 75
     0
 76
     0
 77
     3
 78
     8
170
     0
171
     2
172
     1
173
     0
174
     0
175
     0
176
   256
177
   256
178
    40
  0
DIMSTYLE
  2
TECHNICAL_OSAKA$3
 70
     0
  3

  4
"
  5

  6

  7

 40
1.0
 41
2.5
 42
1.0
 43
10.0
 44
1.0
 45
0.0
 46
0.0
 47
0.1
 48
0.1
140
2.799999999999998
141
0.0
142
0.0
143
0.0393701
144
1.0
145
0.0
146
0.71
147
1.5
 71
     0
 72
     0
 73
     0
 74
     1
 75
     0
 76
     0
 77
     3
 78
     8
170
     0
171
     2
172
     0
173
     0
174
     0
175
     0
176
   256
177
   256
178
    40
  0
DIMSTYLE
  2
TECHNICAL_OSAKA$4
 70
     0
  3

  4
"
  5

  6

  7

 40
1.0
 41
2.5
 42
1.0
 43
10.0
 44
1.0
 45
0.0
 46
0.0
 47
0.1
 48
0.1
140
2.799999999999998
141
0.0
142
0.0
143
0.0393701
144
1.0
145
0.0
146
0.71
147
1.5
 71
     0
 72
     0
 73
     0
 74
     1
 75
     0
 76
     0
 77
     3
 78
     8
170
     0
171
     2
172
     0
173
     0
174
     0
175
     0
176
   256
177
   256
178
    40
  0
DIMSTYLE
  2
TECHNICAL_OSAKA$6
 70
     0
  3

  4
"
  5

  6

  7

 40
1.0
 41
2.5
 42
1.0
 43
10.0
 44
1.0
 45
0.0
 46
0.0
 47
0.1
 48
0.1
140
2.799999999999998
141
0.0
142
0.0
143
0.0393701
144
1.0
145
0.0
146
0.71
147
1.5
 71
     0
 72
     0
 73
     0
 74
     0
 75
     0
 76
     0
 77
     0
 78
     8
170
     0
171
     2
172
     1
173
     0
174
     0
175
     0
176
   256
177
   256
178
    40
  0
DIMSTYLE
  2
TECHNICAL_OSAKA$7
 70
     0
  3

  4
"
  5

  6

  7

 40
1.0
 41
2.5
 42
1.0
 43
10.0
 44
1.0
 45
0.0
 46
0.0
 47
0.1
 48
0.1
140
2.799999999999998
141
0.0
142
0.0
143
0.0393701
144
1.0
145
0.0
146
0.71
147
1.5
 71
     0
 72
     0
 73
     0
 74
     0
 75
     0
 76
     0
 77
     3
 78
     8
170
     0
171
     2
172
     1
173
     0
174
     0
175
     0
176
   256
177
   256
178
    40
  0
DIMSTYLE
  2
TECHNICAL_OSAKA$SF
 70
     0
  3

  4
"
  5

  6

  7

 40
1.0
 41
2.5
 42
1.0
 43
10.0
 44
1.0
 45
0.0
 46
0.0
 47
0.1
 48
0.1
140
3.5
141
0.0
142
0.0
143
0.0393701
144
1.0
145
0.0
146
0.71
147
1.5
 71
     0
 72
     0
 73
     0
 74
     0
 75
     1
 76
     1
 77
     3
 78
     8
170
     0
171
     2
172
     1
173
     0
174
     0
175
     0
176
   256
177
   256
178
    40
  0
DIMSTYLE
  2
TECHNICAL_OSAKA$SH
 70
     0
  3

  4
"
  5

  6

  7

 40
1.0
 41
2.5
 42
1.0
 43
10.0
 44
1.0
 45
0.0
 46
0.0
 47
0.1
 48
0.1
140
3.5
141
0.0
142
0.0
143
0.0393701
144
2.0
145
0.0
146
0.71
147
1.5
 71
     0
 72
     0
 73
     0
 74
     0
 75
     1
 76
     1
 77
     3
 78
     8
170
     0
171
     2
172
     1
173
     1
174
     0
175
     0
176
   256
177
   256
178
    40
  0
DIMSTYLE
  2
AM_ANSI
 70
     0
  3

  4
mm
  5

  6

  7

 40
1.0
 41
0.1
 42
0.05
 43
0.5
 44
0.1
 45
0.0
 46
0.0
 47
0.1
 48
0.1
140
0.12
141
0.0
142
0.0
143
25.399999999999999
144
1.0
145
0.0
146
0.71
147
0.06
 71
     0
 72
     0
 73
     1
 74
     1
 75
     0
 76
     0
 77
     0
 78
     7
170
     0
171
     2
172
     0
173
     0
174
     0
175
     0
176
   256
177
   256
178
     2
  0
DIMSTYLE
  2
AM_ANSI$3
 70
     0
  3

  4
mm
  5

  6

  7

 40
1.0
 41
0.1
 42
0.05
 43
0.5
 44
0.1
 45
0.0
 46
0.0
 47
0.1
 48
0.1
140
0.12
141
0.0
142
0.0
143
25.399999999999999
144
1.0
145
0.0
146
0.71
147
0.06
 71
     0
 72
     0
 73
     1
 74
     1
 75
     0
 76
     0
 77
     0
 78
     7
170
     0
171
     2
172
     0
173
     0
174
     0
175
     0
176
   256
177
   256
178
     2
  0
DIMSTYLE
  2
AM_ANSI$4
 70
     0
  3

  4
mm
  5

  6

  7

 40
1.0
 41
0.1
 42
0.05
 43
0.5
 44
0.1
 45
0.0
 46
0.0
 47
0.1
 48
0.1
140
0.12
141
0.0
142
0.0
143
25.399999999999999
144
1.0
145
0.0
146
0.71
147
0.06
 71
     0
 72
     0
 73
     1
 74
     1
 75
     0
 76
     0
 77
     0
 78
     7
170
     0
171
     2
172
     0
173
     0
174
     0
175
     0
176
   256
177
   256
178
     2
  0
DIMSTYLE
  2
AM_ANSI$7
 70
     0
  3

  4
mm
  5

  6

  7

 40
1.0
 41
0.1
 42
0.05
 43
0.5
 44
0.1
 45
0.0
 46
0.0
 47
0.1
 48
0.1
140
0.24
141
0.0
142
0.0
143
25.399999999999999
144
1.0
145
0.0
146
0.71
147
0.06
 71
     0
 72
     0
 73
     1
 74
     1
 75
     0
 76
     0
 77
     0
 78
     7
170
     0
171
     2
172
     0
173
     0
174
     0
175
     0
176
   256
177
   256
178
     2
  0
DIMSTYLE
  2
AM_ANSI$SF
 70
     0
  3

  4
mm
  5

  6

  7

 40
1.0
 41
0.1
 42
0.05
 43
0.5
 44
0.1
 45
0.0
 46
0.0
 47
0.1
 48
0.1
140
0.12
141
0.0
142
0.0
143
25.399999999999999
144
1.0
145
0.0
146
0.71
147
0.06
 71
     0
 72
     0
 73
     1
 74
     1
 75
     1
 76
     1
 77
     0
 78
     7
170
     0
171
     2
172
     0
173
     0
174
     0
175
     0
176
   256
177
   256
178
     2
  0
DIMSTYLE
  2
AM_ANSI$SH
 70
     0
  3

  4
mm
  5

  6

  7

 40
1.0
 41
0.1
 42
0.05
 43
0.5
 44
0.1
 45
0.0
 46
0.0
 47
0.1
 48
0.1
140
0.12
141
0.0
142
0.0
143
25.399999999999999
144
1.0
145
0.0
146
0.71
147
0.06
 71
     0
 72
     0
 73
     1
 74
     1
 75
     1
 76
     1
 77
     0
 78
     7
170
     0
171
     2
172
     0
173
     1
174
     0
175
     0
176
   256
177
   256
178
     2
  0
ENDTAB
  0
ENDSEC
  0
SECTION
  2
BLOCKS
  0
BLOCK
  8
0
  2
$MODEL_SPACE
 70
     0
 10
0.0
 20
0.0
 30
0.0
  3
$MODEL_SPACE
  1

  0
ENDBLK
  5
1051
  8
0
  0
BLOCK
 67
     1
  8
0
  2
$PAPER_SPACE
 70
     0
 10
0.0
 20
0.0
 30
0.0
  3
$PAPER_SPACE
  1

  0
ENDBLK
  5
104D
 67
     1
  8
0
  0
BLOCK
  8
0
  2
_OPEN
 70
     0
 10
0.0
 20
0.0
 30
0.0
  3
_OPEN
  1

  0
LINE
  5
C99
  8
0
  6
BYBLOCK
 62
     0
 10
-1.0
 20
0.1666666666666666
 30
0.0
 11
0.0
 21
0.0
 31
0.0
  0
LINE
  5
C9A
  8
0
  6
BYBLOCK
 62
     0
 10
-1.0
 20
-0.1666666666666666
 30
0.0
 11
0.0
 21
0.0
 31
0.0
  0
LINE
  5
C9B
  8
0
  6
BYBLOCK
 62
     0
 10
0.0
 20
0.0
 30
0.0
 11
-1.0
 21
0.0
 31
0.0
  0
ENDBLK
  5
C9C
  8
0
  0
BLOCK
  8
0
  2
矢印なし
 70
     0
 10
0.0
 20
0.0
 30
0.0
  3
矢印なし
  1

  0
ENDBLK
  5
6E5
  8
0
  0
BLOCK
  8
0
  2
GENAXEH
 70
     0
 10
0.0
 20
0.0
 30
0.0
  3
GENAXEH
  1

  0
LINE
  5
CC4
  8
0
 10
-1.0
 20
0.0
 30
0.0
 11
1.0
 21
0.0
 31
0.0
  0
ENDBLK
  5
CC5
  8
0
  0
BLOCK
  8
0
  2
_OPEN30
 70
     0
 10
0.0
 20
0.0
 30
0.0
  3
_OPEN30
  1

  0
LINE
  5
CE9
  8
0
  6
BYBLOCK
 62
     0
 10
-1.0
 20
0.26794919
 30
0.0
 11
0.0
 21
0.0
 31
0.0
  0
LINE
  5
CEA
  8
0
  6
BYBLOCK
 62
     0
 10
0.0
 20
0.0
 30
0.0
 11
-1.0
 21
-0.26794919
 31
0.0
  0
LINE
  5
CEB
  8
0
  6
BYBLOCK
 62
     0
 10
0.0
 20
0.0
 30
0.0
 11
-1.0
 21
0.0
 31
0.0
  0
ENDBLK
  5
CEC
  8
0
  0
BLOCK
  8
0
  2
*U6
 70
     1
 10
0.0
 20
0.0
 30
0.0
  3
*U6
  1

  0
TEXT
  5
F88
  8
250
 62
    40
 10
43.333333333333329
 20
36.0
 30
0.0
 40
2.799999999999998
  1
38
  0
ENDBLK
  5
F8A
  8
0
  0
BLOCK
  8
0
  2
*U7
 70
     1
 10
0.0
 20
0.0
 30
0.0
  3
*U7
  1

  0
TEXT
  5
F8C
  8
250
 62
    40
 10
29.766666666666669
 20
43.0
 30
0.0
 40
2.799999999999998
  1
65
  0
ENDBLK
  5
F8E
  8
0
  0
BLOCK
  8
0
  2
*U8
 70
     1
 10
0.0
 20
0.0
 30
0.0
  3
*U8
  1

  0
TEXT
  5
F90
  8
250
 62
    40
 10
57.033333333333339
 20
29.0
 30
0.0
 40
2.799999999999998
  1
11
  0
ENDBLK
  5
F92
  8
0
  0
BLOCK
  8
0
  2
*U9
 70
     1
 10
0.0
 20
0.0
 30
0.0
  3
*U9
  1

  0
TEXT
  5
F94
  8
250
 62
    40
 10
76.0
 20
-3.7999999999999989
 30
0.0
 40
2.799999999999998
  1
\U+2205
 50
90.0
  0
TEXT
  5
F95
  8
250
 62
    40
 10
76.0
 20
-1.2666666666666651
 30
0.0
 40
2.799999999999998
  1
32
 50
90.0
  0
ENDBLK
  5
F97
  8
0
  0
BLOCK
  8
0
  2
*U10
 70
     1
 10
0.0
 20
0.0
 30
0.0
  3
*U10
  1

  0
TEXT
  5
102B
  8
250
 62
    40
 10
143.69854617906191
 20
21.06000000000002
 30
0.0
 40
2.799999999999998
  1
0.125
 50
90.0
  0
ENDBLK
  5
102D
  8
0
  0
BLOCK
  8
0
  2
*U14
 70
     1
 10
0.0
 20
0.0
 30
0.0
  3
*U14
  1

  0
TEXT
  5
11C7
  8
AM_5
 62
    40
 10
68.507192162950744
 20
-17.893501928926678
 30
0.0
 40
2.799999999999998
  1
R0.4
 50
315.63369949261738
  0
ENDBLK
  5
11C9
  8
0
  0
ENDSEC
  0
SECTION
  2
ENTITIES
  0
INSERT
  5
6E6
  8
245
  2
矢印なし
 10
175.62382697000001
 20
90.551235719999994
 30
0.0
  0
TEXT
  5
8A3
  8
241
 10
-48.399999999999991
 20
56.0
 30
0.0
 40
5.0
  1
BBT30-FCM32113-65
  7
YOKO
 11
-48.399999999999991
 21
56.0
 31
0.0
 73
     1
  0
LINE
  5
B48
  8
250
 10
-27.508737409999998
 20
-21.238842340000001
 30
0.0
 11
-45.242070740000003
 21
-21.238842340000001
 31
0.0
1001
ITEMNAME
1000
LNSP2
  0
LINE
  5
CFF
  8
240
  6
CONTINUOUS
 10
52.35358982000001
 20
-15.4
 30
0.0
 11
25.0
 21
-15.4
 31
0.0
1001
GRPNAME
1000
PASTMD0V
  0
LINE
  5
D00
  8
240
  6
CONTINUOUS
 10
52.35358982000001
 20
15.4
 30
0.0
 11
25.0
 21
15.4
 31
0.0
1001
GRPNAME
1000
PASTMD0V
  0
LINE
  5
D02
  8
245
  6
CENTER2
 10
-49.399999999999999
 20
0.0
 30
0.0
 11
66.0
 21
0.0
 31
0.0
1001
GRPNAME
1000
PASTMD04
  0
LINE
  5
D03
  8
240
  6
CONTINUOUS
 10
-47.544310230000001
 20
8.9412910399999976
 30
0.0
 11
0.0
 21
15.875
 31
0.0
  0
LINE
  5
D04
  8
240
  6
CONTINUOUS
 10
-47.544310230000001
 20
-8.9412910399999976
 30
0.0
 11
0.0
 21
-15.875
 31
0.0
  0
LINE
  5
D05
  8
240
  6
CONTINUOUS
 10
-48.399999999999991
 20
-7.9517585400000002
 30
0.0
 11
-48.399999999999991
 21
0.0
 31
0.0
  0
ARC
  5
D06
  8
240
  6
CONTINUOUS
 10
-47.399999999999999
 20
-7.9517585400000002
 30
0.0
 40
1.0
 50
180.0
 51
261.70266184000002
  0
LINE
  5
D07
  8
240
  6
CONTINUOUS
 10
-48.399999999999991
 20
7.9517585400000002
 30
0.0
 11
-48.399999999999991
 21
0.0
 31
0.0
  0
ARC
  5
D08
  8
240
  6
CONTINUOUS
 10
-47.399999999999999
 20
7.9517585400000002
 30
0.0
 40
1.0
 50
98.297338159999995
 51
180.0
  0
LINE
  5
D09
  8
241
  6
CONTINUOUS
 10
22.0
 20
-20.0
 30
0.0
 11
22.0
 21
0.0
 31
0.0
  0
LINE
  5
D0A
  8
241
 10
0.0
 20
-15.875
 30
0.0
 11
0.0
 21
0.0
 31
0.0
  0
LINE
  5
D0B
  8
241
 10
1.0
 20
0.0
 30
0.0
 11
1.0
 21
-15.875
 31
0.0
  0
LINE
  5
D0C
  8
245
  6
CENTER2
 10
13.6
 20
-23.0
 30
0.0
 11
13.6
 21
23.0
 31
0.0
  0
LINE
  5
D0D
  8
241
  6
CONTINUOUS
 10
15.290598920000001
 20
-19.0
 30
0.0
 11
15.290598920000001
 21
0.04377196
 31
0.0
  0
LINE
  5
D0E
  8
241
  6
CONTINUOUS
 10
17.600000000000001
 20
0.0
 30
0.0
 11
17.600000000000001
 21
-23.0
 31
0.0
  0
LINE
  5
D0F
  8
241
  6
CONTINUOUS
 10
11.90940108
 20
-19.0
 30
0.0
 11
11.90940108
 21
0.04377196
 31
0.0
  0
LINE
  5
D10
  8
241
  6
CONTINUOUS
 10
9.5999999999999996
 20
-23.0
 30
0.0
 11
9.5999999999999996
 21
0.0
 31
0.0
  0
LINE
  5
D11
  8
241
  6
CONTINUOUS
 10
25.0
 20
0.0
 30
0.0
 11
25.0
 21
-15.4
 31
0.0
1001
GRPNAME
1000
PASTMD04
  0
LINE
  5
D12
  8
243
  6
HIDDEN2
 10
19.0
 20
-16.300000000000001
 30
0.0
 11
1.0
 21
-16.300000000000001
 31
0.0
  0
LINE
  5
D13
  8
240
  6
CONTINUOUS
 10
9.5999999999999996
 20
-23.0
 30
0.0
 11
1.0
 21
-23.0
 31
0.0
  0
LINE
  5
D14
  8
240
  6
CONTINUOUS
 10
1.0
 20
-15.875
 30
0.0
 11
1.0
 21
-23.0
 31
0.0
  0
LINE
  5
D15
  8
240
 10
0.0
 20
-15.875
 30
0.0
 11
1.0
 21
-15.875
 31
0.0
  0
LINE
  5
D16
  8
240
  6
CONTINUOUS
 10
17.600000000000001
 20
-23.0
 30
0.0
 11
22.0
 21
-23.0
 31
0.0
  0
LINE
  5
D17
  8
240
  6
CONTINUOUS
 10
11.90940108
 20
-19.0
 30
0.0
 11
9.5999999999999996
 21
-23.0
 31
0.0
  0
LINE
  5
D18
  8
240
  6
CONTINUOUS
 10
15.290598920000001
 20
-19.0
 30
0.0
 11
17.600000000000001
 21
-23.0
 31
0.0
  0
LINE
  5
D19
  8
243
  6
HIDDEN2
 10
19.0
 20
-16.300000000000001
 30
0.0
 11
19.0
 21
-23.0
 31
0.0
  0
LINE
  5
D1A
  8
240
  6
CONTINUOUS
 10
11.90940108
 20
-19.0
 30
0.0
 11
15.290598920000001
 21
-19.0
 31
0.0
  0
ARC
  5
D1B
  8
240
  6
CONTINUOUS
 10
25.0
 20
-20.0
 30
0.0
 40
2.9999999999999911
 50
146.25101140000001
 51
179.99999998999999
1001
GRPNAME
1000
PASTMD04
  0
LINE
  5
D1C
  8
240
  6
CONTINUOUS
 10
22.0
 20
-23.0
 30
0.0
 11
22.0
 21
-20.0
 31
0.0
  0
ARC
  5
D1D
  8
240
  6
CONTINUOUS
 10
25.0
 20
-16.399999999999999
 30
0.0
 40
1.0000000000000251
 50
90.000000059999962
 51
146.25101147000001
1001
GRPNAME
1000
PASTMD04
  0
LINE
  5
D1E
  8
240
  6
CONTINUOUS
 10
24.168520579999999
 20
-15.84444444
 30
0.0
 11
22.505561740000001
 21
-18.333333329999999
 31
0.0
1001
GRPNAME
1000
PASTMD04
  0
LINE
  5
D1F
  8
240
  6
CONTINUOUS
 10
9.5999999999999996
 20
23.0
 30
0.0
 11
1.0
 21
23.0
 31
0.0
  0
LINE
  5
D20
  8
241
  6
HIDDEN2
 10
19.0
 20
16.300000000000001
 30
0.0
 11
1.0
 21
16.300000000000001
 31
0.0
  0
LINE
  5
D21
  8
241
 10
0.0
 20
15.875
 30
0.0
 11
0.0
 21
0.0
 31
0.0
  0
LINE
  5
D22
  8
241
 10
1.0
 20
0.0
 30
0.0
 11
1.0
 21
15.875
 31
0.0
  0
LINE
  5
D23
  8
240
  6
CONTINUOUS
 10
1.0
 20
15.875
 30
0.0
 11
1.0
 21
23.0
 31
0.0
  0
LINE
  5
D24
  8
240
 10
0.0
 20
15.875
 30
0.0
 11
1.0
 21
15.875
 31
0.0
  0
LINE
  5
D25
  8
241
  6
CONTINUOUS
 10
22.0
 20
20.0
 30
0.0
 11
22.0
 21
0.0
 31
0.0
  0
LINE
  5
D26
  8
241
  6
CONTINUOUS
 10
25.0
 20
0.0
 30
0.0
 11
25.0
 21
15.4
 31
0.0
1001
GRPNAME
1000
PASTMD04
  0
LINE
  5
D27
  8
241
  6
CONTINUOUS
 10
11.90940108
 20
19.0
 30
0.0
 11
11.90940108
 21
-0.04377196
 31
0.0
  0
LINE
  5
D28
  8
241
  6
CONTINUOUS
 10
15.290598920000001
 20
19.0
 30
0.0
 11
15.290598920000001
 21
-0.04377196
 31
0.0
  0
LINE
  5
D29
  8
241
  6
CONTINUOUS
 10
17.600000000000001
 20
0.0
 30
0.0
 11
17.600000000000001
 21
23.0
 31
0.0
  0
LINE
  5
D2A
  8
241
  6
CONTINUOUS
 10
9.5999999999999996
 20
23.0
 30
0.0
 11
9.5999999999999996
 21
0.0
 31
0.0
  0
LINE
  5
D2B
  8
240
  6
CONTINUOUS
 10
17.600000000000001
 20
23.0
 30
0.0
 11
22.0
 21
23.0
 31
0.0
  0
LINE
  5
D2C
  8
240
  6
CONTINUOUS
 10
11.90940108
 20
19.0
 30
0.0
 11
9.5999999999999996
 21
23.0
 31
0.0
  0
LINE
  5
D2D
  8
241
  6
HIDDEN2
 10
19.0
 20
16.300000000000001
 30
0.0
 11
19.0
 21
23.0
 31
0.0
  0
LINE
  5
D2E
  8
240
  6
CONTINUOUS
 10
15.290598920000001
 20
19.0
 30
0.0
 11
17.600000000000001
 21
23.0
 31
0.0
  0
LINE
  5
D2F
  8
240
  6
CONTINUOUS
 10
11.90940108
 20
19.0
 30
0.0
 11
15.290598920000001
 21
19.0
 31
0.0
  0
LINE
  5
D30
  8
240
  6
CONTINUOUS
 10
24.168520579999999
 20
15.84444444
 30
0.0
 11
22.505561740000001
 21
18.333333329999999
 31
0.0
1001
GRPNAME
1000
PASTMD04
  0
ARC
  5
D31
  8
240
  6
CONTINUOUS
 10
25.0
 20
16.399999999999999
 30
0.0
 40
1.0000000000000211
 50
213.74898852000001
 51
269.99999993
1001
GRPNAME
1000
PASTMD04
  0
LINE
  5
D32
  8
240
  6
CONTINUOUS
 10
22.0
 20
23.0
 30
0.0
 11
22.0
 21
20.0
 31
0.0
  0
ARC
  5
D33
  8
240
  6
CONTINUOUS
 10
25.0
 20
20.0
 30
0.0
 40
2.9999999999999911
 50
180.00000001000001
 51
213.74898859999999
1001
GRPNAME
1000
PASTMD04
  0
LINE
  5
D48
  8
250
 10
27.0
 20
15.9
 30
0.0
 11
27.0
 21
36.0
 31
0.0
  0
LINE
  5
D49
  8
250
 10
65.0
 20
16.5
 30
0.0
 11
65.0
 21
36.0
 31
0.0
  0
LINE
  5
D4A
  8
250
 10
29.23
 20
35.0
 30
0.0
 11
62.77000000000001
 21
35.0
 31
0.0
  0
LINE
  5
D4E
  8
250
 10
0.0
 20
16.375
 30
0.0
 11
0.0
 21
43.0
 31
0.0
  0
LINE
  5
D4F
  8
250
 10
65.0
 20
16.5
 30
0.0
 11
65.0
 21
43.0
 31
0.0
  0
LINE
  5
D50
  8
250
 10
2.2299999999999991
 20
42.0
 30
0.0
 11
62.77000000000001
 21
42.0
 31
0.0
  0
LINE
  5
D54
  8
250
 10
54.0
 20
16.5
 30
0.0
 11
54.0
 21
29.0
 31
0.0
  0
LINE
  5
D55
  8
250
 10
65.0
 20
16.5
 30
0.0
 11
65.0
 21
29.0
 31
0.0
  0
LINE
  5
D56
  8
250
 10
56.229999999999997
 20
28.0
 30
0.0
 11
62.77000000000001
 21
28.0
 31
0.0
  0
LINE
  5
D5B
  8
250
 10
65.5
 20
16.0
 30
0.0
 11
78.0
 21
16.0
 31
0.0
  0
LINE
  5
D5C
  8
250
 10
77.0
 20
-13.77
 30
0.0
 11
77.0
 21
13.77
 31
0.0
  0
TEXT
  5
D60
  8
250
 10
76.0
 20
-3.7999999999999989
 30
0.0
 40
2.799999999999998
  1
\U+2205
 50
90.0
1001
ACAD
1000
MTEXTBEGIN
1070
    73
1070
     1
1070
    44
1040
1.0
1070
    74
1070
     0
1000
MTEXTEND
1000
MTEXTBEGIN
1070
    73
1070
     1
1070
    44
1040
1.0
1070
    74
1070
     0
1000
MTEXTEND
  0
TEXT
  5
D61
  8
250
 10
76.0
 20
-1.2666666666666651
 30
0.0
 40
2.799999999999998
  1
32
 50
90.0
1001
ACAD
1000
MTEXTBEGIN
1070
    73
1070
     1
1070
    44
1040
1.0
1070
    74
1070
     0
1000
MTEXTEND
1000
MTEXTBEGIN
1070
    73
1070
     1
1070
    44
1040
1.0
1070
    74
1070
     0
1000
MTEXTEND
  0
LINE
  5
D62
  8
250
 10
76.62833333333333
 20
13.77
 30
0.0
 11
77.0
 21
16.0
 31
0.0
  0
LINE
  5
D63
  8
250
 10
77.371666666666655
 20
13.77
 30
0.0
 11
77.0
 21
16.0
 31
0.0
  0
LINE
  5
D64
  8
250
 10
77.0
 20
16.0
 30
0.0
 11
77.0
 21
13.77
 31
0.0
  0
TEXT
  5
D68
  8
250
 10
43.333333333333329
 20
36.0
 30
0.0
 40
2.799999999999998
  1
38
1001
ACAD
1000
MTEXTBEGIN
1070
    73
1070
     1
1070
    44
1040
1.0
1070
    74
1070
     0
1000
MTEXTEND
1000
MTEXTBEGIN
1070
    73
1070
     1
1070
    44
1040
1.0
1070
    74
1070
     0
1000
MTEXTEND
  0
LINE
  5
D69
  8
250
 10
62.77000000000001
 20
35.37166666666667
 30
0.0
 11
65.0
 21
35.0
 31
0.0
  0
LINE
  5
D6A
  8
250
 10
62.77000000000001
 20
34.62833333333333
 30
0.0
 11
65.0
 21
35.0
 31
0.0
  0
LINE
  5
D6B
  8
250
 10
65.0
 20
35.0
 30
0.0
 11
62.77000000000001
 21
35.0
 31
0.0
  0
LINE
  5
D6C
  8
250
 10
29.23
 20
34.62833333333333
 30
0.0
 11
27.0
 21
35.0
 31
0.0
  0
LINE
  5
D6D
  8
250
 10
29.23
 20
35.37166666666667
 30
0.0
 11
27.0
 21
35.0
 31
0.0
  0
LINE
  5
D6E
  8
250
 10
27.0
 20
35.0
 30
0.0
 11
29.23
 21
35.0
 31
0.0
  0
TEXT
  5
D6F
  8
250
 10
29.766666666666669
 20
43.0
 30
0.0
 40
2.799999999999998
  1
65
1001
ACAD
1000
MTEXTBEGIN
1070
    73
1070
     1
1070
    44
1040
1.0
1070
    74
1070
     0
1000
MTEXTEND
1000
MTEXTBEGIN
1070
    73
1070
     1
1070
    44
1040
1.0
1070
    74
1070
     0
1000
MTEXTEND
  0
LINE
  5
D70
  8
250
 10
62.77000000000001
 20
42.371666666666663
 30
0.0
 11
65.0
 21
42.0
 31
0.0
  0
LINE
  5
D71
  8
250
 10
62.77000000000001
 20
41.62833333333333
 30
0.0
 11
65.0
 21
42.0
 31
0.0
  0
LINE
  5
D72
  8
250
 10
65.0
 20
42.0
 30
0.0
 11
62.77000000000001
 21
42.0
 31
0.0
  0
TEXT
  5
D73
  8
250
 10
57.033333333333339
 20
29.0
 30
0.0
 40
2.799999999999998
  1
11
1001
ACAD
1000
MTEXTBEGIN
1070
    73
1070
     1
1070
    44
1040
1.0
1070
    74
1070
     0
1000
MTEXTEND
1000
MTEXTBEGIN
1070
    73
1070
     1
1070
    44
1040
1.0
1070
    74
1070
     0
1000
MTEXTEND
  0
LINE
  5
D74
  8
250
 10
62.77000000000001
 20
28.371666666666659
 30
0.0
 11
65.0
 21
28.0
 31
0.0
  0
LINE
  5
D75
  8
250
 10
62.77000000000001
 20
27.62833333333333
 30
0.0
 11
65.0
 21
28.0
 31
0.0
  0
LINE
  5
D76
  8
250
 10
65.0
 20
28.0
 30
0.0
 11
62.77000000000001
 21
28.0
 31
0.0
  0
LINE
  5
D77
  8
250
 10
56.229999999999997
 20
27.62833333333333
 30
0.0
 11
54.0
 21
28.0
 31
0.0
  0
LINE
  5
D78
  8
250
 10
56.229999999999997
 20
28.371666666666659
 30
0.0
 11
54.0
 21
28.0
 31
0.0
  0
LINE
  5
D79
  8
250
 10
54.0
 20
28.0
 30
0.0
 11
56.229999999999997
 21
28.0
 31
0.0
  0
LINE
  5
D7A
  8
250
 10
2.2299999999999991
 20
41.62833333333333
 30
0.0
 11
0.0
 21
42.0
 31
0.0
  0
LINE
  5
D7B
  8
250
 10
2.2299999999999991
 20
42.371666666666663
 30
0.0
 11
0.0
 21
42.0
 31
0.0
  0
LINE
  5
D7C
  8
250
 10
0.0
 20
42.0
 30
0.0
 11
2.2299999999999991
 21
42.0
 31
0.0
  0
TEXT
  5
D7F
  8
250
 10
-42.975404073333323
 20
-20.238842340000001
 30
0.0
 40
2.799999999999998
  1
BBT30
  7
YOKO
1001
ITEMNAME
1000
LNSP3
1001
ACAD
1000
MTEXTBEGIN
1070
    73
1070
     1
1070
    44
1040
1.0
1070
    74
1070
     0
1000
MTEXTEND
1000
MTEXTBEGIN
1070
    73
1070
     1
1070
    44
1040
1.0
1070
    74
1070
     0
1000
MTEXTEND
1000
MTEXTBEGIN
1070
    73
1070
     1
1070
    44
1040
1.0
1070
    74
1070
     0
1000
MTEXTEND
  0
LINE
  5
D80
  8
250
 10
-23.631091409633061
 20
-14.522562450651151
 30
0.0
 11
-27.508737409999998
 21
-21.238842340000001
 31
0.0
1001
ACAD
1000
DSTYLE
1002
{
1070
     6
1000
OPEN
1070
   343
1005
594
1002
}
  0
LINE
  5
D81
  8
250
 10
-23.952964184741589
 20
-14.336729117378971
 30
0.0
 11
-22.516091410000001
 21
-12.5913258
 31
0.0
  0
LINE
  5
D82
  8
250
 10
-23.309218634524541
 20
-14.708395783923329
 30
0.0
 11
-22.516091410000001
 21
-12.5913258
 31
0.0
  0
LINE
  5
D83
  8
250
 10
-22.516091410000001
 20
-12.5913258
 30
0.0
 11
-23.631091409633061
 21
-14.522562450651151
 31
0.0
  0
ARC
  5
E62
  8
241
 10
42.964556899049228
 20
-9.4792274768600802
 30
0.0
 40
4.5645568990493111
 50
79.999982399905917
 51
251.76021479350999
  0
LINE
  5
E63
  8
241
 10
46.119546801934121
 20
-15.32500000000001
 30
0.0
 11
41.535875751958869
 21
-13.81443795209737
 31
0.0
  0
LINE
  5
E64
  8
241
  6
CONTINUOUS
 10
53.573700184513172
 20
-3.6720239803061561
 30
0.0
 11
64.399999999999963
 21
-5.5809927390155289
 31
0.0
  0
LINE
  5
E65
  8
241
 10
52.553609506036892
 20
-6.8430622901445028
 30
0.0
 11
64.399999999999963
 21
-11.15479581344106
 31
0.0
  0
LINE
  5
E66
  8
240
 10
64.399999999999963
 20
-11.15479581344105
 30
0.0
 11
65.000000000000099
 21
-11.37317795400083
 31
0.0
  0
LINE
  5
E67
  8
241
 10
52.20710221830803
 20
-6.47396504030465
 30
0.0
 11
43.757183886426063
 21
-4.984016453610935
 31
0.0
  0
LINE
  5
E68
  8
241
 10
52.553609506036892
 20
-6.8430622901445028
 30
0.0
 11
52.068777237390741
 21
-6.7575732800642081
 31
0.0
  0
LINE
  5
E69
  8
241
  6
CONTINUOUS
 10
53.573700184513172
 20
-3.6720239803061561
 30
0.0
 11
52.068777237390741
 21
-6.7575732800642081
 31
0.0
  0
LINE
  5
E6A
  8
241
 10
64.391050952334695
 20
-5.579414780460497
 30
0.0
 11
64.399999999999963
 21
-5.664559281466218
 31
0.0
  0
LINE
  5
E6B
  8
240
 10
64.399999999999963
 20
-5.664559281466218
 30
0.0
 11
65.0
 21
-11.37317795400083
 31
0.0
  0
LINE
  5
E6C
  8
240
 10
64.399999999999963
 20
-14.91047852748164
 30
0.0
 11
64.399999999999963
 21
-11.15479581344105
 31
0.0
  0
LINE
  5
E6D
  8
240
 10
64.399999999999963
 20
-5.664559281466218
 30
0.0
 11
64.399999999999963
 21
5.0105696789052221
 31
0.0
  0
LINE
  5
E6E
  8
240
 10
64.099999999999994
 20
6.5000000000000231
 30
0.0
 11
64.099999999999994
 21
5.7247125217594963
 31
0.0
  0
LINE
  5
E71
  8
241
 10
38.399999999999977
 20
15.32500000000004
 30
0.0
 11
38.400000000000013
 21
14.804875013105139
 31
0.0
  0
LINE
  5
E72
  8
241
 10
63.678550528750392
 20
5.9709912545337991
 30
0.0
 11
39.842898942499147
 21
12.88403186184803
 31
0.0
  0
ARC
  5
E73
  8
240
 10
63.399999999999977
 20
5.0105696789052221
 30
0.0
 40
1.0
 50
0.0
 51
45.572978399094893
  0
ARC
  5
E74
  8
241
 10
63.399999999999977
 20
5.0105696789052221
 30
0.0
 40
1.0
 50
45.572978399094893
 51
73.826285227451464
  0
ARC
  5
E75
  8
241
 10
40.399999999999977
 20
14.804875013105139
 30
0.0
 40
2.0
 50
180.0
 51
253.82628522745151
  0
LINE
  5
E79
  8
245
 10
62.967833597673682
 20
11.13300000000001
 30
0.0
 11
53.78837853088281
 21
11.13300000000001
 31
0.0
  0
LINE
  5
E7A
  8
245
 10
58.60599999999981
 20
7.7159817742588892
 30
0.0
 11
58.605999999999888
 21
15.39177125310257
 31
0.0
  0
LINE
  5
E7D
  8
240
 10
64.721703210729899
 20
13.299999999999979
 30
0.0
 11
64.721703210729856
 21
6.5000000000000284
 31
0.0
  0
LINE
  5
E7E
  8
240
 10
64.999999999999972
 20
13.631661198420099
 30
0.0
 11
64.721703210729899
 21
13.299999999999979
 31
0.0
  0
LINE
  5
E7F
  8
240
 10
65.0
 20
16.0
 30
0.0
 11
64.999999999999972
 21
13.631661198420099
 31
0.0
  0
LINE
  5
E80
  8
240
 10
52.490296789269848
 20
16.000000000000021
 30
0.0
 11
65.0
 21
16.0
 31
0.0
  0
LINE
  5
E81
  8
240
 10
52.49029678926982
 20
15.325000000000429
 30
0.0
 11
52.490296789269848
 21
16.000000000000021
 31
0.0
  0
LINE
  5
E82
  8
240
 10
64.721703210729856
 20
6.5000000000000284
 30
0.0
 11
64.099999999999994
 21
6.5000000000000231
 31
0.0
  0
CIRCLE
  5
E83
  8
241
 10
58.605999999999838
 20
11.13300000000001
 30
0.0
 40
2.8999999999999999
  0
LINE
  5
E84
  8
241
 10
64.099999999999994
 20
6.5000000000000231
 30
0.0
 11
61.854567587051527
 21
6.5000000000000231
 31
0.0
  0
LINE
  5
E85
  8
241
 10
52.49029678926982
 20
15.325000000000429
 30
0.0
 11
52.49029678926982
 21
9.2159141863062235
 31
0.0
  0
LINE
  5
E86
  8
241
 10
52.490296789269848
 20
16.000000000000021
 30
0.0
 11
57.961507221466853
 21
13.960477508030589
 31
0.0
  0
LINE
  5
E87
  8
241
 10
60.944055185814761
 20
12.84866253910379
 30
0.0
 11
64.721703210729899
 21
11.440455304335741
 31
0.0
  0
LINE
  5
E88
  8
241
 10
52.49029678926982
 20
11.0595446956643
 30
0.0
 11
56.070846734607841
 21
9.7248104101463717
 31
0.0
  0
LINE
  5
E89
  8
241
 10
59.60076392850906
 20
8.4089506747239522
 30
0.0
 11
64.721703210729856
 21
6.5000000000000284
 31
0.0
  0
LINE
  5
1168
  8
240
 10
64.010615728560992
 20
-15.31033763555237
 30
0.0
 11
53.10000002999999
 21
-15.6
 31
0.0
1001
GRPNAME
1000
PASTMD0V
  0
LINE
  5
1169
  8
240
 10
52.35358982000001
 20
-15.4
 30
0.0
 11
53.10000002999999
 21
-15.6
 31
0.0
1001
GRPNAME
1000
PASTMD0V
1001
GENIUS_GENOREF_13
1005
1184
  0
POINT
  5
1184
  8
0
 10
0.0
 20
0.0
 30
0.0
1001
GENIUS_GENOENT_13
1002
{
1000
MYREF
1005
1184
1002
}
1002
{
1000
GRP
1005
0
1002
}
1001
GENIUS_GENOLIS_13
1002
{
1000
ENT
1005
1169
1005
E76
1002
}
1001
GENIUS_GENOBJ-N-FIL_13
1002
{
1000
OWNER
1000
GEN
1002
}
1001
GENIUS_GENODEF_13
1002
{
1000
HIER
1070
     1
1002
}
1002
{
1000
MANEDIT
1070
     1
1002
}
1002
{
1000
NOSEL
1070
     0
1002
}
1002
{
1000
BEHIND
1070
     0
1002
}
1002
{
1000
OTHER
1070
     0
1002
}
1002
{
1000
REACTOR
1002
}
  0
ARC
  5
1189
  8
240
 10
63.999999999999957
 20
-14.91047852748164
 30
0.0
 40
0.4
 50
271.52076966517927
 51
0.0
1001
GENIUS_GENODEF_13
1002
{
1000
HIER
1070
     0
1002
}
1002
{
1000
MANEDIT
1070
     0
1002
}
1002
{
1000
NOSEL
1070
     0
1002
}
1002
{
1000
BEHIND
1070
     0
1002
}
1002
{
1000
OTHER
1070
     0
1002
}
1002
{
1000
REACTOR
1002
}
1001
GENIUS_GENOBJ-N-FIL_13
1002
{
1000
OWNER
1000
GEN
1002
}
  0
VIEWPORT
  5
22
 67
     1
  8
0
 10
261.51769911999997
 20
148.5
 30
0.0
 40
523.03539823000006
 41
297.0
 68
     1
 69
     1
1001
ACAD
1000
MVIEW
1002
{
1070
    16
1010
0.0
1020
0.0
1030
0.0
1010
0.0
1020
0.0
1030
1.0
1040
0.0
1040
297.0
1040
261.51769911999997
1040
148.5
1040
50.0
1040
0.0
1040
0.0
1070
     0
1070
   100
1070
     1
1070
     1
1070
     0
1070
     0
1070
     0
1070
     0
1040
0.0
1040
0.0
1040
0.0
1040
1.0
1040
1.0
1040
10.0
1040
10.0
1070
     0
1002
{
1002
}
1002
}
1001
GENIUS_GENODEF_13
1002
{
1000
HIER
1070
     0
1002
}
1002
{
1000
MANEDIT
1070
     0
1002
}
1002
{
1000
NOSEL
1070
     0
1002
}
1002
{
1000
BEHIND
1070
     0
1002
}
1002
{
1000
OTHER
1070
     0
1002
}
1002
{
1000
REACTOR
1002
}
1001
GENIUS_GENOBJ-N-SDF_13
1002
{
1000
OWNER
1000
GEN
1002
}
1001
GENIUS_GENSCREG_15
1000
PF
1040
1.0
1000
DF
1040
1.0
1000
MIN
1011
0.0000000049999471
1021
0.0
1031
0.0
1021
0.0
1031
0.0
1000
MAX
1011
523.035398235
1021
0.0
1031
0.0
1021
297.0
1031
0.0
1000
FLAGS
1070
     2
  0
ENDSEC
  0
EOF
