ISO-10303-21;
HEADER;
FILE_DESCRIPTION((''),'1');
FILE_NAME('//Big_tech03/bigt/Translate/21_\X2\8F2A90ED7DDA\X0\-DXF/71_\X2\5207524A5DE55177\X0\/01_\X2\30A830F330C930DF30EB52A05DE5\X0\/01_\X2\30D530EB30AB30C330C830DF30EB\X0\ FCM/BBT/BBT30/BBT30-FCM25093-65.stp','2012-05-30T00:00:44',(''),(''),'Spatial Interop R18','Kubotek KeyCreator V8.5.1 (14335)',' ');
FILE_SCHEMA(('CONFIG_CONTROL_DESIGN'));
ENDSEC;
DATA;
#1=DESIGN_CONTEXT('',#27,'design');
#2=APPLICATION_PROTOCOL_DEFINITION('INTERNATIONAL STANDARD','config_control_design',1994,#27);
#3=PRODUCT_CATEGORY_RELATIONSHIP('NONE','NONE',#28,#29);
#4=DATE_AND_TIME(#30,#31);
#5=DATE_TIME_ROLE('creation_date');
#6=DATE_TIME_ROLE('classification_date');
#7=PERSON_AND_ORGANIZATION_ROLE('creator');
#8=PERSON_AND_ORGANIZATION_ROLE('design_supplier');
#9=PERSON_AND_ORGANIZATION_ROLE('classification_officer');
#10=PERSON_AND_ORGANIZATION_ROLE('design_owner');
#11=APPROVAL_PERSON_ORGANIZATION(#32,#33,#34);
#12=APPROVAL_DATE_TIME(#4,#33);
#13=CC_DESIGN_APPROVAL(#33,(#35,#36,#37));
#14=CC_DESIGN_DATE_AND_TIME_ASSIGNMENT(#4,#5,(#37));
#15=CC_DESIGN_DATE_AND_TIME_ASSIGNMENT(#4,#6,(#35));
#16=CC_DESIGN_PERSON_AND_ORGANIZATION_ASSIGNMENT(#32,#10,(#38));
#17=CC_DESIGN_PERSON_AND_ORGANIZATION_ASSIGNMENT(#32,#7,(#37));
#18=CC_DESIGN_PERSON_AND_ORGANIZATION_ASSIGNMENT(#32,#7,(#36));
#19=CC_DESIGN_PERSON_AND_ORGANIZATION_ASSIGNMENT(#32,#8,(#36));
#20=CC_DESIGN_SECURITY_CLASSIFICATION(#35,(#36));
#21=CC_DESIGN_PERSON_AND_ORGANIZATION_ASSIGNMENT(#32,#9,(#35));
#22=SHAPE_DEFINITION_REPRESENTATION(#39,#40);
#23= (GEOMETRIC_REPRESENTATION_CONTEXT(3)GLOBAL_UNCERTAINTY_ASSIGNED_CONTEXT((#43))GLOBAL_UNIT_ASSIGNED_CONTEXT((#45,#46,#47))REPRESENTATION_CONTEXT('NONE','WORKSPACE'));
#27=APPLICATION_CONTEXT('CONFIGURATION CONTROLLED 3D DESIGNS OF MECHANICAL PARTS AND ASSEMBLIES');
#28=PRODUCT_CATEGORY('part','NONE');
#29=PRODUCT_RELATED_PRODUCT_CATEGORY('detail',' ',(#38));
#30=CALENDAR_DATE(2012,30,4);
#31=LOCAL_TIME(9,0,44.0,#49);
#32=PERSON_AND_ORGANIZATION(#50,#51);
#33=APPROVAL(#52,'SOLID MODEL');
#34=APPROVAL_ROLE('APPROVED');
#35=SECURITY_CLASSIFICATION('','',#53);
#36=PRODUCT_DEFINITION_FORMATION_WITH_SPECIFIED_SOURCE(' ','NONE',#38,.NOT_KNOWN.);
#37=PRODUCT_DEFINITION('NONE','NONE',#36,#1);
#38=PRODUCT('1','1','PART-1-DESC',(#54));
#39=PRODUCT_DEFINITION_SHAPE('NONE','NONE',#37);
#40=ADVANCED_BREP_SHAPE_REPRESENTATION('1',(#55,#56),#23);
#43=UNCERTAINTY_MEASURE_WITH_UNIT(LENGTH_MEASURE(1.0E-006),#45,'','');
#45= (CONVERSION_BASED_UNIT('MILLIMETRE',#59)LENGTH_UNIT()NAMED_UNIT(#62));
#46= (NAMED_UNIT(#64)PLANE_ANGLE_UNIT()SI_UNIT($,.RADIAN.));
#47= (NAMED_UNIT(#64)SOLID_ANGLE_UNIT()SI_UNIT($,.STERADIAN.));
#49=COORDINATED_UNIVERSAL_TIME_OFFSET(9,0,.AHEAD.);
#50=PERSON('','UNSPECIFIED',$,$,$,$);
#51=ORGANIZATION('UNSPECIFIED','UNSPECIFIED','UNSPECIFIED');
#52=APPROVAL_STATUS('approved');
#53=SECURITY_CLASSIFICATION_LEVEL('unclassified');
#54=MECHANICAL_CONTEXT('',#27,'mechanical');
#55=MANIFOLD_SOLID_BREP('1',#70);
#56=AXIS2_PLACEMENT_3D('',#71,#72,#73);
#59=LENGTH_MEASURE_WITH_UNIT(LENGTH_MEASURE(1.0),#74);
#62=DIMENSIONAL_EXPONENTS(1.0,0.0,0.0,0.0,0.0,0.0,0.0);
#64=DIMENSIONAL_EXPONENTS(0.0,0.0,0.0,0.0,0.0,0.0,0.0);
#70=CLOSED_SHELL('',(#75,#76,#77,#78,#79,#80,#81,#82,#83,#84,#85,#86,#87,#88,#89,#90,#91));
#71=CARTESIAN_POINT('',(0.0,0.0,0.0));
#72=DIRECTION('',(0.0,0.0,1.0));
#73=DIRECTION('',(1.0,0.0,0.0));
#74= (NAMED_UNIT(#62)LENGTH_UNIT()SI_UNIT(.MILLI.,.METRE.));
#75=ADVANCED_FACE('',(#93,#94),#95,.T.);
#76=ADVANCED_FACE('',(#96,#97),#98,.T.);
#77=ADVANCED_FACE('',(#99,#100),#101,.T.);
#78=ADVANCED_FACE('',(#102,#103),#104,.T.);
#79=ADVANCED_FACE('',(#105,#106),#107,.T.);
#80=ADVANCED_FACE('',(#108,#109),#110,.T.);
#81=ADVANCED_FACE('',(#111,#112),#113,.T.);
#82=ADVANCED_FACE('',(#114),#115,.T.);
#83=ADVANCED_FACE('',(#116,#117),#118,.T.);
#84=ADVANCED_FACE('',(#119,#120),#121,.T.);
#85=ADVANCED_FACE('',(#122,#123),#124,.T.);
#86=ADVANCED_FACE('',(#125,#126),#127,.T.);
#87=ADVANCED_FACE('',(#128),#129,.T.);
#88=ADVANCED_FACE('',(#130,#131),#132,.T.);
#89=ADVANCED_FACE('',(#133,#134),#135,.T.);
#90=ADVANCED_FACE('',(#136,#137),#138,.T.);
#91=ADVANCED_FACE('',(#139,#140),#141,.T.);
#93=FACE_BOUND('',#142,.T.);
#94=FACE_OUTER_BOUND('',#143,.T.);
#95=PLANE('',#144);
#96=FACE_BOUND('',#145,.T.);
#97=FACE_BOUND('',#146,.T.);
#98=CONICAL_SURFACE('',#147,18.9288342251295,1.1731200013546);
#99=FACE_BOUND('',#148,.T.);
#100=FACE_BOUND('',#149,.T.);
#101=CONICAL_SURFACE('',#150,15.9984074465628,0.728903220556842);
#102=FACE_BOUND('',#151,.T.);
#103=FACE_BOUND('',#152,.T.);
#104=CONICAL_SURFACE('',#153,13.0195732214333,0.341180989090767);
#105=FACE_BOUND('',#154,.T.);
#106=FACE_BOUND('',#155,.T.);
#107=CYLINDRICAL_SURFACE('',#156,11.9);
#108=FACE_BOUND('',#157,.T.);
#109=FACE_BOUND('',#158,.T.);
#110=CONICAL_SURFACE('',#159,12.2,0.369443267706021);
#111=FACE_BOUND('',#160,.T.);
#112=FACE_BOUND('',#161,.T.);
#113=CYLINDRICAL_SURFACE('',#162,12.5);
#114=FACE_OUTER_BOUND('',#163,.T.);
#115=PLANE('',#164);
#116=FACE_BOUND('',#165,.T.);
#117=FACE_BOUND('',#166,.T.);
#118=CYLINDRICAL_SURFACE('',#167,23.0);
#119=FACE_BOUND('',#168,.T.);
#120=FACE_BOUND('',#169,.T.);
#121=CYLINDRICAL_SURFACE('',#170,19.0);
#122=FACE_BOUND('',#171,.T.);
#123=FACE_BOUND('',#172,.T.);
#124=CONICAL_SURFACE('',#173,21.0,1.04719755058882);
#125=FACE_BOUND('',#174,.T.);
#126=FACE_BOUND('',#175,.T.);
#127=CONICAL_SURFACE('',#176,21.0,1.04719755058882);
#128=FACE_OUTER_BOUND('',#177,.T.);
#129=PLANE('',#178);
#130=FACE_BOUND('',#179,.T.);
#131=FACE_BOUND('',#180,.T.);
#132=CONICAL_SURFACE('',#181,12.3457500009933,0.14481587001362);
#133=FACE_BOUND('',#182,.T.);
#134=FACE_BOUND('',#183,.T.);
#135=CYLINDRICAL_SURFACE('',#184,15.875);
#136=FACE_OUTER_BOUND('',#185,.T.);
#137=FACE_BOUND('',#186,.T.);
#138=PLANE('',#187);
#139=FACE_BOUND('',#188,.T.);
#140=FACE_BOUND('',#189,.T.);
#141=CYLINDRICAL_SURFACE('',#190,23.0);
#142=EDGE_LOOP('',(#191));
#143=EDGE_LOOP('',(#192));
#144=AXIS2_PLACEMENT_3D('',#193,#194,#195);
#145=EDGE_LOOP('',(#196));
#146=EDGE_LOOP('',(#197));
#147=AXIS2_PLACEMENT_3D('',#198,#199,#200);
#148=EDGE_LOOP('',(#201));
#149=EDGE_LOOP('',(#202));
#150=AXIS2_PLACEMENT_3D('',#203,#204,#205);
#151=EDGE_LOOP('',(#206));
#152=EDGE_LOOP('',(#207));
#153=AXIS2_PLACEMENT_3D('',#208,#209,#210);
#154=EDGE_LOOP('',(#211));
#155=EDGE_LOOP('',(#212));
#156=AXIS2_PLACEMENT_3D('',#213,#214,#215);
#157=EDGE_LOOP('',(#216));
#158=EDGE_LOOP('',(#217));
#159=AXIS2_PLACEMENT_3D('',#218,#219,#220);
#160=EDGE_LOOP('',(#221));
#161=EDGE_LOOP('',(#222));
#162=AXIS2_PLACEMENT_3D('',#223,#224,#225);
#163=EDGE_LOOP('',(#226));
#164=AXIS2_PLACEMENT_3D('',#227,#228,#229);
#165=EDGE_LOOP('',(#230));
#166=EDGE_LOOP('',(#231));
#167=AXIS2_PLACEMENT_3D('',#232,#233,#234);
#168=EDGE_LOOP('',(#235));
#169=EDGE_LOOP('',(#236));
#170=AXIS2_PLACEMENT_3D('',#237,#238,#239);
#171=EDGE_LOOP('',(#240));
#172=EDGE_LOOP('',(#241));
#173=AXIS2_PLACEMENT_3D('',#242,#243,#244);
#174=EDGE_LOOP('',(#245));
#175=EDGE_LOOP('',(#246));
#176=AXIS2_PLACEMENT_3D('',#247,#248,#249);
#177=EDGE_LOOP('',(#250));
#178=AXIS2_PLACEMENT_3D('',#251,#252,#253);
#179=EDGE_LOOP('',(#254));
#180=EDGE_LOOP('',(#255));
#181=AXIS2_PLACEMENT_3D('',#256,#257,#258);
#182=EDGE_LOOP('',(#259));
#183=EDGE_LOOP('',(#260));
#184=AXIS2_PLACEMENT_3D('',#261,#262,#263);
#185=EDGE_LOOP('',(#264));
#186=EDGE_LOOP('',(#265));
#187=AXIS2_PLACEMENT_3D('',#266,#267,#268);
#188=EDGE_LOOP('',(#269));
#189=EDGE_LOOP('',(#270));
#190=AXIS2_PLACEMENT_3D('',#271,#272,#273);
#191=ORIENTED_EDGE('',*,*,#274,.F.);
#192=ORIENTED_EDGE('',*,*,#275,.T.);
#193=CARTESIAN_POINT('',(1.34711147906209E-015,21.5,-22.0));
#194=DIRECTION('',(6.12323399573677E-017,1.22464679914735E-016,-1.0));
#195=DIRECTION('',(-1.23259516440783E-032,1.0,1.22464679914735E-016));
#196=ORIENTED_EDGE('',*,*,#276,.F.);
#197=ORIENTED_EDGE('',*,*,#274,.T.);
#198=CARTESIAN_POINT('',(1.37466300307443E-015,2.74932600614887E-015,-22.4499505331909));
#199=DIRECTION('',(-6.12323399573677E-017,-1.22464679914735E-016,1.0));
#200=DIRECTION('',(-1.23259516440783E-032,1.0,1.22464679914735E-016));
#201=ORIENTED_EDGE('',*,*,#277,.F.);
#202=ORIENTED_EDGE('',*,*,#276,.T.);
#203=CARTESIAN_POINT('',(1.52971061150737E-015,3.05942122301474E-015,-24.9820701376497));
#204=DIRECTION('',(-6.12323399573677E-017,-1.22464679914735E-016,1.0));
#205=DIRECTION('',(-1.23259516440783E-032,1.0,1.22464679914735E-016));
#206=ORIENTED_EDGE('',*,*,#278,.F.);
#207=ORIENTED_EDGE('',*,*,#277,.T.);
#208=CARTESIAN_POINT('',(1.85028079902255E-015,3.7005615980451E-015,-30.2173785994588));
#209=DIRECTION('',(-6.12323399573677E-017,-1.22464679914735E-016,1.0));
#210=DIRECTION('',(-1.23259516440783E-032,1.0,1.22464679914735E-016));
#211=ORIENTED_EDGE('',*,*,#279,.F.);
#212=ORIENTED_EDGE('',*,*,#278,.T.);
#213=CARTESIAN_POINT('',(2.68874335286798E-015,5.37748670573596E-015,-43.910511255));
#214=DIRECTION('',(-6.12323399573677E-017,-1.22464679914735E-016,1.0));
#215=DIRECTION('',(-1.23259516440783E-032,1.0,1.22464679914735E-016));
#216=ORIENTED_EDGE('',*,*,#280,.F.);
#217=ORIENTED_EDGE('',*,*,#279,.T.);
#218=CARTESIAN_POINT('',(3.38157142061571E-015,6.76314284123141E-015,-55.22525226));
#219=DIRECTION('',(6.12323399573677E-017,1.22464679914735E-016,-1.0));
#220=DIRECTION('',(-1.23259516440783E-032,1.0,1.22464679914735E-016));
#221=ORIENTED_EDGE('',*,*,#281,.F.);
#222=ORIENTED_EDGE('',*,*,#280,.T.);
#223=CARTESIAN_POINT('',(3.70455656742074E-015,7.40911313484149E-015,-60.5));
#224=DIRECTION('',(-6.12323399573677E-017,-1.22464679914735E-016,1.0));
#225=DIRECTION('',(-1.23259516440783E-032,1.0,1.22464679914735E-016));
#226=ORIENTED_EDGE('',*,*,#281,.T.);
#227=CARTESIAN_POINT('',(3.9801020972289E-015,6.25000000000001,-65.0));
#228=DIRECTION('',(6.12323399573677E-017,1.22464679914735E-016,-1.0));
#229=DIRECTION('',(-1.23259516440783E-032,1.0,1.22464679914735E-016));
#230=ORIENTED_EDGE('',*,*,#275,.F.);
#231=ORIENTED_EDGE('',*,*,#282,.T.);
#232=CARTESIAN_POINT('',(1.21240033115588E-015,2.42480066231176E-015,-19.8));
#233=DIRECTION('',(-6.12323399573677E-017,-1.22464679914735E-016,1.0));
#234=DIRECTION('',(-1.23259516440783E-032,1.0,1.22464679914735E-016));
#235=ORIENTED_EDGE('',*,*,#283,.F.);
#236=ORIENTED_EDGE('',*,*,#284,.T.);
#237=CARTESIAN_POINT('',(8.327598234202E-016,1.6655196468404E-015,-13.6));
#238=DIRECTION('',(-6.12323399573677E-017,-1.22464679914735E-016,1.0));
#239=DIRECTION('',(-1.23259516440783E-032,1.0,1.22464679914735E-016));
#240=ORIENTED_EDGE('',*,*,#282,.F.);
#241=ORIENTED_EDGE('',*,*,#283,.T.);
#242=CARTESIAN_POINT('',(1.00698416723543E-015,2.01396833447087E-015,-16.44529946));
#243=DIRECTION('',(6.12323399573677E-017,1.22464679914735E-016,-1.0));
#244=DIRECTION('',(-1.23259516440783E-032,1.0,1.22464679914735E-016));
#245=ORIENTED_EDGE('',*,*,#284,.F.);
#246=ORIENTED_EDGE('',*,*,#285,.T.);
#247=CARTESIAN_POINT('',(6.58535479604966E-016,1.31707095920993E-015,-10.75470054));
#248=DIRECTION('',(-6.12323399573677E-017,-1.22464679914735E-016,1.0));
#249=DIRECTION('',(-1.23259516440783E-032,1.0,1.22464679914735E-016));
#250=ORIENTED_EDGE('',*,*,#286,.F.);
#251=CARTESIAN_POINT('',(-2.96364525393659E-015,4.40825000099333,48.4));
#252=DIRECTION('',(-6.12323399573677E-017,-1.22464679914735E-016,1.0));
#253=DIRECTION('',(1.23259516440783E-032,-1.0,-1.22464679914735E-016));
#254=ORIENTED_EDGE('',*,*,#287,.F.);
#255=ORIENTED_EDGE('',*,*,#286,.T.);
#256=CARTESIAN_POINT('',(-1.4818226269683E-015,-2.96364525393659E-015,24.2));
#257=DIRECTION('',(6.12323399573677E-017,1.22464679914735E-016,-1.0));
#258=DIRECTION('',(-1.23259516440783E-032,1.0,1.22464679914735E-016));
#259=ORIENTED_EDGE('',*,*,#288,.F.);
#260=ORIENTED_EDGE('',*,*,#287,.T.);
#261=CARTESIAN_POINT('',(3.0616169978684E-017,6.12323399573681E-017,-0.500000000000004));
#262=DIRECTION('',(-6.12323399573677E-017,-1.22464679914735E-016,1.0));
#263=DIRECTION('',(-1.23259516440783E-032,1.0,1.22464679914735E-016));
#264=ORIENTED_EDGE('',*,*,#289,.F.);
#265=ORIENTED_EDGE('',*,*,#288,.T.);
#266=CARTESIAN_POINT('',(6.12323399573674E-017,19.4375,-0.999999999999998));
#267=DIRECTION('',(-6.12323399573677E-017,-1.22464679914735E-016,1.0));
#268=DIRECTION('',(1.23259516440783E-032,-1.0,-1.22464679914735E-016));
#269=ORIENTED_EDGE('',*,*,#285,.F.);
#270=ORIENTED_EDGE('',*,*,#289,.T.);
#271=CARTESIAN_POINT('',(3.24531401774049E-016,6.49062803548097E-016,-5.3));
#272=DIRECTION('',(-6.12323399573677E-017,-1.22464679914735E-016,1.0));
#273=DIRECTION('',(-1.23259516440783E-032,1.0,1.22464679914735E-016));
#274=EDGE_CURVE('',#290,#290,#291,.T.);
#275=EDGE_CURVE('',#292,#292,#293,.T.);
#276=EDGE_CURVE('',#294,#294,#295,.T.);
#277=EDGE_CURVE('',#296,#296,#297,.T.);
#278=EDGE_CURVE('',#298,#298,#299,.T.);
#279=EDGE_CURVE('',#300,#300,#301,.T.);
#280=EDGE_CURVE('',#302,#302,#303,.T.);
#281=EDGE_CURVE('',#304,#304,#305,.T.);
#282=EDGE_CURVE('',#306,#306,#307,.T.);
#283=EDGE_CURVE('',#308,#308,#309,.T.);
#284=EDGE_CURVE('',#310,#310,#311,.T.);
#285=EDGE_CURVE('',#312,#312,#313,.T.);
#286=EDGE_CURVE('',#314,#314,#315,.T.);
#287=EDGE_CURVE('',#316,#316,#317,.T.);
#288=EDGE_CURVE('',#318,#318,#319,.T.);
#289=EDGE_CURVE('',#320,#320,#321,.T.);
#290=VERTEX_POINT('',#322);
#291=CIRCLE('',#323,20.0);
#292=VERTEX_POINT('',#324);
#293=CIRCLE('',#325,23.0);
#294=VERTEX_POINT('',#326);
#295=CIRCLE('',#327,17.857668450259);
#296=VERTEX_POINT('',#328);
#297=CIRCLE('',#329,14.1391464428666);
#298=VERTEX_POINT('',#330);
#299=CIRCLE('',#331,11.9);
#300=VERTEX_POINT('',#332);
#301=CIRCLE('',#333,11.9);
#302=VERTEX_POINT('',#334);
#303=CIRCLE('',#335,12.5);
#304=VERTEX_POINT('',#336);
#305=CIRCLE('',#337,12.5);
#306=VERTEX_POINT('',#338);
#307=CIRCLE('',#339,23.0);
#308=VERTEX_POINT('',#340);
#309=CIRCLE('',#341,19.0);
#310=VERTEX_POINT('',#342);
#311=CIRCLE('',#343,19.0);
#312=VERTEX_POINT('',#344);
#313=CIRCLE('',#345,23.0);
#314=VERTEX_POINT('',#346);
#315=CIRCLE('',#347,8.81650000198667);
#316=VERTEX_POINT('',#348);
#317=CIRCLE('',#349,15.875);
#318=VERTEX_POINT('',#350);
#319=CIRCLE('',#351,15.875);
#320=VERTEX_POINT('',#352);
#321=CIRCLE('',#353,23.0);
#322=CARTESIAN_POINT('',(1.34711147906209E-015,20.0,-22.0));
#323=AXIS2_PLACEMENT_3D('',#354,#355,#356);
#324=CARTESIAN_POINT('',(1.34711147906209E-015,23.0,-22.0));
#325=AXIS2_PLACEMENT_3D('',#357,#358,#359);
#326=CARTESIAN_POINT('',(1.40221452708678E-015,17.857668450259,-22.8999010663818));
#327=AXIS2_PLACEMENT_3D('',#360,#361,#362);
#328=CARTESIAN_POINT('',(1.65720669592796E-015,14.1391464428666,-27.0642392089176));
#329=AXIS2_PLACEMENT_3D('',#363,#364,#365);
#330=CARTESIAN_POINT('',(2.04335490211713E-015,11.9,-33.37051799));
#331=AXIS2_PLACEMENT_3D('',#366,#367,#368);
#332=CARTESIAN_POINT('',(3.33413180361882E-015,11.9,-54.45050452));
#333=AXIS2_PLACEMENT_3D('',#369,#370,#371);
#334=CARTESIAN_POINT('',(3.42901103761259E-015,12.5,-56.0));
#335=AXIS2_PLACEMENT_3D('',#372,#373,#374);
#336=CARTESIAN_POINT('',(3.9801020972289E-015,12.5,-65.0));
#337=AXIS2_PLACEMENT_3D('',#375,#376,#377);
#338=CARTESIAN_POINT('',(1.07768918324967E-015,23.0,-17.6));
#339=AXIS2_PLACEMENT_3D('',#378,#379,#380);
#340=CARTESIAN_POINT('',(9.36279151221199E-016,19.0,-15.29059892));
#341=AXIS2_PLACEMENT_3D('',#381,#382,#383);
#342=CARTESIAN_POINT('',(7.29240495619201E-016,19.0,-11.90940108));
#343=AXIS2_PLACEMENT_3D('',#384,#385,#386);
#344=CARTESIAN_POINT('',(5.87830463590729E-016,23.0,-9.6));
#345=AXIS2_PLACEMENT_3D('',#387,#388,#389);
#346=CARTESIAN_POINT('',(-2.96364525393659E-015,8.81650000198666,48.4));
#347=AXIS2_PLACEMENT_3D('',#390,#391,#392);
#348=CARTESIAN_POINT('',(2.39407461153262E-031,15.875,-5.16130056395458E-015));
#349=AXIS2_PLACEMENT_3D('',#393,#394,#395);
#350=CARTESIAN_POINT('',(6.12323399573675E-017,15.875,-0.999999999999998));
#351=AXIS2_PLACEMENT_3D('',#396,#397,#398);
#352=CARTESIAN_POINT('',(6.12323399573674E-017,23.0,-0.999999999999997));
#353=AXIS2_PLACEMENT_3D('',#399,#400,#401);
#354=CARTESIAN_POINT('',(1.34711147906209E-015,2.69422295812418E-015,-22.0));
#355=DIRECTION('',(6.12323399573677E-017,1.22464679914735E-016,-1.0));
#356=DIRECTION('',(-1.23259516440783E-032,1.0,1.22464679914735E-016));
#357=CARTESIAN_POINT('',(1.34711147906209E-015,2.69422295812418E-015,-22.0));
#358=DIRECTION('',(6.12323399573677E-017,1.22464679914735E-016,-1.0));
#359=DIRECTION('',(-1.23259516440783E-032,1.0,1.22464679914735E-016));
#360=CARTESIAN_POINT('',(1.40221452708678E-015,2.80442905417356E-015,-22.8999010663818));
#361=DIRECTION('',(6.12323399573676E-017,1.22464679914735E-016,-1.0));
#362=DIRECTION('',(-1.23259516440783E-032,1.0,1.22464679914735E-016));
#363=CARTESIAN_POINT('',(1.65720669592796E-015,3.31441339185592E-015,-27.0642392089176));
#364=DIRECTION('',(6.12323399573677E-017,1.22464679914735E-016,-1.0));
#365=DIRECTION('',(-1.23259516440783E-032,1.0,1.22464679914735E-016));
#366=CARTESIAN_POINT('',(2.04335490211713E-015,4.08670980423427E-015,-33.37051799));
#367=DIRECTION('',(6.12323399573677E-017,1.22464679914735E-016,-1.0));
#368=DIRECTION('',(-1.23259516440783E-032,1.0,1.22464679914735E-016));
#369=CARTESIAN_POINT('',(3.33413180361882E-015,6.66826360723765E-015,-54.45050452));
#370=DIRECTION('',(6.12323399573677E-017,1.22464679914735E-016,-1.0));
#371=DIRECTION('',(-1.23259516440783E-032,1.0,1.22464679914735E-016));
#372=CARTESIAN_POINT('',(3.42901103761259E-015,6.85802207522518E-015,-56.0));
#373=DIRECTION('',(6.12323399573677E-017,1.22464679914735E-016,-1.0));
#374=DIRECTION('',(-1.23259516440783E-032,1.0,1.22464679914735E-016));
#375=CARTESIAN_POINT('',(3.9801020972289E-015,7.96020419445779E-015,-65.0));
#376=DIRECTION('',(6.12323399573677E-017,1.22464679914735E-016,-1.0));
#377=DIRECTION('',(-1.23259516440783E-032,1.0,1.22464679914735E-016));
#378=CARTESIAN_POINT('',(1.07768918324967E-015,2.15537836649934E-015,-17.6));
#379=DIRECTION('',(6.12323399573677E-017,1.22464679914735E-016,-1.0));
#380=DIRECTION('',(-1.23259516440783E-032,1.0,1.22464679914735E-016));
#381=CARTESIAN_POINT('',(9.36279151221199E-016,1.8725583024424E-015,-15.29059892));
#382=DIRECTION('',(6.12323399573677E-017,1.22464679914735E-016,-1.0));
#383=DIRECTION('',(-1.23259516440783E-032,1.0,1.22464679914735E-016));
#384=CARTESIAN_POINT('',(7.29240495619202E-016,1.4584809912384E-015,-11.90940108));
#385=DIRECTION('',(6.12323399573677E-017,1.22464679914735E-016,-1.0));
#386=DIRECTION('',(-1.23259516440783E-032,1.0,1.22464679914735E-016));
#387=CARTESIAN_POINT('',(5.8783046359073E-016,1.17566092718146E-015,-9.6));
#388=DIRECTION('',(6.12323399573677E-017,1.22464679914735E-016,-1.0));
#389=DIRECTION('',(-1.23259516440783E-032,1.0,1.22464679914735E-016));
#390=CARTESIAN_POINT('',(-2.96364525393659E-015,-5.92729050787319E-015,48.4));
#391=DIRECTION('',(6.12323399573676E-017,1.22464679914735E-016,-1.0));
#392=DIRECTION('',(-1.23259516440783E-032,1.0,1.22464679914735E-016));
#393=CARTESIAN_POINT('',(4.35081943503005E-031,8.7016388700601E-031,-7.105427357601E-015));
#394=DIRECTION('',(6.12323399573677E-017,1.22464679914735E-016,-1.0));
#395=DIRECTION('',(-1.23259516440783E-032,1.0,1.22464679914735E-016));
#396=CARTESIAN_POINT('',(6.12323399573677E-017,1.22464679914735E-016,-1.0));
#397=DIRECTION('',(6.12323399573677E-017,1.22464679914735E-016,-1.0));
#398=DIRECTION('',(-1.23259516440783E-032,1.0,1.22464679914735E-016));
#399=CARTESIAN_POINT('',(6.12323399573677E-017,1.22464679914735E-016,-1.0));
#400=DIRECTION('',(6.12323399573677E-017,1.22464679914735E-016,-1.0));
#401=DIRECTION('',(-1.23259516440783E-032,1.0,1.22464679914735E-016));
ENDSEC;
END-ISO-10303-21;
