  0
SECTION
  2
HEADER
  9
$ACADVER
  1
AC1009
  9
$INSBASE
 10
0.0
 20
0.0
 30
0.0
  9
$EXTMIN
 10
-49.407158324212439
 20
-23.004879981295289
 30
-0.0000000000074783
  9
$EXTMAX
 10
78.021058603760025
 20
54.001772400192181
 30
0.0000000000044428
  9
$LIMMIN
 10
0.0
 20
0.0
  9
$LIMMAX
 10
420.0
 20
297.0
  9
$ORTHOMODE
 70
     0
  9
$REGENMODE
 70
     1
  9
$FILLMODE
 70
     1
  9
$QTEXTMODE
 70
     0
  9
$MIRRTEXT
 70
     1
  9
$DRAGMODE
 70
     2
  9
$LTSCALE
 40
10.0
  9
$OSMODE
 70
    39
  9
$ATTMODE
 70
     1
  9
$TEXTSIZE
 40
3.0
  9
$TRACEWID
 40
1.0
  9
$TEXTSTYLE
  7
YOKO
  9
$CLAYER
  8
245
  9
$CELTYPE
  6
BYLAYER
  9
$CECOLOR
 62
   256
  9
$DIMSCALE
 40
1.0
  9
$DIMASZ
 40
2.0
  9
$DIMEXO
 40
2.0
  9
$DIMDLI
 40
2.5
  9
$DIMRND
 40
0.0
  9
$DIMDLE
 40
0.0
  9
$DIMEXE
 40
2.0
  9
$DIMTP
 40
0.0
  9
$DIMTM
 40
0.0
  9
$DIMTXT
 40
4.0
  9
$DIMCEN
 40
0.0
  9
$DIMTSZ
 40
0.0
  9
$DIMTOL
 70
     0
  9
$DIMLIM
 70
     0
  9
$DIMTIH
 70
     0
  9
$DIMTOH
 70
     0
  9
$DIMSE1
 70
     0
  9
$DIMSE2
 70
     0
  9
$DIMTAD
 70
     3
  9
$DIMZIN
 70
     8
  9
$DIMBLK
  1

  9
$DIMASO
 70
     1
  9
$DIMSHO
 70
     1
  9
$DIMPOST
  1

  9
$DIMAPOST
  1

  9
$DIMALT
 70
     0
  9
$DIMALTD
 70
     2
  9
$DIMALTF
 40
25.399999999999999
  9
$DIMLFAC
 40
1.0
  9
$DIMTOFL
 70
     1
  9
$DIMTVP
 40
0.0
  9
$DIMTIX
 70
     1
  9
$DIMSOXD
 70
     0
  9
$DIMSAH
 70
     1
  9
$DIMBLK1
  1
OPEN
  9
$DIMBLK2
  1
OPEN
  9
$DIMSTYLE
  2
BIGT
  9
$DIMCLRD
 70
   256
  9
$DIMCLRE
 70
   256
  9
$DIMCLRT
 70
    40
  9
$DIMTFAC
 40
1.0
  9
$DIMGAP
 40
1.0
  9
$LUNITS
 70
     2
  9
$LUPREC
 70
     3
  9
$SKETCHINC
 40
1.0
  9
$FILLETRAD
 40
0.4
  9
$AUNITS
 70
     0
  9
$AUPREC
 70
     3
  9
$MENU
  1
.
  9
$ELEVATION
 40
0.0
  9
$PELEVATION
 40
0.0
  9
$THICKNESS
 40
0.0
  9
$LIMCHECK
 70
     0
  9
$BLIPMODE
 70
     0
  9
$CHAMFERA
 40
10.0
  9
$CHAMFERB
 40
10.0
  9
$SKPOLY
 70
     0
  9
$TDCREATE
 40
2455140.5513445721
  9
$TDUPDATE
 40
2456086.3732637269
  9
$TDINDWG
 40
0.0222218634
  9
$TDUSRTIMER
 40
0.0222218634
  9
$USRTIMER
 70
     1
  9
$ANGBASE
 50
0.0
  9
$ANGDIR
 70
     0
  9
$PDMODE
 70
     1
  9
$PDSIZE
 40
-5.0
  9
$PLINEWID
 40
0.0
  9
$COORDS
 70
     0
  9
$SPLFRAME
 70
     0
  9
$SPLINETYPE
 70
     6
  9
$SPLINESEGS
 70
     8
  9
$ATTDIA
 70
     1
  9
$ATTREQ
 70
     1
  9
$HANDLING
 70
     1
  9
$HANDSEED
  5
13DF
  9
$SURFTAB1
 70
     6
  9
$SURFTAB2
 70
     6
  9
$SURFTYPE
 70
     6
  9
$SURFU
 70
     6
  9
$SURFV
 70
     6
  9
$UCSNAME
  2

  9
$UCSORG
 10
0.0
 20
0.0
 30
0.0
  9
$UCSXDIR
 10
1.0
 20
0.0
 30
0.0
  9
$UCSYDIR
 10
0.0
 20
1.0
 30
0.0
  9
$PUCSNAME
  2

  9
$PUCSORG
 10
0.0
 20
0.0
 30
0.0
  9
$PUCSXDIR
 10
1.0
 20
0.0
 30
0.0
  9
$PUCSYDIR
 10
0.0
 20
1.0
 30
0.0
  9
$USERI1
 70
     1
  9
$USERI2
 70
     0
  9
$USERI3
 70
     0
  9
$USERI4
 70
     0
  9
$USERI5
 70
     0
  9
$USERR1
 40
0.0
  9
$USERR2
 40
0.0
  9
$USERR3
 40
0.0
  9
$USERR4
 40
0.0
  9
$USERR5
 40
0.0
  9
$WORLDVIEW
 70
     1
  9
$SHADEDGE
 70
     3
  9
$SHADEDIF
 70
    70
  9
$TILEMODE
 70
     1
  9
$MAXACTVP
 70
    16
  9
$PLIMCHECK
 70
     0
  9
$PEXTMIN
 10
1.0000000000000000E+020
 20
1.0000000000000000E+020
 30
1.0000000000000000E+020
  9
$PEXTMAX
 10
-1.0000000000000000E+020
 20
-1.0000000000000000E+020
 30
-1.0000000000000000E+020
  9
$PLIMMIN
 10
0.0
 20
0.0
  9
$PLIMMAX
 10
420.0
 20
297.0
  9
$UNITMODE
 70
     0
  9
$VISRETAIN
 70
     0
  9
$PLINEGEN
 70
     0
  9
$PSLTSCALE
 70
     1
  0
ENDSEC
  0
SECTION
  2
TABLES
  0
TABLE
  2
VPORT
 70
     6
  0
VPORT
  2
*ACTIVE
 70
     0
 10
0.0
 20
0.0
 11
1.0
 21
1.0
 12
14.3069501397738
 22
15.49844620944844
 13
0.0
 23
0.0
 14
7.0
 24
7.0
 15
7.0
 25
7.0
 16
0.0
 26
0.0
 36
1.0
 17
0.0
 27
0.0
 37
0.0
 40
82.708296402790424
 41
1.5472527472527471
 42
50.0
 43
0.0
 44
0.0
 50
0.0
 51
0.0
 71
     0
 72
  2000
 73
     1
 74
     0
 75
     0
 76
     0
 77
     0
 78
     0
  0
ENDTAB
  0
TABLE
  2
LTYPE
 70
    21
  0
LTYPE
  2
CONTINUOUS
 70
     0
  3
Solid line
 72
    65
 73
     0
 40
0.0
  0
LTYPE
  2
CENTER2
 70
     0
  3
___ _ ___ _ ___ _ ___ _ ___ _ ___ _ ___ _ ___ _
 72
    65
 73
     4
 40
1.125
 49
0.75
 49
-0.125
 49
0.125
 49
-0.125
  0
LTYPE
  2
HIDDEN2
 70
     0
  3
_ _ _ _ _ _ _ _ _ _ _ _ _ _ _ _ _ _ _ _ _ _ _ _
 72
    65
 73
     2
 40
0.1875
 49
0.125
 49
-0.0625
  0
LTYPE
  2
PHANTOM2
 70
     0
  3
___ _ _ ___ _ _ ___ _ _ ___ _ _ ___ _ _ ___ _ _
 72
    65
 73
     6
 40
1.25
 49
0.625
 49
-0.125
 49
0.125
 49
-0.125
 49
0.125
 49
-0.125
  0
LTYPE
  2
AMCONSTR
 70
     0
  3
_______________________
 72
    65
 73
     2
 40
9999.0
 49
9999.0
 49
0.0
  0
LTYPE
  2
AM_ISO02W050
 70
     0
  3
__ __ __ __ __ __ __ __ __ __ __ __ __ __ __
 72
    65
 73
     2
 40
7.5
 49
6.0
 49
-1.5
  0
LTYPE
  2
HIDDEN
 70
     0
  3
Hidden __ __ __ __ __ __ __ __ __ __ __ __ __ _
 72
    65
 73
     2
 40
9.5249999999999986
 49
6.3499999999999979
 49
-3.174999999999998
  0
LTYPE
  2
CENTER
 70
     0
  3
____ _ ____ _ ____ _ ____ _ ____ _ ____ _ ____ 
 72
    65
 73
     4
 40
2.0
 49
1.25
 49
-0.25
 49
0.25
 49
-0.25
  0
LTYPE
  2
ACJISTGB
 70
     0
  3
__ . . __ . .
 72
    65
 73
     6
 40
9.0
 49
4.0
 49
-1.0
 49
1.0
 49
-1.0
 49
1.0
 49
-1.0
  0
LTYPE
  2
ACJISTGL
 70
     0
  3
_ _ _ _ _
 72
    65
 73
     2
 40
3.0
 49
2.0
 49
-1.0
  0
LTYPE
  2
ACISOWELD
 70
     0
  3
_ _ _ _ _
 72
    65
 73
     2
 40
2.0
 49
2.0
 49
-1.0
  0
LTYPE
  2
ACISOTGB
 70
     0
  3
__ . . __ . .
 72
    65
 73
     6
 40
9.0
 49
4.0
 49
-1.0
 49
1.0
 49
-1.0
 49
1.0
 49
-1.0
  0
LTYPE
  2
ACISOTGL
 70
     0
  3
_ _ _ _ _
 72
    65
 73
     2
 40
3.0
 49
2.0
 49
-1.0
  0
LTYPE
  2
ACANSTGB
 70
     0
  3
__ . . __ . .
 72
    65
 73
     6
 40
0.35433070866
 49
0.15748031496
 49
-0.03937007874
 49
0.03937007874
 49
-0.03937007874
 49
0.03937007874
 49
-0.03937007874
  0
LTYPE
  2
ACANSTGL
 70
     0
  3
_ _ _ _ _
 72
    65
 73
     2
 40
0.11811023622
 49
0.07874015748
 49
-0.03937007874
  0
LTYPE
  2
AM_ISO08W050
 70
     0
  3
____ . ____ . ____ . ____ . ____ . ____ . ____
 72
    65
 73
     4
 40
18.0
 49
12.0
 49
-1.5
 49
3.0
 49
-1.5
  0
LTYPE
  2
AM_ISO09W050
 70
     0
  3
_____ . . _____ . . _____ . . ____ .. ____
 72
    65
 73
     6
 40
22.5
 49
12.0
 49
-1.5
 49
3.0
 49
-1.5
 49
3.0
 49
-1.5
  0
LTYPE
  2
AM_ISO08W050X2
 70
     0
  3
__ . __ . __ . __ . __ . __
 72
    65
 73
     4
 40
9.0
 49
6.0
 49
-0.75
 49
1.5
 49
-0.75
  0
LTYPE
  2
AM_ISO02W050X2
 70
     0
  3
 _ _ _ _ _ _ _ _ _ _ _ _
 72
    65
 73
     2
 40
3.75
 49
3.0
 49
-0.75
  0
LTYPE
  2
AMZIGZAG
 70
     0
  3
/\/-/\/-/\/-/\/-/\/-/\/
 72
    65
 73
     2
 40
11.0001
 49
0.0001
 49
-11.0
  0
LTYPE
  2
AMZIGZAG2
 70
     0
  3
/\/-/\/-/\/-/\/-/\/-/\/
 72
    65
 73
     2
 40
0.4401
 49
0.0001
 49
-0.4400000000000001
  0
ENDTAB
  0
TABLE
  2
LAYER
 70
     7
  0
LAYER
  2
0
 70
     0
 62
     7
  6
CONTINUOUS
  0
LAYER
  2
245
 70
     0
 62
     2
  6
CENTER2
  0
LAYER
  2
240
 70
     0
 62
     4
  6
CONTINUOUS
  0
LAYER
  2
241
 70
     0
 62
   211
  6
CONTINUOUS
  0
LAYER
  2
243
 70
     0
 62
   211
  6
HIDDEN2
  0
LAYER
  2
250
 70
     0
 62
     3
  6
CONTINUOUS
  0
LAYER
  2
DEFPOINTS
 70
     0
 62
     7
  6
CONTINUOUS
  0
ENDTAB
  0
TABLE
  2
STYLE
 70
     9
  0
STYLE
  2
STANDARD
 70
     0
 40
0.0
 41
1.0
 50
0.0
 71
     0
 42
3.0
  3
romans.shx
  4
BIGFONT.SHX
  0
STYLE
  2
YOKO
 70
     0
 40
0.0
 41
1.0
 50
0.0
 71
     0
 42
3.0
  3
romans.shx
  4
extfont.shx
  0
STYLE
  2
ACJISGDT
 70
     0
 40
0.0
 41
1.0
 50
0.0
 71
     0
 42
3.0
  3
amgdt.shx
  4
extfont.shx
  0
STYLE
  2
ACJISTS
 70
     0
 40
1.0
 41
1.0
 50
0.0
 71
     0
 42
3.0
  3
amgdt.shx
  4
extfont.shx
  0
STYLE
  2
ACISOTS
 70
     0
 40
1.0
 41
1.0
 50
0.0
 71
     0
 42
3.0
  3
amgdt.shx
  4
extfont.shx
  0
STYLE
  2
ACISOGDT
 70
     0
 40
0.0
 41
1.0
 50
0.0
 71
     0
 42
3.0
  3
amgdt.shx
  4
extfont.shx
  0
STYLE
  2
ACANSTS
 70
     0
 40
1.0
 41
1.0
 50
0.0
 71
     0
 42
3.0
  3
romans.shx
  4
extfont.shx
  0
STYLE
  2
ACANSGDT
 70
     0
 40
0.0
 41
1.0
 50
0.0
 71
     0
 42
3.0
  3
amgdtans.shx
  4

  0
STYLE
  2

 70
     1
 40
0.0
 41
1.0
 50
0.0
 71
     0
 42
3.0
  3
ltypeshp.shx
  4

  0
ENDTAB
  0
TABLE
  2
VIEW
 70
     1
  0
VIEW
  2
OLE1
 70
     0
 40
87.983095879999979
 10
14.295896279999999
 20
15.503418569999999
 41
128.09974063999999
 11
0.0
 21
0.0
 31
1.0
 12
0.0
 22
0.0
 32
0.0
 42
50.0
 43
0.0
 44
0.0
 50
0.0
 71
     0
  0
ENDTAB
  0
TABLE
  2
UCS
 70
     0
  0
ENDTAB
  0
TABLE
  2
APPID
 70
    35
  0
APPID
  2
ACAD
 70
     0
  0
APPID
  2
GLOBAL
 70
     0
  0
APPID
  2
DETAIL
 70
     0
  0
APPID
  2
GRPNAME
 70
     0
  0
APPID
  2
GPARA
 70
     0
  0
APPID
  2
DCO15
 70
     0
  0
APPID
  2
ITEMNAME
 70
     0
  0
APPID
  2
GRADE_0
 70
     0
  0
APPID
  2
HATCH_TYPE
 70
     0
  0
APPID
  2
HATCH_DISPLAY
 70
     0
  0
APPID
  2
HATCH_DISTANCE
 70
     0
  0
APPID
  2
CONTENTBLOCKICON
 70
     0
  0
APPID
  2
MCAD_NO_VIS
 70
     0
  0
APPID
  2
ACAD_TEMP_GRAPHIC
 70
     0
  0
APPID
  2
ACATTRIBSERVICES
 70
     0
  0
APPID
  2
GENIUS_GENSCREG_15
 70
     0
  0
APPID
  2
GENIUS_GENODEF_13
 70
     0
  0
APPID
  2
GENIUS_GENOBJ-N-SDF_13
 70
     0
  0
APPID
  2
GENIUS_GENREC_14
 70
     0
  0
APPID
  2
GENIUS_GENOBJ-N-REC_13
 70
     0
  0
APPID
  2
GENIUS_GENDIMSH_14
 70
     0
  0
APPID
  2
GENIUS_GENOBJ-N-DIM_13
 70
     0
  0
APPID
  2
GENIUS_GENDIM_13
 70
     0
  0
APPID
  2
GENIUS_GENDTOL_13
 70
     0
  0
APPID
  2
GENIUS_GENOLIS_13
 70
     0
  0
APPID
  2
GENIUS_GENOENT_13
 70
     0
  0
APPID
  2
GENIUS_GENOBJ-F-FEM_13
 70
     0
  0
APPID
  2
GENIUS_GENOREF_13
 70
     0
  0
APPID
  2
GENIUS_GEFFEM_13
 70
     0
  0
APPID
  2
GENIUS_GEFFEMP_13
 70
     0
  0
APPID
  2
AD_DRAW
 70
     0
  0
APPID
  2
DESIGNERASSEMBLIES
 70
     0
  0
APPID
  2
ACADM_DIM_EDIT
 70
     0
  0
APPID
  2
AMDT_DM_ADJ
 70
     0
  0
APPID
  2
GENIUS_GENOBJ-N-FIL_13
 70
     0
  0
ENDTAB
  0
TABLE
  2
DIMSTYLE
 70
    29
  0
DIMSTYLE
  2
BIGT
 70
     0
  3

  4

  5

  6

  7

 40
1.0
 41
2.2299999999999991
 42
0.5
 43
7.0
 44
1.0
 45
0.0
 46
0.0
 47
0.0
 48
0.01
140
2.799999999999998
141
0.0
142
0.0
143
25.399999999999999
144
1.0
145
0.0
146
1.0
147
1.0
 71
     0
 72
     0
 73
     0
 74
     0
 75
     0
 76
     0
 77
     3
 78
     9
170
     0
171
     2
172
     1
173
     0
174
     1
175
     0
176
   256
177
   256
178
    40
  0
DIMSTYLE
  2
BIGT$0
 70
     0
  3

  4

  5

  6

  7

 40
1.0
 41
2.2299999999999991
 42
0.5
 43
7.0
 44
1.0
 45
0.0
 46
0.0
 47
0.0
 48
0.01
140
2.799999999999998
141
0.0
142
0.0
143
25.399999999999999
144
1.0
145
0.0
146
1.0
147
1.0
 71
     0
 72
     0
 73
     0
 74
     0
 75
     0
 76
     0
 77
     3
 78
     9
170
     0
171
     2
172
     1
173
     0
174
     0
175
     0
176
   256
177
   256
178
    40
  0
DIMSTYLE
  2
BIGT$2
 70
     0
  3

  4

  5

  6

  7

 40
1.0
 41
2.2299999999999991
 42
0.5
 43
7.0
 44
1.0
 45
0.0
 46
0.0
 47
0.0
 48
0.01
140
2.799999999999998
141
0.0
142
0.0
143
25.399999999999999
144
1.0
145
0.0
146
1.0
147
1.0
 71
     0
 72
     0
 73
     0
 74
     0
 75
     0
 76
     0
 77
     3
 78
     9
170
     0
171
     2
172
     1
173
     0
174
     0
175
     0
176
   256
177
   256
178
    40
  0
DIMSTYLE
  2
BIGT$3
 70
     0
  3

  4

  5

  6

  7

 40
1.0
 41
2.2299999999999991
 42
0.5
 43
2.5
 44
1.0
 45
0.0
 46
0.0
 47
0.0
 48
0.01
140
2.799999999999998
141
0.0
142
0.0
143
25.399999999999999
144
1.0
145
0.0
146
1.0
147
1.0
 71
     0
 72
     0
 73
     0
 74
     0
 75
     0
 76
     0
 77
     3
 78
     9
170
     0
171
     2
172
     1
173
     0
174
     0
175
     0
176
   256
177
   256
178
    40
  0
DIMSTYLE
  2
BIGT$4
 70
     0
  3

  4

  5

  6

  7

 40
1.0
 41
2.2299999999999991
 42
0.5
 43
2.5
 44
1.0
 45
0.0
 46
0.0
 47
0.0
 48
0.01
140
2.799999999999998
141
0.0
142
0.0
143
25.399999999999999
144
1.0
145
0.0
146
1.0
147
1.0
 71
     0
 72
     0
 73
     0
 74
     0
 75
     0
 76
     0
 77
     3
 78
     9
170
     0
171
     2
172
     1
173
     0
174
     0
175
     0
176
   256
177
   256
178
    40
  0
DIMSTYLE
  2
BIGT$6
 70
     0
  3

  4

  5

  6

  7

 40
1.0
 41
2.2299999999999991
 42
0.5
 43
2.5
 44
1.0
 45
0.0
 46
0.0
 47
0.0
 48
0.01
140
2.799999999999998
141
0.0
142
0.0
143
25.399999999999999
144
1.0
145
0.0
146
1.0
147
1.0
 71
     0
 72
     0
 73
     0
 74
     0
 75
     0
 76
     0
 77
     3
 78
     9
170
     0
171
     2
172
     1
173
     0
174
     0
175
     0
176
   256
177
   256
178
    40
  0
DIMSTYLE
  2
BIGT$7
 70
     0
  3

  4

  5

  6

  7

 40
0.0
 41
2.2299999999999991
 42
0.5
 43
7.0
 44
1.0
 45
0.0
 46
0.0
 47
0.0
 48
0.01
140
2.799999999999998
141
0.0
142
0.0
143
25.399999999999999
144
1.0
145
0.0
146
1.0
147
1.0
 71
     0
 72
     0
 73
     0
 74
     0
 75
     0
 76
     0
 77
     3
 78
     9
170
     0
171
     2
172
     0
173
     0
174
     0
175
     0
176
   256
177
   256
178
    40
  0
DIMSTYLE
  2
BIGT$SF
 70
     0
  3

  4

  5

  6

  7

 40
1.0
 41
2.2299999999999991
 42
0.5
 43
7.0
 44
1.0
 45
0.0
 46
0.0
 47
0.0
 48
0.0
140
2.799999999999998
141
0.0
142
0.0
143
25.399999999999999
144
1.0
145
0.0
146
1.0
147
1.0
 71
     0
 72
     0
 73
     0
 74
     0
 75
     0
 76
     0
 77
     3
 78
     9
170
     0
171
     2
172
     1
173
     0
174
     0
175
     0
176
   256
177
   256
178
    40
  0
DIMSTYLE
  2
BIGT$SH
 70
     0
  3

  4

  5

  6

  7

 40
1.0
 41
2.2299999999999991
 42
0.5
 43
7.0
 44
1.0
 45
0.0
 46
0.0
 47
0.0
 48
0.0
140
2.799999999999998
141
0.0
142
0.0
143
25.399999999999999
144
1.0
145
0.0
146
1.0
147
1.0
 71
     0
 72
     0
 73
     0
 74
     0
 75
     0
 76
     0
 77
     3
 78
     9
170
     0
171
     2
172
     1
173
     0
174
     0
175
     0
176
   256
177
   256
178
    40
  0
DIMSTYLE
  2
AM_ISO
 70
     0
  3

  4
"
  5

  6

  7

 40
1.0
 41
2.5
 42
1.0
 43
10.0
 44
1.0
 45
0.0
 46
0.0
 47
0.1
 48
0.1
140
3.5
141
0.0
142
0.0
143
0.0393701
144
1.0
145
0.0
146
0.71
147
1.5
 71
     0
 72
     0
 73
     0
 74
     0
 75
     0
 76
     0
 77
     1
 78
     8
170
     0
171
     2
172
     1
173
     0
174
     0
175
     0
176
   256
177
   256
178
     2
  0
DIMSTYLE
  2
AM_ISO$3
 70
     0
  3

  4
"
  5

  6

  7

 40
1.0
 41
2.5
 42
1.0
 43
10.0
 44
1.0
 45
0.0
 46
0.0
 47
0.1
 48
0.1
140
3.5
141
0.0
142
0.0
143
0.0393701
144
1.0
145
0.0
146
0.71
147
1.5
 71
     0
 72
     0
 73
     0
 74
     1
 75
     0
 76
     0
 77
     1
 78
     8
170
     0
171
     2
172
     0
173
     0
174
     0
175
     0
176
   256
177
   256
178
     2
  0
DIMSTYLE
  2
AM_ISO$4
 70
     0
  3

  4
"
  5

  6

  7

 40
1.0
 41
2.5
 42
1.0
 43
10.0
 44
1.0
 45
0.0
 46
0.0
 47
0.1
 48
0.1
140
3.5
141
0.0
142
0.0
143
0.0393701
144
1.0
145
0.0
146
0.71
147
1.5
 71
     0
 72
     0
 73
     0
 74
     1
 75
     0
 76
     0
 77
     1
 78
     8
170
     0
171
     2
172
     0
173
     0
174
     0
175
     0
176
   256
177
   256
178
     2
  0
DIMSTYLE
  2
AM_ISO$6
 70
     0
  3

  4
"
  5

  6

  7

 40
1.0
 41
2.5
 42
1.0
 43
10.0
 44
1.0
 45
0.0
 46
0.0
 47
0.1
 48
0.1
140
3.5
141
0.0
142
0.0
143
0.0393701
144
1.0
145
0.0
146
0.71
147
1.5
 71
     0
 72
     0
 73
     0
 74
     0
 75
     0
 76
     0
 77
     0
 78
     8
170
     0
171
     2
172
     1
173
     0
174
     0
175
     0
176
   256
177
   256
178
     2
  0
DIMSTYLE
  2
AM_ISO$7
 70
     0
  3

  4
"
  5

  6

  7

 40
1.0
 41
2.5
 42
1.0
 43
10.0
 44
1.0
 45
0.0
 46
0.0
 47
0.1
 48
0.1
140
5.0
141
0.0
142
0.0
143
0.0393701
144
1.0
145
0.0
146
0.71
147
1.5
 71
     0
 72
     0
 73
     0
 74
     0
 75
     0
 76
     0
 77
     1
 78
     8
170
     0
171
     2
172
     1
173
     0
174
     0
175
     0
176
   256
177
   256
178
     2
  0
DIMSTYLE
  2
AM_ISO$SF
 70
     0
  3

  4
"
  5

  6

  7

 40
1.0
 41
2.5
 42
1.0
 43
10.0
 44
1.0
 45
0.0
 46
0.0
 47
0.1
 48
0.1
140
3.5
141
0.0
142
0.0
143
0.0393701
144
1.0
145
0.0
146
0.71
147
1.5
 71
     0
 72
     0
 73
     0
 74
     0
 75
     1
 76
     1
 77
     1
 78
     8
170
     0
171
     2
172
     1
173
     0
174
     0
175
     0
176
   256
177
   256
178
     2
  0
DIMSTYLE
  2
AM_ISO$SH
 70
     0
  3

  4
"
  5

  6

  7

 40
1.0
 41
2.5
 42
1.0
 43
10.0
 44
1.0
 45
0.0
 46
0.0
 47
0.1
 48
0.1
140
3.5
141
0.0
142
0.0
143
0.0393701
144
2.0
145
0.0
146
0.71
147
1.5
 71
     0
 72
     0
 73
     0
 74
     0
 75
     1
 76
     1
 77
     1
 78
     8
170
     0
171
     2
172
     1
173
     1
174
     0
175
     0
176
   256
177
   256
178
     2
  0
DIMSTYLE
  2
TECHNICAL_OSAKA
 70
     0
  3

  4
"
  5

  6

  7

 40
1.0
 41
2.5
 42
1.0
 43
10.0
 44
1.0
 45
0.0
 46
0.0
 47
0.1
 48
0.1
140
2.799999999999998
141
0.0
142
0.0
143
0.0393701
144
1.0
145
0.0
146
0.71
147
1.5
 71
     0
 72
     0
 73
     0
 74
     0
 75
     0
 76
     0
 77
     3
 78
     8
170
     0
171
     2
172
     1
173
     0
174
     0
175
     0
176
   256
177
   256
178
    40
  0
DIMSTYLE
  2
TECHNICAL_OSAKA$3
 70
     0
  3

  4
"
  5

  6

  7

 40
1.0
 41
2.5
 42
1.0
 43
10.0
 44
1.0
 45
0.0
 46
0.0
 47
0.1
 48
0.1
140
2.799999999999998
141
0.0
142
0.0
143
0.0393701
144
1.0
145
0.0
146
0.71
147
1.5
 71
     0
 72
     0
 73
     0
 74
     1
 75
     0
 76
     0
 77
     3
 78
     8
170
     0
171
     2
172
     0
173
     0
174
     0
175
     0
176
   256
177
   256
178
    40
  0
DIMSTYLE
  2
TECHNICAL_OSAKA$4
 70
     0
  3

  4
"
  5

  6

  7

 40
1.0
 41
2.5
 42
1.0
 43
10.0
 44
1.0
 45
0.0
 46
0.0
 47
0.1
 48
0.1
140
2.799999999999998
141
0.0
142
0.0
143
0.0393701
144
1.0
145
0.0
146
0.71
147
1.5
 71
     0
 72
     0
 73
     0
 74
     1
 75
     0
 76
     0
 77
     3
 78
     8
170
     0
171
     2
172
     0
173
     0
174
     0
175
     0
176
   256
177
   256
178
    40
  0
DIMSTYLE
  2
TECHNICAL_OSAKA$6
 70
     0
  3

  4
"
  5

  6

  7

 40
1.0
 41
2.5
 42
1.0
 43
10.0
 44
1.0
 45
0.0
 46
0.0
 47
0.1
 48
0.1
140
2.799999999999998
141
0.0
142
0.0
143
0.0393701
144
1.0
145
0.0
146
0.71
147
1.5
 71
     0
 72
     0
 73
     0
 74
     0
 75
     0
 76
     0
 77
     0
 78
     8
170
     0
171
     2
172
     1
173
     0
174
     0
175
     0
176
   256
177
   256
178
    40
  0
DIMSTYLE
  2
TECHNICAL_OSAKA$7
 70
     0
  3

  4
"
  5

  6

  7

 40
1.0
 41
2.5
 42
1.0
 43
10.0
 44
1.0
 45
0.0
 46
0.0
 47
0.1
 48
0.1
140
2.799999999999998
141
0.0
142
0.0
143
0.0393701
144
1.0
145
0.0
146
0.71
147
1.5
 71
     0
 72
     0
 73
     0
 74
     0
 75
     0
 76
     0
 77
     3
 78
     8
170
     0
171
     2
172
     1
173
     0
174
     0
175
     0
176
   256
177
   256
178
    40
  0
DIMSTYLE
  2
TECHNICAL_OSAKA$SF
 70
     0
  3

  4
"
  5

  6

  7

 40
1.0
 41
2.5
 42
1.0
 43
10.0
 44
1.0
 45
0.0
 46
0.0
 47
0.1
 48
0.1
140
3.5
141
0.0
142
0.0
143
0.0393701
144
1.0
145
0.0
146
0.71
147
1.5
 71
     0
 72
     0
 73
     0
 74
     0
 75
     1
 76
     1
 77
     3
 78
     8
170
     0
171
     2
172
     1
173
     0
174
     0
175
     0
176
   256
177
   256
178
    40
  0
DIMSTYLE
  2
TECHNICAL_OSAKA$SH
 70
     0
  3

  4
"
  5

  6

  7

 40
1.0
 41
2.5
 42
1.0
 43
10.0
 44
1.0
 45
0.0
 46
0.0
 47
0.1
 48
0.1
140
3.5
141
0.0
142
0.0
143
0.0393701
144
2.0
145
0.0
146
0.71
147
1.5
 71
     0
 72
     0
 73
     0
 74
     0
 75
     1
 76
     1
 77
     3
 78
     8
170
     0
171
     2
172
     1
173
     1
174
     0
175
     0
176
   256
177
   256
178
    40
  0
DIMSTYLE
  2
AM_ANSI
 70
     0
  3

  4
mm
  5

  6

  7

 40
1.0
 41
0.1
 42
0.05
 43
0.5
 44
0.1
 45
0.0
 46
0.0
 47
0.1
 48
0.1
140
0.12
141
0.0
142
0.0
143
25.399999999999999
144
1.0
145
0.0
146
0.71
147
0.06
 71
     0
 72
     0
 73
     1
 74
     1
 75
     0
 76
     0
 77
     0
 78
     7
170
     0
171
     2
172
     0
173
     0
174
     0
175
     0
176
   256
177
   256
178
     2
  0
DIMSTYLE
  2
AM_ANSI$3
 70
     0
  3

  4
mm
  5

  6

  7

 40
1.0
 41
0.1
 42
0.05
 43
0.5
 44
0.1
 45
0.0
 46
0.0
 47
0.1
 48
0.1
140
0.12
141
0.0
142
0.0
143
25.399999999999999
144
1.0
145
0.0
146
0.71
147
0.06
 71
     0
 72
     0
 73
     1
 74
     1
 75
     0
 76
     0
 77
     0
 78
     7
170
     0
171
     2
172
     0
173
     0
174
     0
175
     0
176
   256
177
   256
178
     2
  0
DIMSTYLE
  2
AM_ANSI$4
 70
     0
  3

  4
mm
  5

  6

  7

 40
1.0
 41
0.1
 42
0.05
 43
0.5
 44
0.1
 45
0.0
 46
0.0
 47
0.1
 48
0.1
140
0.12
141
0.0
142
0.0
143
25.399999999999999
144
1.0
145
0.0
146
0.71
147
0.06
 71
     0
 72
     0
 73
     1
 74
     1
 75
     0
 76
     0
 77
     0
 78
     7
170
     0
171
     2
172
     0
173
     0
174
     0
175
     0
176
   256
177
   256
178
     2
  0
DIMSTYLE
  2
AM_ANSI$7
 70
     0
  3

  4
mm
  5

  6

  7

 40
1.0
 41
0.1
 42
0.05
 43
0.5
 44
0.1
 45
0.0
 46
0.0
 47
0.1
 48
0.1
140
0.24
141
0.0
142
0.0
143
25.399999999999999
144
1.0
145
0.0
146
0.71
147
0.06
 71
     0
 72
     0
 73
     1
 74
     1
 75
     0
 76
     0
 77
     0
 78
     7
170
     0
171
     2
172
     0
173
     0
174
     0
175
     0
176
   256
177
   256
178
     2
  0
DIMSTYLE
  2
AM_ANSI$SF
 70
     0
  3

  4
mm
  5

  6

  7

 40
1.0
 41
0.1
 42
0.05
 43
0.5
 44
0.1
 45
0.0
 46
0.0
 47
0.1
 48
0.1
140
0.12
141
0.0
142
0.0
143
25.399999999999999
144
1.0
145
0.0
146
0.71
147
0.06
 71
     0
 72
     0
 73
     1
 74
     1
 75
     1
 76
     1
 77
     0
 78
     7
170
     0
171
     2
172
     0
173
     0
174
     0
175
     0
176
   256
177
   256
178
     2
  0
DIMSTYLE
  2
AM_ANSI$SH
 70
     0
  3

  4
mm
  5

  6

  7

 40
1.0
 41
0.1
 42
0.05
 43
0.5
 44
0.1
 45
0.0
 46
0.0
 47
0.1
 48
0.1
140
0.12
141
0.0
142
0.0
143
25.399999999999999
144
1.0
145
0.0
146
0.71
147
0.06
 71
     0
 72
     0
 73
     1
 74
     1
 75
     1
 76
     1
 77
     0
 78
     7
170
     0
171
     2
172
     0
173
     1
174
     0
175
     0
176
   256
177
   256
178
     2
  0
ENDTAB
  0
ENDSEC
  0
SECTION
  2
BLOCKS
  0
BLOCK
  8
0
  2
$MODEL_SPACE
 70
     0
 10
0.0
 20
0.0
 30
0.0
  3
$MODEL_SPACE
  1

  0
ENDBLK
  5
12B1
  8
0
  0
BLOCK
 67
     1
  8
0
  2
$PAPER_SPACE
 70
     0
 10
0.0
 20
0.0
 30
0.0
  3
$PAPER_SPACE
  1

  0
ENDBLK
  5
12AD
 67
     1
  8
0
  0
BLOCK
  8
0
  2
_OPEN
 70
     0
 10
0.0
 20
0.0
 30
0.0
  3
_OPEN
  1

  0
LINE
  5
E4D
  8
0
  6
BYBLOCK
 62
     0
 10
-1.0
 20
0.1666666666666666
 30
0.0
 11
0.0
 21
0.0
 31
0.0
  0
LINE
  5
E4E
  8
0
  6
BYBLOCK
 62
     0
 10
-1.0
 20
-0.1666666666666666
 30
0.0
 11
0.0
 21
0.0
 31
0.0
  0
LINE
  5
E4F
  8
0
  6
BYBLOCK
 62
     0
 10
0.0
 20
0.0
 30
0.0
 11
-1.0
 21
0.0
 31
0.0
  0
ENDBLK
  5
E50
  8
0
  0
BLOCK
  8
0
  2
矢印なし
 70
     0
 10
0.0
 20
0.0
 30
0.0
  3
矢印なし
  1

  0
ENDBLK
  5
6E5
  8
0
  0
BLOCK
  8
0
  2
GENAXEH
 70
     0
 10
0.0
 20
0.0
 30
0.0
  3
GENAXEH
  1

  0
LINE
  5
E78
  8
0
 10
-1.0
 20
0.0
 30
0.0
 11
1.0
 21
0.0
 31
0.0
  0
ENDBLK
  5
E79
  8
0
  0
BLOCK
  8
0
  2
_OPEN30
 70
     0
 10
0.0
 20
0.0
 30
0.0
  3
_OPEN30
  1

  0
LINE
  5
E9D
  8
0
  6
BYBLOCK
 62
     0
 10
-1.0
 20
0.26794919
 30
0.0
 11
0.0
 21
0.0
 31
0.0
  0
LINE
  5
E9E
  8
0
  6
BYBLOCK
 62
     0
 10
0.0
 20
0.0
 30
0.0
 11
-1.0
 21
-0.26794919
 31
0.0
  0
LINE
  5
E9F
  8
0
  6
BYBLOCK
 62
     0
 10
0.0
 20
0.0
 30
0.0
 11
-1.0
 21
0.0
 31
0.0
  0
ENDBLK
  5
EA0
  8
0
  0
BLOCK
  8
0
  2
*U6
 70
     1
 10
0.0
 20
0.0
 30
0.0
  3
*U6
  1

  0
TEXT
  5
11EC
  8
250
 62
    40
 10
48.333333333333329
 20
29.0
 30
0.0
 40
2.799999999999998
  1
28
  0
ENDBLK
  5
11EE
  8
0
  0
BLOCK
  8
0
  2
*U7
 70
     1
 10
0.0
 20
0.0
 30
0.0
  3
*U7
  1

  0
TEXT
  5
11F0
  8
250
 62
    40
 10
29.766666666666669
 20
36.0
 30
0.0
 40
2.799999999999998
  1
65
  0
ENDBLK
  5
11F2
  8
0
  0
BLOCK
  8
0
  2
*U8
 70
     1
 10
0.0
 20
0.0
 30
0.0
  3
*U8
  1

  0
TEXT
  5
11F4
  8
250
 62
    40
 10
76.0
 20
-3.7999999999999989
 30
0.0
 40
2.799999999999998
  1
\U+2205
 50
90.0
  0
TEXT
  5
11F5
  8
250
 62
    40
 10
76.0
 20
-1.2666666666666671
 30
0.0
 40
2.799999999999998
  1
20
 50
90.0
  0
ENDBLK
  5
11F7
  8
0
  0
BLOCK
  8
0
  2
*U9
 70
     1
 10
0.0
 20
0.0
 30
0.0
  3
*U9
  1

  0
TEXT
  5
11F9
  8
250
 62
    40
 10
59.23333333333332
 20
22.0
 30
0.0
 40
2.799999999999998
  1
9
  0
ENDBLK
  5
11FB
  8
0
  0
ENDSEC
  0
SECTION
  2
ENTITIES
  0
INSERT
  5
6E6
  8
245
  2
矢印なし
 10
175.62382697000001
 20
90.551235719999994
 30
0.0
  0
TEXT
  5
877
  8
241
 10
-48.399999999999991
 20
49.0
 30
0.0
 40
5.0
  1
BBT30-FCM20093-65
  7
YOKO
 11
-48.399999999999991
 21
49.0
 31
0.0
 73
     1
  0
LINE
  5
BEB
  8
250
 10
-27.508737409999998
 20
-21.238842340000001
 30
0.0
 11
-45.242070740000003
 21
-21.238842340000001
 31
0.0
1001
ITEMNAME
1000
LNSP2
  0
LINE
  5
EB3
  8
240
  6
CONTINUOUS
 10
54.450504520001523
 20
-9.4000000000005528
 30
0.0
 11
37.602395899999998
 21
-9.4000000000000004
 31
0.0
1001
GRPNAME
1000
PASTMD0B
  0
LINE
  5
EB4
  8
245
  6
CENTER2
 10
-49.399999999999999
 20
0.0
 30
0.0
 11
66.0
 21
0.0
 31
0.0
1001
GRPNAME
1000
PASTMD0D
  0
LINE
  5
EB5
  8
240
  6
CONTINUOUS
 10
54.191052724201569
 20
9.4000000000000004
 30
0.0
 11
37.602395899999998
 21
9.4000000000000004
 31
0.0
1001
GRPNAME
1000
PASTMD0B
  0
LINE
  5
EB6
  8
240
  6
CONTINUOUS
 10
-47.544310230000001
 20
-8.9412910399999976
 30
0.0
 11
0.0
 21
-15.875
 31
0.0
  0
LINE
  5
EB7
  8
240
  6
CONTINUOUS
 10
-47.544310230000001
 20
8.9412910399999976
 30
0.0
 11
0.0
 21
15.875
 31
0.0
  0
LINE
  5
EB8
  8
240
  6
CONTINUOUS
 10
-48.399999999999991
 20
-7.9517585400000002
 30
0.0
 11
-48.399999999999991
 21
0.0
 31
0.0
  0
ARC
  5
EB9
  8
240
  6
CONTINUOUS
 10
-47.399999999999999
 20
-7.9517585400000002
 30
0.0
 40
1.0
 50
180.0
 51
261.70266184000002
  0
LINE
  5
EBA
  8
240
  6
CONTINUOUS
 10
-48.399999999999991
 20
7.9517585400000002
 30
0.0
 11
-48.399999999999991
 21
0.0
 31
0.0
  0
ARC
  5
EBB
  8
240
  6
CONTINUOUS
 10
-47.399999999999999
 20
7.9517585400000002
 30
0.0
 40
1.0
 50
98.297338159999995
 51
180.0
  0
ARC
  5
EBC
  8
240
  6
CONTINUOUS
 10
63.052537030000003
 20
-62.43824249
 30
0.0
 40
60.0
 50
120.59762105999999
 51
131.88120251000001
1001
GRPNAME
1000
PASTMD0D
  0
LINE
  5
EBD
  8
241
  6
CONTINUOUS
 10
9.5999999999999996
 20
-23.0
 30
0.0
 11
9.5999999999999996
 21
0.0
 31
0.0
  0
LINE
  5
EBE
  8
241
  6
CONTINUOUS
 10
11.90940108
 20
-19.0
 30
0.0
 11
11.90940108
 21
0.04377196
 31
0.0
  0
LINE
  5
EBF
  8
241
  6
CONTINUOUS
 10
17.600000000000001
 20
0.0
 30
0.0
 11
17.600000000000001
 21
-23.0
 31
0.0
  0
LINE
  5
EC0
  8
241
  6
CONTINUOUS
 10
15.290598920000001
 20
-19.0
 30
0.0
 11
15.290598920000001
 21
0.04377196
 31
0.0
  0
LINE
  5
EC1
  8
245
  6
CENTER2
 10
13.6
 20
-23.0
 30
0.0
 11
13.6
 21
23.0
 31
0.0
  0
LINE
  5
EC2
  8
241
 10
1.0
 20
0.0
 30
0.0
 11
1.0
 21
-15.875
 31
0.0
  0
LINE
  5
EC3
  8
241
 10
0.0
 20
-15.875
 30
0.0
 11
0.0
 21
0.0
 31
0.0
  0
LINE
  5
EC4
  8
241
  6
CONTINUOUS
 10
22.0
 20
-20.0
 30
0.0
 11
22.0
 21
0.0
 31
0.0
  0
LINE
  5
EC5
  8
240
  6
CONTINUOUS
 10
9.5999999999999996
 20
-23.0
 30
0.0
 11
1.0
 21
-23.0
 31
0.0
  0
LINE
  5
EC6
  8
243
  6
HIDDEN2
 10
19.0
 20
-16.300000000000001
 30
0.0
 11
1.0
 21
-16.300000000000001
 31
0.0
  0
LINE
  5
EC7
  8
240
  6
CONTINUOUS
 10
1.0
 20
-15.875
 30
0.0
 11
1.0
 21
-23.0
 31
0.0
  0
LINE
  5
EC8
  8
240
 10
0.0
 20
-15.875
 30
0.0
 11
1.0
 21
-15.875
 31
0.0
  0
LINE
  5
EC9
  8
240
  6
CONTINUOUS
 10
17.600000000000001
 20
-23.0
 30
0.0
 11
22.0
 21
-23.0
 31
0.0
  0
LINE
  5
ECA
  8
240
  6
CONTINUOUS
 10
11.90940108
 20
-19.0
 30
0.0
 11
9.5999999999999996
 21
-23.0
 31
0.0
  0
LINE
  5
ECB
  8
243
  6
HIDDEN2
 10
19.0
 20
-16.300000000000001
 30
0.0
 11
19.0
 21
-23.0
 31
0.0
  0
LINE
  5
ECC
  8
240
  6
CONTINUOUS
 10
15.290598920000001
 20
-19.0
 30
0.0
 11
17.600000000000001
 21
-23.0
 31
0.0
  0
LINE
  5
ECD
  8
240
  6
CONTINUOUS
 10
11.90940108
 20
-19.0
 30
0.0
 11
15.290598920000001
 21
-19.0
 31
0.0
  0
ARC
  5
ECE
  8
240
  6
CONTINUOUS
 10
25.0
 20
-20.0
 30
0.0
 40
2.999999999999976
 50
131.8811499
 51
179.99999998999999
1001
GRPNAME
1000
PASTMD0D
  0
LINE
  5
ECF
  8
240
  6
CONTINUOUS
 10
22.0
 20
-23.0
 30
0.0
 11
22.0
 21
-20.0
 31
0.0
  0
LINE
  5
ED0
  8
241
  6
HIDDEN2
 10
19.0
 20
16.300000000000001
 30
0.0
 11
1.0
 21
16.300000000000001
 31
0.0
  0
LINE
  5
ED1
  8
240
  6
CONTINUOUS
 10
9.5999999999999996
 20
23.0
 30
0.0
 11
1.0
 21
23.0
 31
0.0
  0
LINE
  5
ED2
  8
241
 10
1.0
 20
0.0
 30
0.0
 11
1.0
 21
15.875
 31
0.0
  0
LINE
  5
ED3
  8
241
 10
0.0
 20
15.875
 30
0.0
 11
0.0
 21
0.0
 31
0.0
  0
LINE
  5
ED4
  8
240
  6
CONTINUOUS
 10
1.0
 20
15.875
 30
0.0
 11
1.0
 21
23.0
 31
0.0
  0
LINE
  5
ED5
  8
240
 10
0.0
 20
15.875
 30
0.0
 11
1.0
 21
15.875
 31
0.0
  0
LINE
  5
ED6
  8
241
  6
CONTINUOUS
 10
9.5999999999999996
 20
23.0
 30
0.0
 11
9.5999999999999996
 21
0.0
 31
0.0
  0
LINE
  5
ED7
  8
241
  6
CONTINUOUS
 10
17.600000000000001
 20
0.0
 30
0.0
 11
17.600000000000001
 21
23.0
 31
0.0
  0
LINE
  5
ED8
  8
241
  6
CONTINUOUS
 10
15.290598920000001
 20
19.0
 30
0.0
 11
15.290598920000001
 21
-0.04377196
 31
0.0
  0
LINE
  5
ED9
  8
241
  6
CONTINUOUS
 10
11.90940108
 20
19.0
 30
0.0
 11
11.90940108
 21
-0.04377196
 31
0.0
  0
LINE
  5
EDA
  8
241
  6
CONTINUOUS
 10
22.0
 20
20.0
 30
0.0
 11
22.0
 21
0.0
 31
0.0
  0
ARC
  5
EDB
  8
240
  6
CONTINUOUS
 10
63.052537030000003
 20
62.43824249
 30
0.0
 40
60.0
 50
228.11879748999999
 51
239.40256903
1001
GRPNAME
1000
PASTMD0D
  0
LINE
  5
EDC
  8
241
  6
CONTINUOUS
 10
35.0
 20
0.0
 30
0.0
 11
35.0
 21
-9.4000000000000004
 31
0.0
1001
GRPNAME
1000
PASTMD0C
  0
ARC
  5
EDD
  8
240
  6
CONTINUOUS
 10
37.602395899999998
 20
-19.399999999999999
 30
0.0
 40
10.0
 50
90.0
 51
120.59857108999999
1001
GRPNAME
1000
PASTMD0D
  0
LINE
  5
EDE
  8
241
  6
CONTINUOUS
 10
35.0
 20
0.0
 30
0.0
 11
35.0
 21
9.4000000000000004
 31
0.0
1001
GRPNAME
1000
PASTMD0C
  0
ARC
  5
EDF
  8
240
  6
CONTINUOUS
 10
37.602395899999998
 20
19.399999999999999
 30
0.0
 40
9.9999999999999876
 50
239.40256893
 51
269.99999998999988
1001
GRPNAME
1000
PASTMD0D
  0
LINE
  5
EE0
  8
240
  6
CONTINUOUS
 10
17.600000000000001
 20
23.0
 30
0.0
 11
22.0
 21
23.0
 31
0.0
  0
LINE
  5
EE1
  8
240
  6
CONTINUOUS
 10
11.90940108
 20
19.0
 30
0.0
 11
9.5999999999999996
 21
23.0
 31
0.0
  0
LINE
  5
EE2
  8
241
  6
HIDDEN2
 10
19.0
 20
16.300000000000001
 30
0.0
 11
19.0
 21
23.0
 31
0.0
  0
LINE
  5
EE3
  8
240
  6
CONTINUOUS
 10
15.290598920000001
 20
19.0
 30
0.0
 11
17.600000000000001
 21
23.0
 31
0.0
  0
LINE
  5
EE4
  8
240
  6
CONTINUOUS
 10
11.90940108
 20
19.0
 30
0.0
 11
15.290598920000001
 21
19.0
 31
0.0
  0
ARC
  5
EE5
  8
240
  6
CONTINUOUS
 10
25.0
 20
20.0
 30
0.0
 40
2.999999999999976
 50
180.00000001000001
 51
228.1188501
1001
GRPNAME
1000
PASTMD0D
  0
LINE
  5
EE6
  8
240
  6
CONTINUOUS
 10
22.0
 20
23.0
 30
0.0
 11
22.0
 21
20.0
 31
0.0
  0
LINE
  5
F8A
  8
241
 10
48.936265705117272
 20
-9.4000000000007073
 30
0.0
 11
48.772196152417841
 21
-9.3624336719828776
 31
0.0
  0
LINE
  5
F8B
  8
241
 10
48.772196152417841
 20
-9.3624336719828776
 30
0.0
 11
48.985245385535151
 21
-9.4000000000007038
 31
0.0
  0
LINE
  5
F8C
  8
241
 10
53.896923802360412
 20
-3.8587968497066689
 30
0.0
 11
64.499999999999986
 21
-7.7180009773039524
 31
0.0
  0
ARC
  5
F8D
  8
241
 10
49.659125086640813
 20
-6.3301171377490872
 30
0.0
 40
3.1593648884149861
 50
78.502979801391305
 51
253.69621368140361
  0
LINE
  5
F8E
  8
241
 10
53.891736456571607
 20
-3.8694324847053601
 30
0.0
 11
50.288839175037651
 21
-3.234144485249717
 31
0.0
  0
LINE
  5
F8F
  8
241
  6
CONTINUOUS
 10
54.940443963000142
 20
-1.719263455581113
 30
0.0
 11
53.891736456571607
 21
-3.8694324847053601
 31
0.0
  0
LINE
  5
F90
  8
241
  6
CONTINUOUS
 10
64.499999999999986
 20
-3.4048711084986789
 30
0.0
 11
54.940443963000142
 21
-1.719263455581113
 31
0.0
  0
LINE
  5
F91
  8
240
 10
64.528064488059215
 20
-3.4098196349432981
 30
0.0
 11
64.999999999999915
 21
-7.8999860944370299
 31
0.0
  0
LINE
  5
F92
  8
240
 10
64.199999999999989
 20
3.5000000000000111
 30
0.0
 11
64.200000000000003
 21
3.1188308083726581
 31
0.0
  0
LINE
  5
F98
  8
241
 10
63.728860731028931
 20
3.3781471407245149
 30
0.0
 11
48.042278537942039
 21
7.0660703320547871
 31
0.0
  0
LINE
  5
F99
  8
240
 10
64.499999999999972
 20
-8.9603878356052995
 30
0.0
 11
64.499999999999986
 21
-7.7180009773039524
 31
0.0
  0
LINE
  5
F9A
  8
240
 10
64.499999999999986
 20
-3.4048711084986789
 30
0.0
 11
64.499999999999986
 21
2.404687965518439
 31
0.0
  0
ARC
  5
F9B
  8
241
 10
48.499999999999943
 20
9.0129886824669345
 30
0.0
 40
2.0
 50
168.84255845510239
 51
256.7699924943239
  0
ARC
  5
F9C
  8
240
 10
63.499999999999972
 20
2.4046879655184421
 30
0.0
 40
1.0
 50
0.0
 51
45.572978399097167
  0
ARC
  5
F9D
  8
241
 10
63.499999999999972
 20
2.4046879655184421
 30
0.0
 40
1.0
 50
45.572978399097167
 51
76.769992494323944
  0
LINE
  5
F9E
  8
245
  6
CONTINUOUS
 10
59.42099999999985
 20
9.0893574943768645
 30
0.0
 11
59.42099999999985
 21
4.040558934013041
 31
0.0
  0
LINE
  5
F9F
  8
245
  6
CONTINUOUS
 10
56.755928329450001
 20
6.6150000000000011
 30
0.0
 11
62.259098197501821
 21
6.6150000000000011
 31
0.0
  0
CIRCLE
  5
FA0
  8
241
 10
59.420999999999829
 20
6.6150000000000011
 30
0.0
 40
2.0
  0
LINE
  5
FA1
  8
240
 10
54.191052724201569
 20
10.0
 30
0.0
 11
64.999999999999915
 21
10.0
 31
0.0
1001
GRPNAME
1000
PASTMD03
  0
LINE
  5
FA2
  8
240
 10
64.199999999999989
 20
3.5000000000000111
 30
0.0
 11
64.650947275798131
 21
3.5000000000000111
 31
0.0
1001
GRPNAME
1000
PASTMD03
  0
LINE
  5
FA3
  8
240
 10
64.650947275798131
 20
3.4999999999999969
 30
0.0
 11
64.65094727579816
 21
7.7940151619277067
 31
0.0
1001
GRPNAME
1000
PASTMD03
  0
LINE
  5
FA4
  8
240
 10
64.65094727579816
 20
7.7940151619277067
 30
0.0
 11
65.0
 21
8.2100000000000097
 31
0.0
1001
GRPNAME
1000
PASTMD03
  0
LINE
  5
FA5
  8
240
 10
65.0
 20
8.2100000000000097
 30
0.0
 11
65.0
 21
10.0
 31
0.0
1001
GRPNAME
1000
PASTMD03
  0
LINE
  5
FA6
  8
241
 10
54.191052724201569
 20
9.3750000000000249
 30
0.0
 11
54.191052724201541
 21
5.620490495692926
 31
0.0
1001
GRPNAME
1000
PASTMD03
  0
LINE
  5
FA7
  8
241
 10
54.191052724201569
 20
10.0
 30
0.0
 11
59.173781838609571
 21
8.5996619814665713
 31
0.0
  0
LINE
  5
FA8
  8
241
 10
60.665899208771478
 20
8.1803197628599005
 30
0.0
 11
64.65094727579816
 21
7.060368389664748
 31
0.0
  0
LINE
  5
FA9
  8
241
 10
54.191052724201541
 20
6.4396316103352591
 30
0.0
 11
57.816765136290691
 21
5.420667340285787
 31
0.0
  0
LINE
  5
FAA
  8
241
 10
60.168205500651197
 20
4.7598223966971931
 30
0.0
 11
64.650947275798131
 21
3.4999999999999969
 31
0.0
  0
LINE
  5
FAB
  8
240
 10
54.191052724201569
 20
9.4000000000000004
 30
0.0
 11
54.191052724201569
 21
10.0
 31
0.0
  0
LINE
  5
FAC
  8
241
 10
64.199999999999989
 20
3.5000000000000111
 30
0.0
 11
63.210559564404527
 21
3.5000000000000142
 31
0.0
  0
LINE
  5
FAD
  8
240
 10
64.499999999999986
 20
-7.7180009773039524
 30
0.0
 11
64.999999999999915
 21
-7.8999860944370299
 31
0.0
  0
LINE
  5
FAE
  8
240
 10
64.528064488059215
 20
-3.4098196349432981
 30
0.0
 11
64.499999999999986
 21
-3.4048711084986789
 31
0.0
  0
LINE
  5
104F
  8
250
 10
65.5
 20
10.0
 30
0.0
 11
78.0
 21
10.0
 31
0.0
  0
LINE
  5
1050
  8
250
 10
77.0
 20
-7.7699999999999978
 30
0.0
 11
77.0
 21
7.7699999999999978
 31
0.0
  0
TEXT
  5
119A
  8
250
 10
-42.975404073333323
 20
-20.238842340000001
 30
0.0
 40
2.799999999999998
  1
BBT30
  7
YOKO
1001
ITEMNAME
1000
LNSP3
1001
ACAD
1000
MTEXTBEGIN
1070
    73
1070
     1
1070
    44
1040
1.0
1070
    74
1070
     0
1000
MTEXTEND
1000
MTEXTBEGIN
1070
    73
1070
     1
1070
    44
1040
1.0
1070
    74
1070
     0
1000
MTEXTEND
1000
MTEXTBEGIN
1070
    73
1070
     1
1070
    44
1040
1.0
1070
    74
1070
     0
1000
MTEXTEND
1000
MTEXTBEGIN
1070
    73
1070
     1
1070
    44
1040
1.0
1070
    74
1070
     0
1000
MTEXTEND
  0
LINE
  5
119B
  8
250
 10
-23.631091409633061
 20
-14.522562450651151
 30
0.0
 11
-27.508737409999998
 21
-21.238842340000001
 31
0.0
1001
ACAD
1000
DSTYLE
1002
{
1070
     6
1000
OPEN
1070
   343
1005
594
1002
}
  0
LINE
  5
119C
  8
250
 10
-23.952964184741589
 20
-14.336729117378971
 30
0.0
 11
-22.516091410000001
 21
-12.5913258
 31
0.0
  0
LINE
  5
119D
  8
250
 10
-23.309218634524541
 20
-14.708395783923329
 30
0.0
 11
-22.516091410000001
 21
-12.5913258
 31
0.0
  0
LINE
  5
119E
  8
250
 10
-22.516091410000001
 20
-12.5913258
 30
0.0
 11
-23.631091409633061
 21
-14.522562450651151
 31
0.0
  0
LINE
  5
119F
  8
250
 10
0.0
 20
16.375
 30
0.0
 11
0.0
 21
36.0
 31
0.0
  0
LINE
  5
11A0
  8
250
 10
65.0
 20
10.5
 30
0.0
 11
65.0
 21
36.0
 31
0.0
  0
LINE
  5
11A1
  8
250
 10
2.2299999999999991
 20
35.0
 30
0.0
 11
62.77000000000001
 21
35.0
 31
0.0
  0
LINE
  5
11A5
  8
250
 10
37.0
 20
9.9181605299999998
 30
0.0
 11
37.0
 21
29.0
 31
0.0
  0
LINE
  5
11A6
  8
250
 10
65.0
 20
10.5
 30
0.0
 11
65.0
 21
29.0
 31
0.0
  0
LINE
  5
11A7
  8
250
 10
39.229999999999997
 20
28.0
 30
0.0
 11
62.77000000000001
 21
28.0
 31
0.0
  0
LINE
  5
11AB
  8
250
 10
56.0
 20
10.5
 30
0.0
 11
56.0
 21
22.0
 31
0.0
  0
LINE
  5
11AC
  8
250
 10
65.0
 20
10.5
 30
0.0
 11
65.0
 21
22.0
 31
0.0
  0
LINE
  5
11AD
  8
250
 10
58.229999999999997
 20
21.0
 30
0.0
 11
62.77000000000001
 21
21.0
 31
0.0
  0
TEXT
  5
11B1
  8
250
 10
76.0
 20
-3.7999999999999989
 30
0.0
 40
2.799999999999998
  1
\U+2205
 50
90.0
1001
ACAD
1000
MTEXTBEGIN
1070
    73
1070
     1
1070
    44
1040
1.0
1070
    74
1070
     0
1000
MTEXTEND
1000
MTEXTBEGIN
1070
    73
1070
     1
1070
    44
1040
1.0
1070
    74
1070
     0
1000
MTEXTEND
1000
MTEXTBEGIN
1070
    73
1070
     1
1070
    44
1040
1.0
1070
    74
1070
     0
1000
MTEXTEND
1000
MTEXTBEGIN
1070
    73
1070
     1
1070
    44
1040
1.0
1070
    74
1070
     0
1000
MTEXTEND
  0
TEXT
  5
11B2
  8
250
 10
76.0
 20
-1.2666666666666671
 30
0.0
 40
2.799999999999998
  1
20
 50
90.0
1001
ACAD
1000
MTEXTBEGIN
1070
    73
1070
     1
1070
    44
1040
1.0
1070
    74
1070
     0
1000
MTEXTEND
1000
MTEXTBEGIN
1070
    73
1070
     1
1070
    44
1040
1.0
1070
    74
1070
     0
1000
MTEXTEND
1000
MTEXTBEGIN
1070
    73
1070
     1
1070
    44
1040
1.0
1070
    74
1070
     0
1000
MTEXTEND
1000
MTEXTBEGIN
1070
    73
1070
     1
1070
    44
1040
1.0
1070
    74
1070
     0
1000
MTEXTEND
  0
LINE
  5
11B3
  8
250
 10
76.62833333333333
 20
7.7699999999999978
 30
0.0
 11
77.0
 21
10.0
 31
0.0
  0
LINE
  5
11B4
  8
250
 10
77.371666666666655
 20
7.7699999999999978
 30
0.0
 11
77.0
 21
10.0
 31
0.0
  0
LINE
  5
11B5
  8
250
 10
77.0
 20
10.0
 30
0.0
 11
77.0
 21
7.7699999999999978
 31
0.0
  0
TEXT
  5
11B6
  8
250
 10
29.766666666666669
 20
36.0
 30
0.0
 40
2.799999999999998
  1
65
1001
ACAD
1000
MTEXTBEGIN
1070
    73
1070
     1
1070
    44
1040
1.0
1070
    74
1070
     0
1000
MTEXTEND
1000
MTEXTBEGIN
1070
    73
1070
     1
1070
    44
1040
1.0
1070
    74
1070
     0
1000
MTEXTEND
1000
MTEXTBEGIN
1070
    73
1070
     1
1070
    44
1040
1.0
1070
    74
1070
     0
1000
MTEXTEND
1000
MTEXTBEGIN
1070
    73
1070
     1
1070
    44
1040
1.0
1070
    74
1070
     0
1000
MTEXTEND
  0
LINE
  5
11B7
  8
250
 10
62.77000000000001
 20
35.37166666666667
 30
0.0
 11
65.0
 21
35.0
 31
0.0
  0
LINE
  5
11B8
  8
250
 10
62.77000000000001
 20
34.62833333333333
 30
0.0
 11
65.0
 21
35.0
 31
0.0
  0
LINE
  5
11B9
  8
250
 10
65.0
 20
35.0
 30
0.0
 11
62.77000000000001
 21
35.0
 31
0.0
  0
TEXT
  5
11BA
  8
250
 10
48.333333333333329
 20
29.0
 30
0.0
 40
2.799999999999998
  1
28
1001
ACAD
1000
MTEXTBEGIN
1070
    73
1070
     1
1070
    44
1040
1.0
1070
    74
1070
     0
1000
MTEXTEND
1000
MTEXTBEGIN
1070
    73
1070
     1
1070
    44
1040
1.0
1070
    74
1070
     0
1000
MTEXTEND
1000
MTEXTBEGIN
1070
    73
1070
     1
1070
    44
1040
1.0
1070
    74
1070
     0
1000
MTEXTEND
1000
MTEXTBEGIN
1070
    73
1070
     1
1070
    44
1040
1.0
1070
    74
1070
     0
1000
MTEXTEND
  0
LINE
  5
11BB
  8
250
 10
62.77000000000001
 20
28.371666666666659
 30
0.0
 11
65.0
 21
28.0
 31
0.0
  0
LINE
  5
11BC
  8
250
 10
62.77000000000001
 20
27.62833333333333
 30
0.0
 11
65.0
 21
28.0
 31
0.0
  0
LINE
  5
11BD
  8
250
 10
65.0
 20
28.0
 30
0.0
 11
62.77000000000001
 21
28.0
 31
0.0
  0
LINE
  5
11BE
  8
250
 10
39.229999999999997
 20
27.62833333333333
 30
0.0
 11
37.0
 21
28.0
 31
0.0
  0
LINE
  5
11BF
  8
250
 10
39.229999999999997
 20
28.371666666666659
 30
0.0
 11
37.0
 21
28.0
 31
0.0
  0
LINE
  5
11C0
  8
250
 10
37.0
 20
28.0
 30
0.0
 11
39.229999999999997
 21
28.0
 31
0.0
  0
TEXT
  5
11C1
  8
250
 10
59.23333333333332
 20
22.0
 30
0.0
 40
2.799999999999998
  1
9
1001
ACAD
1000
MTEXTBEGIN
1070
    73
1070
     1
1070
    44
1040
1.0
1070
    74
1070
     0
1000
MTEXTEND
1000
MTEXTBEGIN
1070
    73
1070
     1
1070
    44
1040
1.0
1070
    74
1070
     0
1000
MTEXTEND
1000
MTEXTBEGIN
1070
    73
1070
     1
1070
    44
1040
1.0
1070
    74
1070
     0
1000
MTEXTEND
1000
MTEXTBEGIN
1070
    73
1070
     1
1070
    44
1040
1.0
1070
    74
1070
     0
1000
MTEXTEND
  0
LINE
  5
11C2
  8
250
 10
62.77000000000001
 20
21.37166666666667
 30
0.0
 11
65.0
 21
21.0
 31
0.0
  0
LINE
  5
11C3
  8
250
 10
62.77000000000001
 20
20.62833333333333
 30
0.0
 11
65.0
 21
21.0
 31
0.0
  0
LINE
  5
11C4
  8
250
 10
65.0
 20
21.0
 30
0.0
 11
62.77000000000001
 21
21.0
 31
0.0
  0
LINE
  5
11C5
  8
250
 10
58.229999999999997
 20
20.62833333333333
 30
0.0
 11
56.0
 21
21.0
 31
0.0
  0
LINE
  5
11C6
  8
250
 10
58.229999999999997
 20
21.37166666666667
 30
0.0
 11
56.0
 21
21.0
 31
0.0
  0
LINE
  5
11C7
  8
250
 10
56.0
 20
21.0
 30
0.0
 11
58.229999999999997
 21
21.0
 31
0.0
  0
LINE
  5
11C8
  8
250
 10
2.2299999999999991
 20
34.62833333333333
 30
0.0
 11
0.0
 21
35.0
 31
0.0
  0
LINE
  5
11C9
  8
250
 10
2.2299999999999991
 20
35.37166666666667
 30
0.0
 11
0.0
 21
35.0
 31
0.0
  0
LINE
  5
11CA
  8
250
 10
0.0
 20
35.0
 30
0.0
 11
2.2299999999999991
 21
35.0
 31
0.0
  0
LINE
  5
13C7
  8
240
  6
CONTINUOUS
 10
64.110522672835259
 20
-9.3602494033464385
 30
0.0
 11
55.0
 21
-9.5999999999999996
 31
0.0
1001
GRPNAME
1000
PASTMD0B
  0
LINE
  5
13C8
  8
240
  6
CONTINUOUS
 10
54.450504520001523
 20
-9.4000000000005528
 30
0.0
 11
55.0
 21
-9.5999999999999996
 31
0.0
1001
GRPNAME
1000
PASTMD0B
  0
ARC
  5
13CC
  8
240
 10
64.099999999999966
 20
-8.9603878356052995
 30
0.0
 40
0.4
 50
271.50743575877499
 51
0.0
1001
GENIUS_GENODEF_13
1002
{
1000
HIER
1070
     0
1002
}
1002
{
1000
MANEDIT
1070
     0
1002
}
1002
{
1000
NOSEL
1070
     0
1002
}
1002
{
1000
BEHIND
1070
     0
1002
}
1002
{
1000
OTHER
1070
     0
1002
}
1002
{
1000
REACTOR
1002
}
1001
GENIUS_GENOBJ-N-FIL_13
1002
{
1000
OWNER
1000
GEN
1002
}
  0
VIEWPORT
  5
22
 67
     1
  8
0
 10
261.51769911999997
 20
148.5
 30
0.0
 40
523.03539823000006
 41
297.0
 68
     1
 69
     1
1001
ACAD
1000
MVIEW
1002
{
1070
    16
1010
0.0
1020
0.0
1030
0.0
1010
0.0
1020
0.0
1030
1.0
1040
0.0
1040
297.0
1040
261.51769911999997
1040
148.5
1040
50.0
1040
0.0
1040
0.0
1070
     0
1070
   100
1070
     1
1070
     1
1070
     0
1070
     0
1070
     0
1070
     0
1040
0.0
1040
0.0
1040
0.0
1040
1.0
1040
1.0
1040
10.0
1040
10.0
1070
     0
1002
{
1002
}
1002
}
1001
GENIUS_GENODEF_13
1002
{
1000
HIER
1070
     0
1002
}
1002
{
1000
MANEDIT
1070
     0
1002
}
1002
{
1000
NOSEL
1070
     0
1002
}
1002
{
1000
BEHIND
1070
     0
1002
}
1002
{
1000
OTHER
1070
     0
1002
}
1002
{
1000
REACTOR
1002
}
1001
GENIUS_GENOBJ-N-SDF_13
1002
{
1000
OWNER
1000
GEN
1002
}
1001
GENIUS_GENSCREG_15
1000
PF
1040
1.0
1000
DF
1040
1.0
1000
MIN
1011
0.0000000049999471
1021
-1.#QNAN00000000000E+000
1031
0.0
1021
0.0
1031
0.0
1000
MAX
1011
523.035398235
1021
-1.#QNAN00000000000E+000
1031
0.0
1021
297.0
1031
0.0
1000
FLAGS
1070
     2
  0
ENDSEC
  0
EOF
