  0
SECTION
  2
HEADER
  9
$ACADVER
  1
AC1009
  9
$INSBASE
 10
0.0
 20
0.0
 30
0.0
  9
$EXTMIN
 10
-49.407158324212439
 20
-23.004879981295289
 30
-0.0000000000074783
  9
$EXTMAX
 10
99.008392903937988
 20
54.001772400192181
 30
0.0000000000044428
  9
$LIMMIN
 10
0.0
 20
0.0
  9
$LIMMAX
 10
420.0
 20
297.0
  9
$ORTHOMODE
 70
     1
  9
$REGENMODE
 70
     1
  9
$FILLMODE
 70
     1
  9
$QTEXTMODE
 70
     0
  9
$MIRRTEXT
 70
     1
  9
$DRAGMODE
 70
     2
  9
$LTSCALE
 40
10.0
  9
$OSMODE
 70
    39
  9
$ATTMODE
 70
     1
  9
$TEXTSIZE
 40
3.0
  9
$TRACEWID
 40
1.0
  9
$TEXTSTYLE
  7
YOKO
  9
$CLAYER
  8
240
  9
$CELTYPE
  6
BYLAYER
  9
$CECOLOR
 62
   256
  9
$DIMSCALE
 40
1.0
  9
$DIMASZ
 40
2.2299999999999991
  9
$DIMEXO
 40
0.5
  9
$DIMDLI
 40
2.5
  9
$DIMRND
 40
0.0
  9
$DIMDLE
 40
0.0
  9
$DIMEXE
 40
1.0
  9
$DIMTP
 40
0.0
  9
$DIMTM
 40
0.0
  9
$DIMTXT
 40
2.799999999999998
  9
$DIMCEN
 40
0.0
  9
$DIMTSZ
 40
0.0
  9
$DIMTOL
 70
     0
  9
$DIMLIM
 70
     0
  9
$DIMTIH
 70
     0
  9
$DIMTOH
 70
     0
  9
$DIMSE1
 70
     0
  9
$DIMSE2
 70
     0
  9
$DIMTAD
 70
     3
  9
$DIMZIN
 70
     8
  9
$DIMBLK
  1

  9
$DIMASO
 70
     1
  9
$DIMSHO
 70
     1
  9
$DIMPOST
  1

  9
$DIMAPOST
  1

  9
$DIMALT
 70
     0
  9
$DIMALTD
 70
     2
  9
$DIMALTF
 40
25.399999999999999
  9
$DIMLFAC
 40
1.0
  9
$DIMTOFL
 70
     1
  9
$DIMTVP
 40
0.0
  9
$DIMTIX
 70
     1
  9
$DIMSOXD
 70
     0
  9
$DIMSAH
 70
     1
  9
$DIMBLK1
  1
OPEN
  9
$DIMBLK2
  1
OPEN
  9
$DIMSTYLE
  2
BIGT
  9
$DIMCLRD
 70
   256
  9
$DIMCLRE
 70
   256
  9
$DIMCLRT
 70
    40
  9
$DIMTFAC
 40
1.0
  9
$DIMGAP
 40
1.0
  9
$LUNITS
 70
     2
  9
$LUPREC
 70
     3
  9
$SKETCHINC
 40
1.0
  9
$FILLETRAD
 40
0.0
  9
$AUNITS
 70
     0
  9
$AUPREC
 70
     3
  9
$MENU
  1
.
  9
$ELEVATION
 40
0.0
  9
$PELEVATION
 40
0.0
  9
$THICKNESS
 40
0.0
  9
$LIMCHECK
 70
     0
  9
$BLIPMODE
 70
     0
  9
$CHAMFERA
 40
10.0
  9
$CHAMFERB
 40
10.0
  9
$SKPOLY
 70
     0
  9
$TDCREATE
 40
2455140.5647580209
  9
$TDUPDATE
 40
2456092.7530531371
  9
$TDINDWG
 40
0.0169423264
  9
$TDUSRTIMER
 40
0.0169421412
  9
$USRTIMER
 70
     1
  9
$ANGBASE
 50
0.0
  9
$ANGDIR
 70
     0
  9
$PDMODE
 70
     1
  9
$PDSIZE
 40
-5.0
  9
$PLINEWID
 40
0.0
  9
$COORDS
 70
     2
  9
$SPLFRAME
 70
     0
  9
$SPLINETYPE
 70
     6
  9
$SPLINESEGS
 70
     8
  9
$ATTDIA
 70
     1
  9
$ATTREQ
 70
     1
  9
$HANDLING
 70
     1
  9
$HANDSEED
  5
1214
  9
$SURFTAB1
 70
     6
  9
$SURFTAB2
 70
     6
  9
$SURFTYPE
 70
     6
  9
$SURFU
 70
     6
  9
$SURFV
 70
     6
  9
$UCSNAME
  2

  9
$UCSORG
 10
0.0
 20
0.0
 30
0.0
  9
$UCSXDIR
 10
1.0
 20
0.0
 30
0.0
  9
$UCSYDIR
 10
0.0
 20
1.0
 30
0.0
  9
$PUCSNAME
  2

  9
$PUCSORG
 10
0.0
 20
0.0
 30
0.0
  9
$PUCSXDIR
 10
1.0
 20
0.0
 30
0.0
  9
$PUCSYDIR
 10
0.0
 20
1.0
 30
0.0
  9
$USERI1
 70
     1
  9
$USERI2
 70
     0
  9
$USERI3
 70
     0
  9
$USERI4
 70
     0
  9
$USERI5
 70
     0
  9
$USERR1
 40
0.0
  9
$USERR2
 40
0.0
  9
$USERR3
 40
0.0
  9
$USERR4
 40
0.0
  9
$USERR5
 40
0.0
  9
$WORLDVIEW
 70
     1
  9
$SHADEDGE
 70
     3
  9
$SHADEDIF
 70
    70
  9
$TILEMODE
 70
     1
  9
$MAXACTVP
 70
    16
  9
$PLIMCHECK
 70
     0
  9
$PEXTMIN
 10
1.0000000000000000E+020
 20
1.0000000000000000E+020
 30
1.0000000000000000E+020
  9
$PEXTMAX
 10
-1.0000000000000000E+020
 20
-1.0000000000000000E+020
 30
-1.0000000000000000E+020
  9
$PLIMMIN
 10
0.0
 20
0.0
  9
$PLIMMAX
 10
420.0
 20
297.0
  9
$UNITMODE
 70
     0
  9
$VISRETAIN
 70
     0
  9
$PLINEGEN
 70
     0
  9
$PSLTSCALE
 70
     1
  0
ENDSEC
  0
SECTION
  2
TABLES
  0
TABLE
  2
VPORT
 70
    65
  0
VPORT
  2
*ACTIVE
 70
     0
 10
0.0
 20
0.0
 11
1.0
 21
1.0
 12
24.800617289862771
 22
15.49844620944844
 13
0.0
 23
0.0
 14
7.0
 24
7.0
 15
7.0
 25
7.0
 16
0.0
 26
0.0
 36
1.0
 17
0.0
 27
0.0
 37
0.0
 40
102.445536008351
 41
1.4552401746724879
 42
50.0
 43
0.0
 44
0.0
 50
0.0
 51
0.0
 71
     0
 72
  2000
 73
     1
 74
     0
 75
     0
 76
     1
 77
     0
 78
     0
  0
ENDTAB
  0
TABLE
  2
LTYPE
 70
    21
  0
LTYPE
  2
CONTINUOUS
 70
     0
  3
Solid line
 72
    65
 73
     0
 40
0.0
  0
LTYPE
  2
CENTER2
 70
     0
  3
___ _ ___ _ ___ _ ___ _ ___ _ ___ _ ___ _ ___ _
 72
    65
 73
     4
 40
1.125
 49
0.75
 49
-0.125
 49
0.125
 49
-0.125
  0
LTYPE
  2
HIDDEN2
 70
     0
  3
_ _ _ _ _ _ _ _ _ _ _ _ _ _ _ _ _ _ _ _ _ _ _ _
 72
    65
 73
     2
 40
0.1875
 49
0.125
 49
-0.0625
  0
LTYPE
  2
PHANTOM2
 70
     0
  3
___ _ _ ___ _ _ ___ _ _ ___ _ _ ___ _ _ ___ _ _
 72
    65
 73
     6
 40
1.25
 49
0.625
 49
-0.125
 49
0.125
 49
-0.125
 49
0.125
 49
-0.125
  0
LTYPE
  2
AMCONSTR
 70
     0
  3
_______________________
 72
    65
 73
     2
 40
9999.0
 49
9999.0
 49
0.0
  0
LTYPE
  2
HIDDEN
 70
     0
  3
Hidden __ __ __ __ __ __ __ __ __ __ __ __ __ _
 72
    65
 73
     2
 40
9.5249999999999986
 49
6.3499999999999979
 49
-3.174999999999998
  0
LTYPE
  2
CENTER
 70
     0
  3
____ _ ____ _ ____ _ ____ _ ____ _ ____ _ ____ 
 72
    65
 73
     4
 40
2.0
 49
1.25
 49
-0.25
 49
0.25
 49
-0.25
  0
LTYPE
  2
ACJISTGB
 70
     0
  3
__ . . __ . .
 72
    65
 73
     6
 40
9.0
 49
4.0
 49
-1.0
 49
1.0
 49
-1.0
 49
1.0
 49
-1.0
  0
LTYPE
  2
ACJISTGL
 70
     0
  3
_ _ _ _ _
 72
    65
 73
     2
 40
3.0
 49
2.0
 49
-1.0
  0
LTYPE
  2
ACANSTGB
 70
     0
  3
__ . . __ . .
 72
    65
 73
     6
 40
0.35433070866
 49
0.15748031496
 49
-0.03937007874
 49
0.03937007874
 49
-0.03937007874
 49
0.03937007874
 49
-0.03937007874
  0
LTYPE
  2
ACANSTGL
 70
     0
  3
_ _ _ _ _
 72
    65
 73
     2
 40
0.11811023622
 49
0.07874015748
 49
-0.03937007874
  0
LTYPE
  2
AMZIGZAG2
 70
     0
  3
/\/-/\/-/\/-/\/-/\/-/\/
 72
    65
 73
     2
 40
0.4401
 49
0.0001
 49
-0.4400000000000001
  0
ENDTAB
  0
TABLE
  2
LAYER
 70
     9
  0
LAYER
  2
0
 70
     0
 62
     7
  6
CONTINUOUS
  0
LAYER
  2
245
 70
     0
 62
     2
  6
CENTER2
  0
LAYER
  2
240
 70
     0
 62
     4
  6
CONTINUOUS
  0
LAYER
  2
241
 70
     0
 62
   211
  6
CONTINUOUS
  0
LAYER
  2
243
 70
     0
 62
   211
  6
HIDDEN2
  0
LAYER
  2
250
 70
     0
 62
     3
  6
CONTINUOUS
  0
LAYER
  2
DEFPOINTS
 70
     0
 62
     7
  6
CONTINUOUS
  0
ENDTAB
  0
TABLE
  2
STYLE
 70
     9
  0
STYLE
  2
STANDARD
 70
     0
 40
0.0
 41
1.0
 50
0.0
 71
     0
 42
3.0
  3
romans.shx
  4
BIGFONT.SHX
  0
STYLE
  2
YOKO
 70
     0
 40
0.0
 41
1.0
 50
0.0
 71
     0
 42
3.0
  3
romans.shx
  4
extfont.shx
  0
STYLE
  2
ACJISGDT
 70
     0
 40
0.0
 41
1.0
 50
0.0
 71
     0
 42
3.0
  3
amgdt.shx
  4
extfont.shx
  0
STYLE
  2
ACJISTS
 70
     0
 40
1.0
 41
1.0
 50
0.0
 71
     0
 42
3.0
  3
amgdt.shx
  4
extfont.shx
  0
STYLE
  2
ACANSTS
 70
     0
 40
1.0
 41
1.0
 50
0.0
 71
     0
 42
3.0
  3
romans.shx
  4
extfont.shx
  0
STYLE
  2
ACANSGDT
 70
     0
 40
0.0
 41
1.0
 50
0.0
 71
     0
 42
3.0
  3
amgdtans.shx
  4

  0
STYLE
  2

 70
     1
 40
0.0
 41
1.0
 50
0.0
 71
     0
 42
3.0
  3
ltypeshp.shx
  4

  0
ENDTAB
  0
TABLE
  2
VIEW
 70
     1
  0
VIEW
  2
OLE1
 70
     0
 40
102.49857579
 10
24.80682921
 20
15.503418569999999
 41
149.23367769999999
 11
0.0
 21
0.0
 31
1.0
 12
0.0
 22
0.0
 32
0.0
 42
50.0
 43
0.0
 44
0.0
 50
0.0
 71
     0
  0
ENDTAB
  0
TABLE
  2
UCS
 70
     0
  0
ENDTAB
  0
TABLE
  2
APPID
 70
    35
  0
APPID
  2
ACAD
 70
     0
  0
APPID
  2
GLOBAL
 70
     0
  0
APPID
  2
DETAIL
 70
     0
  0
APPID
  2
GRPNAME
 70
     0
  0
APPID
  2
GPARA
 70
     0
  0
APPID
  2
DCO15
 70
     0
  0
APPID
  2
ITEMNAME
 70
     0
  0
APPID
  2
GRADE_0
 70
     0
  0
APPID
  2
HATCH_TYPE
 70
     0
  0
APPID
  2
HATCH_DISPLAY
 70
     0
  0
APPID
  2
HATCH_DISTANCE
 70
     0
  0
APPID
  2
CONTENTBLOCKICON
 70
     0
  0
APPID
  2
MCAD_NO_VIS
 70
     0
  0
APPID
  2
ACAD_TEMP_GRAPHIC
 70
     0
  0
APPID
  2
ACATTRIBSERVICES
 70
     0
  0
APPID
  2
GENIUS_GENSCREG_15
 70
     0
  0
APPID
  2
GENIUS_GENODEF_13
 70
     0
  0
APPID
  2
GENIUS_GENOBJ-N-SDF_13
 70
     0
  0
APPID
  2
GENIUS_GENREC_14
 70
     0
  0
APPID
  2
GENIUS_GENOBJ-N-REC_13
 70
     0
  0
APPID
  2
GENIUS_GENDIMSH_14
 70
     0
  0
APPID
  2
GENIUS_GENOBJ-N-DIM_13
 70
     0
  0
APPID
  2
GENIUS_GENDIM_13
 70
     0
  0
APPID
  2
GENIUS_GENDTOL_13
 70
     0
  0
APPID
  2
GENIUS_GENOLIS_13
 70
     0
  0
APPID
  2
GENIUS_GENOENT_13
 70
     0
  0
APPID
  2
GENIUS_GENOBJ-F-FEM_13
 70
     0
  0
APPID
  2
GENIUS_GENOREF_13
 70
     0
  0
APPID
  2
GENIUS_GEFFEM_13
 70
     0
  0
APPID
  2
GENIUS_GEFFEMP_13
 70
     0
  0
APPID
  2
AD_DRAW
 70
     0
  0
APPID
  2
DESIGNERASSEMBLIES
 70
     0
  0
APPID
  2
ACADM_DIM_EDIT
 70
     0
  0
APPID
  2
AMDT_DM_ADJ
 70
     0
  0
APPID
  2
GENIUS_GENOBJ-N-FIL_13
 70
     0
  0
ENDTAB
  0
TABLE
  2
DIMSTYLE
 70
    32
  0
DIMSTYLE
  2
BIGT
 70
     0
  3

  4

  5

  6

  7

 40
1.0
 41
2.2299999999999991
 42
0.5
 43
7.0
 44
1.0
 45
0.0
 46
0.0
 47
0.0
 48
0.01
140
2.799999999999998
141
0.0
142
0.0
143
25.399999999999999
144
1.0
145
0.0
146
1.0
147
1.0
 71
     0
 72
     0
 73
     0
 74
     0
 75
     0
 76
     0
 77
     3
 78
     9
170
     0
171
     2
172
     1
173
     0
174
     1
175
     0
176
   256
177
   256
178
    40
  0
DIMSTYLE
  2
BIGT$0
 70
     0
  3

  4

  5

  6

  7

 40
1.0
 41
2.2299999999999991
 42
0.5
 43
7.0
 44
1.0
 45
0.0
 46
0.0
 47
0.0
 48
0.01
140
2.799999999999998
141
0.0
142
0.0
143
25.399999999999999
144
1.0
145
0.0
146
1.0
147
1.0
 71
     0
 72
     0
 73
     0
 74
     0
 75
     0
 76
     0
 77
     3
 78
     9
170
     0
171
     2
172
     1
173
     0
174
     0
175
     0
176
   256
177
   256
178
    40
  0
DIMSTYLE
  2
BIGT$2
 70
     0
  3

  4

  5

  6

  7

 40
1.0
 41
2.2299999999999991
 42
0.5
 43
7.0
 44
1.0
 45
0.0
 46
0.0
 47
0.0
 48
0.01
140
2.799999999999998
141
0.0
142
0.0
143
25.399999999999999
144
1.0
145
0.0
146
1.0
147
1.0
 71
     0
 72
     0
 73
     0
 74
     0
 75
     0
 76
     0
 77
     3
 78
     9
170
     0
171
     2
172
     1
173
     0
174
     0
175
     0
176
   256
177
   256
178
    40
  0
DIMSTYLE
  2
BIGT$3
 70
     0
  3

  4

  5

  6

  7

 40
1.0
 41
2.2299999999999991
 42
0.5
 43
2.5
 44
1.0
 45
0.0
 46
0.0
 47
0.0
 48
0.01
140
2.799999999999998
141
0.0
142
0.0
143
25.399999999999999
144
1.0
145
0.0
146
1.0
147
1.0
 71
     0
 72
     0
 73
     0
 74
     0
 75
     0
 76
     0
 77
     3
 78
     9
170
     0
171
     2
172
     1
173
     0
174
     0
175
     0
176
   256
177
   256
178
    40
  0
DIMSTYLE
  2
BIGT$4
 70
     0
  3

  4

  5

  6

  7

 40
1.0
 41
2.2299999999999991
 42
0.5
 43
2.5
 44
1.0
 45
0.0
 46
0.0
 47
0.0
 48
0.01
140
2.799999999999998
141
0.0
142
0.0
143
25.399999999999999
144
1.0
145
0.0
146
1.0
147
1.0
 71
     0
 72
     0
 73
     0
 74
     0
 75
     0
 76
     0
 77
     3
 78
     9
170
     0
171
     2
172
     1
173
     0
174
     0
175
     0
176
   256
177
   256
178
    40
  0
DIMSTYLE
  2
BIGT$6
 70
     0
  3

  4

  5

  6

  7

 40
1.0
 41
2.2299999999999991
 42
0.5
 43
2.5
 44
1.0
 45
0.0
 46
0.0
 47
0.0
 48
0.01
140
2.799999999999998
141
0.0
142
0.0
143
25.399999999999999
144
1.0
145
0.0
146
1.0
147
1.0
 71
     0
 72
     0
 73
     0
 74
     0
 75
     0
 76
     0
 77
     3
 78
     9
170
     0
171
     2
172
     1
173
     0
174
     0
175
     0
176
   256
177
   256
178
    40
  0
DIMSTYLE
  2
BIGT$7
 70
     0
  3

  4

  5

  6

  7

 40
0.0
 41
2.2299999999999991
 42
0.5
 43
7.0
 44
1.0
 45
0.0
 46
0.0
 47
0.0
 48
0.01
140
2.799999999999998
141
0.0
142
0.0
143
25.399999999999999
144
1.0
145
0.0
146
1.0
147
1.0
 71
     0
 72
     0
 73
     0
 74
     0
 75
     0
 76
     0
 77
     3
 78
     9
170
     0
171
     2
172
     0
173
     0
174
     0
175
     0
176
   256
177
   256
178
    40
  0
DIMSTYLE
  2
BIGT$SF
 70
     0
  3

  4

  5

  6

  7

 40
1.0
 41
2.2299999999999991
 42
0.5
 43
7.0
 44
1.0
 45
0.0
 46
0.0
 47
0.0
 48
0.0
140
2.799999999999998
141
0.0
142
0.0
143
25.399999999999999
144
1.0
145
0.0
146
1.0
147
1.0
 71
     0
 72
     0
 73
     0
 74
     0
 75
     0
 76
     0
 77
     3
 78
     9
170
     0
171
     2
172
     1
173
     0
174
     0
175
     0
176
   256
177
   256
178
    40
  0
DIMSTYLE
  2
BIGT$SH
 70
     0
  3

  4

  5

  6

  7

 40
1.0
 41
2.2299999999999991
 42
0.5
 43
7.0
 44
1.0
 45
0.0
 46
0.0
 47
0.0
 48
0.0
140
2.799999999999998
141
0.0
142
0.0
143
25.399999999999999
144
1.0
145
0.0
146
1.0
147
1.0
 71
     0
 72
     0
 73
     0
 74
     0
 75
     0
 76
     0
 77
     3
 78
     9
170
     0
171
     2
172
     1
173
     0
174
     0
175
     0
176
   256
177
   256
178
    40
  0
DIMSTYLE
  2
AM_ANSI
 70
     0
  3

  4
mm
  5

  6

  7

 40
1.0
 41
0.1
 42
0.05
 43
0.5
 44
0.1
 45
0.0
 46
0.0
 47
0.1
 48
0.1
140
0.12
141
0.0
142
0.0
143
25.399999999999999
144
1.0
145
0.0
146
0.71
147
0.06
 71
     0
 72
     0
 73
     1
 74
     1
 75
     0
 76
     0
 77
     0
 78
     7
170
     0
171
     2
172
     0
173
     0
174
     0
175
     0
176
   256
177
   256
178
     2
  0
DIMSTYLE
  2
AM_ANSI$3
 70
     0
  3

  4
mm
  5

  6

  7

 40
1.0
 41
0.1
 42
0.05
 43
0.5
 44
0.1
 45
0.0
 46
0.0
 47
0.1
 48
0.1
140
0.12
141
0.0
142
0.0
143
25.399999999999999
144
1.0
145
0.0
146
0.71
147
0.06
 71
     0
 72
     0
 73
     1
 74
     1
 75
     0
 76
     0
 77
     0
 78
     7
170
     0
171
     2
172
     0
173
     0
174
     0
175
     0
176
   256
177
   256
178
     2
  0
DIMSTYLE
  2
AM_ANSI$4
 70
     0
  3

  4
mm
  5

  6

  7

 40
1.0
 41
0.1
 42
0.05
 43
0.5
 44
0.1
 45
0.0
 46
0.0
 47
0.1
 48
0.1
140
0.12
141
0.0
142
0.0
143
25.399999999999999
144
1.0
145
0.0
146
0.71
147
0.06
 71
     0
 72
     0
 73
     1
 74
     1
 75
     0
 76
     0
 77
     0
 78
     7
170
     0
171
     2
172
     0
173
     0
174
     0
175
     0
176
   256
177
   256
178
     2
  0
DIMSTYLE
  2
AM_ANSI$7
 70
     0
  3

  4
mm
  5

  6

  7

 40
1.0
 41
0.1
 42
0.05
 43
0.5
 44
0.1
 45
0.0
 46
0.0
 47
0.1
 48
0.1
140
0.24
141
0.0
142
0.0
143
25.399999999999999
144
1.0
145
0.0
146
0.71
147
0.06
 71
     0
 72
     0
 73
     1
 74
     1
 75
     0
 76
     0
 77
     0
 78
     7
170
     0
171
     2
172
     0
173
     0
174
     0
175
     0
176
   256
177
   256
178
     2
  0
DIMSTYLE
  2
AM_ANSI$SF
 70
     0
  3

  4
mm
  5

  6

  7

 40
1.0
 41
0.1
 42
0.05
 43
0.5
 44
0.1
 45
0.0
 46
0.0
 47
0.1
 48
0.1
140
0.12
141
0.0
142
0.0
143
25.399999999999999
144
1.0
145
0.0
146
0.71
147
0.06
 71
     0
 72
     0
 73
     1
 74
     1
 75
     1
 76
     1
 77
     0
 78
     7
170
     0
171
     2
172
     0
173
     0
174
     0
175
     0
176
   256
177
   256
178
     2
  0
DIMSTYLE
  2
AM_ANSI$SH
 70
     0
  3

  4
mm
  5

  6

  7

 40
1.0
 41
0.1
 42
0.05
 43
0.5
 44
0.1
 45
0.0
 46
0.0
 47
0.1
 48
0.1
140
0.12
141
0.0
142
0.0
143
25.399999999999999
144
1.0
145
0.0
146
0.71
147
0.06
 71
     0
 72
     0
 73
     1
 74
     1
 75
     1
 76
     1
 77
     0
 78
     7
170
     0
171
     2
172
     0
173
     1
174
     0
175
     0
176
   256
177
   256
178
     2
  0
ENDTAB
  0
ENDSEC
  0
SECTION
  2
BLOCKS
  0
BLOCK
  8
0
  2
$MODEL_SPACE
 70
     0
 10
0.0
 20
0.0
 30
0.0
  3
$MODEL_SPACE
  1

  0
ENDBLK
  5
1047
  8
0
  0
BLOCK
 67
     1
  8
0
  2
$PAPER_SPACE
 70
     0
 10
0.0
 20
0.0
 30
0.0
  3
$PAPER_SPACE
  1

  0
ENDBLK
  5
1043
 67
     1
  8
0
  0
BLOCK
  8
0
  2
_OPEN
 70
     0
 10
0.0
 20
0.0
 30
0.0
  3
_OPEN
  1

  0
LINE
  5
DB7
  8
0
  6
BYBLOCK
 62
     0
 10
-1.0
 20
0.1666666666666666
 30
0.0
 11
0.0
 21
0.0
 31
0.0
  0
LINE
  5
DB8
  8
0
  6
BYBLOCK
 62
     0
 10
-1.0
 20
-0.1666666666666666
 30
0.0
 11
0.0
 21
0.0
 31
0.0
  0
LINE
  5
DB9
  8
0
  6
BYBLOCK
 62
     0
 10
0.0
 20
0.0
 30
0.0
 11
-1.0
 21
0.0
 31
0.0
  0
ENDBLK
  5
DBA
  8
0
  0
BLOCK
  8
0
  2
矢印なし
 70
     0
 10
0.0
 20
0.0
 30
0.0
  3
矢印なし
  1

  0
ENDBLK
  5
6E5
  8
0
  0
ENDSEC
  0
SECTION
  2
ENTITIES
  0
INSERT
  5
6E6
  8
245
  2
矢印なし
 10
175.62382697000001
 20
90.551235719999994
 30
0.0
  0
TEXT
  5
8A3
  8
241
 10
-48.399999999999991
 20
49.0
 30
0.0
 40
5.0
  1
BBT30-FCM20092L-85
  7
YOKO
 11
-48.399999999999991
 21
49.0
 31
0.0
 73
     1
  0
LINE
  5
B4E
  8
250
 10
-27.508737409999998
 20
-21.238842340000001
 30
0.0
 11
-45.242070740000003
 21
-21.238842340000001
 31
0.0
1001
ITEMNAME
1000
LNSP2
  0
LINE
  5
E1F
  8
245
  6
CENTER2
 10
-49.399999999999999
 20
0.0
 30
0.0
 11
86.0
 21
0.0
 31
0.0
1001
GRPNAME
1000
PASTMD0D
  0
LINE
  5
E20
  8
240
  6
CONTINUOUS
 10
-47.544310230000001
 20
-8.9412910399999976
 30
0.0
 11
0.0
 21
-15.875
 31
0.0
  0
LINE
  5
E21
  8
240
  6
CONTINUOUS
 10
-47.544310230000001
 20
8.9412910399999976
 30
0.0
 11
0.0
 21
15.875
 31
0.0
  0
LINE
  5
E22
  8
240
  6
CONTINUOUS
 10
-48.399999999999991
 20
-7.9517585400000002
 30
0.0
 11
-48.399999999999991
 21
0.0
 31
0.0
  0
ARC
  5
E23
  8
240
  6
CONTINUOUS
 10
-47.399999999999999
 20
-7.9517585400000002
 30
0.0
 40
1.0
 50
180.0
 51
261.70266184000002
  0
LINE
  5
E24
  8
240
  6
CONTINUOUS
 10
-48.399999999999991
 20
7.9517585400000002
 30
0.0
 11
-48.399999999999991
 21
0.0
 31
0.0
  0
ARC
  5
E25
  8
240
  6
CONTINUOUS
 10
-47.399999999999999
 20
7.9517585400000002
 30
0.0
 40
1.0
 50
98.297338159999995
 51
180.0
  0
LINE
  5
E26
  8
240
 10
29.666793720000001
 20
-11.89435748
 30
0.0
 11
23.017607569999999
 21
-17.748307239999999
 31
0.0
  0
LINE
  5
E27
  8
241
  6
CONTINUOUS
 10
9.5999999999999996
 20
-23.0
 30
0.0
 11
9.5999999999999996
 21
0.0
 31
0.0
  0
LINE
  5
E28
  8
241
  6
CONTINUOUS
 10
11.90940108
 20
-19.0
 30
0.0
 11
11.90940108
 21
0.04377196
 31
0.0
  0
LINE
  5
E29
  8
241
  6
CONTINUOUS
 10
17.600000000000001
 20
0.0
 30
0.0
 11
17.600000000000001
 21
-23.0
 31
0.0
  0
LINE
  5
E2A
  8
241
  6
CONTINUOUS
 10
15.290598920000001
 20
-19.0
 30
0.0
 11
15.290598920000001
 21
0.04377196
 31
0.0
  0
LINE
  5
E2B
  8
245
  6
CENTER2
 10
13.6
 20
-23.0
 30
0.0
 11
13.6
 21
23.0
 31
0.0
  0
LINE
  5
E2C
  8
241
 10
1.0
 20
0.0
 30
0.0
 11
1.0
 21
-15.875
 31
0.0
  0
LINE
  5
E2D
  8
241
 10
0.0
 20
-15.875
 30
0.0
 11
0.0
 21
0.0
 31
0.0
  0
LINE
  5
E2E
  8
241
  6
CONTINUOUS
 10
22.0
 20
-20.0
 30
0.0
 11
22.0
 21
0.0
 31
0.0
  0
LINE
  5
E2F
  8
240
  6
CONTINUOUS
 10
9.5999999999999996
 20
-23.0
 30
0.0
 11
1.0
 21
-23.0
 31
0.0
  0
LINE
  5
E30
  8
243
  6
HIDDEN2
 10
19.0
 20
-16.300000000000001
 30
0.0
 11
1.0
 21
-16.300000000000001
 31
0.0
  0
LINE
  5
E31
  8
240
  6
CONTINUOUS
 10
1.0
 20
-15.875
 30
0.0
 11
1.0
 21
-23.0
 31
0.0
  0
LINE
  5
E32
  8
240
 10
0.0
 20
-15.875
 30
0.0
 11
1.0
 21
-15.875
 31
0.0
  0
LINE
  5
E33
  8
240
  6
CONTINUOUS
 10
17.600000000000001
 20
-23.0
 30
0.0
 11
22.0
 21
-23.0
 31
0.0
  0
LINE
  5
E34
  8
240
  6
CONTINUOUS
 10
11.90940108
 20
-19.0
 30
0.0
 11
9.5999999999999996
 21
-23.0
 31
0.0
  0
LINE
  5
E35
  8
243
  6
HIDDEN2
 10
19.0
 20
-16.300000000000001
 30
0.0
 11
19.0
 21
-23.0
 31
0.0
  0
LINE
  5
E36
  8
240
  6
CONTINUOUS
 10
15.290598920000001
 20
-19.0
 30
0.0
 11
17.600000000000001
 21
-23.0
 31
0.0
  0
LINE
  5
E37
  8
240
  6
CONTINUOUS
 10
11.90940108
 20
-19.0
 30
0.0
 11
15.290598920000001
 21
-19.0
 31
0.0
  0
ARC
  5
E38
  8
240
  6
CONTINUOUS
 10
25.0
 20
-20.0
 30
0.0
 40
2.9999999999999809
 50
131.36073881999999
 51
180.0
  0
LINE
  5
E39
  8
240
  6
CONTINUOUS
 10
22.0
 20
-23.0
 30
0.0
 11
22.0
 21
-20.0
 31
0.0
  0
LINE
  5
E3A
  8
241
  6
HIDDEN2
 10
19.0
 20
16.300000000000001
 30
0.0
 11
1.0
 21
16.300000000000001
 31
0.0
  0
LINE
  5
E3B
  8
240
  6
CONTINUOUS
 10
9.5999999999999996
 20
23.0
 30
0.0
 11
1.0
 21
23.0
 31
0.0
  0
LINE
  5
E3C
  8
241
 10
1.0
 20
0.0
 30
0.0
 11
1.0
 21
15.875
 31
0.0
  0
LINE
  5
E3D
  8
241
 10
0.0
 20
15.875
 30
0.0
 11
0.0
 21
0.0
 31
0.0
  0
LINE
  5
E3E
  8
240
  6
CONTINUOUS
 10
1.0
 20
15.875
 30
0.0
 11
1.0
 21
23.0
 31
0.0
  0
LINE
  5
E3F
  8
240
 10
0.0
 20
15.875
 30
0.0
 11
1.0
 21
15.875
 31
0.0
  0
LINE
  5
E40
  8
240
 10
29.666793720000001
 20
11.89435748
 30
0.0
 11
23.017607569999999
 21
17.748307239999999
 31
0.0
  0
LINE
  5
E41
  8
241
  6
CONTINUOUS
 10
22.0
 20
0.0
 30
0.0
 11
22.0
 21
20.0
 31
0.0
  0
LINE
  5
E42
  8
241
  6
CONTINUOUS
 10
9.5999999999999996
 20
23.0
 30
0.0
 11
9.5999999999999996
 21
0.0
 31
0.0
  0
LINE
  5
E43
  8
241
  6
CONTINUOUS
 10
17.600000000000001
 20
0.0
 30
0.0
 11
17.600000000000001
 21
23.0
 31
0.0
  0
LINE
  5
E44
  8
241
  6
CONTINUOUS
 10
15.290598920000001
 20
19.0
 30
0.0
 11
15.290598920000001
 21
-0.04377196
 31
0.0
  0
LINE
  5
E45
  8
241
  6
CONTINUOUS
 10
11.90940108
 20
19.0
 30
0.0
 11
11.90940108
 21
-0.04377196
 31
0.0
  0
LINE
  5
E46
  8
241
  6
CONTINUOUS
 10
32.5
 20
0.0
 30
0.0
 11
32.5
 21
-9.4000000000000004
 31
0.0
1001
GRPNAME
1000
PASTMD0A
  0
ARC
  5
E47
  8
240
 10
36.274768479999999
 20
-19.399999999999999
 30
0.0
 40
10.0
 50
90.0
 51
131.36072121999999
1001
GRPNAME
1000
PASTMD03
  0
ARC
  5
E48
  8
240
 10
36.274768479999999
 20
19.399999999999999
 30
0.0
 40
10.0
 50
228.63927878000001
 51
270.0
1001
GRPNAME
1000
PASTMD03
  0
LINE
  5
E49
  8
241
  6
CONTINUOUS
 10
32.5
 20
0.0
 30
0.0
 11
32.5
 21
9.4000000000000004
 31
0.0
1001
GRPNAME
1000
PASTMD0A
  0
LINE
  5
E4A
  8
240
  6
CONTINUOUS
 10
17.600000000000001
 20
23.0
 30
0.0
 11
22.0
 21
23.0
 31
0.0
  0
LINE
  5
E4B
  8
240
  6
CONTINUOUS
 10
11.90940108
 20
19.0
 30
0.0
 11
9.5999999999999996
 21
23.0
 31
0.0
  0
LINE
  5
E4C
  8
241
  6
HIDDEN2
 10
19.0
 20
16.300000000000001
 30
0.0
 11
19.0
 21
23.0
 31
0.0
  0
LINE
  5
E4D
  8
240
  6
CONTINUOUS
 10
15.290598920000001
 20
19.0
 30
0.0
 11
17.600000000000001
 21
23.0
 31
0.0
  0
LINE
  5
E4E
  8
240
  6
CONTINUOUS
 10
11.90940108
 20
19.0
 30
0.0
 11
15.290598920000001
 21
19.0
 31
0.0
  0
ARC
  5
E4F
  8
240
  6
CONTINUOUS
 10
25.0
 20
20.0
 30
0.0
 40
2.9999999999999809
 50
180.0
 51
228.63926118000001
  0
LINE
  5
E50
  8
240
  6
CONTINUOUS
 10
22.0
 20
23.0
 30
0.0
 11
22.0
 21
20.0
 31
0.0
  0
LINE
  5
EB4
  8
240
  6
CONTINUOUS
 10
74.191052724201569
 20
-9.4000000000005421
 30
0.0
 11
36.274768480000333
 21
-9.3999999999992987
 31
0.0
1001
GRPNAME
1000
PASTMD0B
  0
LINE
  5
EB5
  8
240
  6
CONTINUOUS
 10
74.191052724201569
 20
9.4000000000000004
 30
0.0
 11
36.274768479999999
 21
9.4000000000000004
 31
0.0
1001
GRPNAME
1000
PASTMD0B
  0
LINE
  5
EBF
  8
241
 10
83.728860731028945
 20
3.3781471407245141
 30
0.0
 11
68.042278537942039
 21
7.0660703320547871
 31
0.0
  0
ARC
  5
EC2
  8
241
 10
68.499999999999929
 20
9.0129886824669345
 30
0.0
 40
2.0
 50
168.84255845510251
 51
256.7699924943239
  0
ARC
  5
EC3
  8
241
 10
83.499999999999972
 20
2.4046879655184421
 30
0.0
 40
1.0
 50
0.0
 51
76.769992494323944
  0
LINE
  5
EC5
  8
245
  6
CONTINUOUS
 10
79.42099999999985
 20
9.0893574943768645
 30
0.0
 11
79.42099999999985
 21
4.040558934013041
 31
0.0
  0
LINE
  5
EC6
  8
245
  6
CONTINUOUS
 10
76.755928329450001
 20
6.6150000000000011
 30
0.0
 11
82.259098197501814
 21
6.6150000000000011
 31
0.0
  0
CIRCLE
  5
EC7
  8
241
 10
79.420999999999808
 20
6.6150000000000011
 30
0.0
 40
2.0
  0
LINE
  5
EC8
  8
240
 10
74.191052724201569
 20
10.0
 30
0.0
 11
84.999999999999915
 21
10.0
 31
0.0
1001
GRPNAME
1000
PASTMD03
  0
LINE
  5
EC9
  8
240
 10
84.500000000002672
 20
3.5000000000000102
 30
0.0
 11
84.650947275798117
 21
3.5000000000000111
 31
0.0
1001
GRPNAME
1000
PASTMD03
  0
LINE
  5
ECA
  8
240
 10
84.650947275798117
 20
3.499999999999996
 30
0.0
 11
84.650947275798146
 21
7.7940151619277049
 31
0.0
1001
GRPNAME
1000
PASTMD03
  0
LINE
  5
ECB
  8
240
 10
84.650947275798146
 20
7.7940151619277049
 30
0.0
 11
85.0
 21
8.2100000000000097
 31
0.0
1001
GRPNAME
1000
PASTMD03
  0
LINE
  5
ECC
  8
240
 10
85.0
 20
8.2100000000000097
 30
0.0
 11
85.0
 21
10.0
 31
0.0
1001
GRPNAME
1000
PASTMD03
  0
LINE
  5
ECD
  8
241
 10
74.191052724201569
 20
9.3750000000000249
 30
0.0
 11
74.191052724201541
 21
5.6204904956929251
 31
0.0
1001
GRPNAME
1000
PASTMD03
  0
LINE
  5
ECE
  8
241
 10
74.191052724201569
 20
10.0
 30
0.0
 11
79.173781838609557
 21
8.5996619814665713
 31
0.0
  0
LINE
  5
ECF
  8
241
 10
80.665899208771464
 20
8.1803197628599005
 30
0.0
 11
84.650947275798146
 21
7.0603683896647453
 31
0.0
  0
LINE
  5
ED0
  8
241
 10
74.191052724201541
 20
6.4396316103352591
 30
0.0
 11
77.816765136290684
 21
5.420667340285787
 31
0.0
  0
LINE
  5
ED1
  8
241
 10
80.168205500651169
 20
4.7598223966971931
 30
0.0
 11
84.650947275798117
 21
3.499999999999996
 31
0.0
  0
LINE
  5
ED2
  8
240
 10
74.191052724201569
 20
9.4000000000000004
 30
0.0
 11
74.191052724201569
 21
10.0
 31
0.0
  0
LINE
  5
ED3
  8
241
 10
84.500000000002672
 20
3.5000000000000102
 30
0.0
 11
83.210559564404534
 21
3.5000000000000142
 31
0.0
  0
LINE
  5
EDA
  8
250
 10
85.5
 20
10.0
 30
0.0
 11
99.0
 21
10.0
 31
0.0
  0
LINE
  5
EDB
  8
250
 10
98.0
 20
-10.0
 30
0.0
 11
98.0
 21
7.7699999999999978
 31
0.0
  0
LINE
  5
EDF
  8
250
 10
0.0
 20
16.375
 30
0.0
 11
0.0
 21
36.0
 31
0.0
  0
LINE
  5
EE0
  8
250
 10
85.0
 20
10.5
 30
0.0
 11
85.0
 21
36.0
 31
0.0
  0
LINE
  5
EE1
  8
250
 10
2.2299999999999991
 20
35.0
 30
0.0
 11
82.769999999999996
 21
35.0
 31
0.0
  0
LINE
  5
EE5
  8
250
 10
35.0
 20
9.9815845400000001
 30
0.0
 11
35.0
 21
29.0
 31
0.0
  0
LINE
  5
EE6
  8
250
 10
85.0
 20
10.5
 30
0.0
 11
85.0
 21
29.0
 31
0.0
  0
LINE
  5
EE7
  8
250
 10
37.229999999999997
 20
28.0
 30
0.0
 11
82.769999999999996
 21
28.0
 31
0.0
  0
LINE
  5
EEB
  8
250
 10
76.0
 20
10.5
 30
0.0
 11
76.0
 21
22.0
 31
0.0
  0
LINE
  5
EEC
  8
250
 10
85.0
 20
10.5
 30
0.0
 11
85.0
 21
22.0
 31
0.0
  0
LINE
  5
EED
  8
250
 10
78.230000000000004
 20
21.0
 30
0.0
 11
82.769999999999996
 21
21.0
 31
0.0
  0
TEXT
  5
EF1
  8
250
 10
39.833333333333343
 20
36.0
 30
0.0
 40
2.799999999999998
  1
85
1001
ACAD
1000
MTEXTBEGIN
1070
    73
1070
     1
1070
    44
1040
1.0
1070
    74
1070
     0
1000
MTEXTEND
1000
MTEXTBEGIN
1070
    73
1070
     1
1070
    44
1040
1.0
1070
    74
1070
     0
1000
MTEXTEND
1000
MTEXTBEGIN
1070
    73
1070
     1
1070
    44
1040
1.0
1070
    74
1070
     0
1000
MTEXTEND
  0
LINE
  5
EF2
  8
250
 10
82.769999999999996
 20
35.37166666666667
 30
0.0
 11
85.0
 21
35.0
 31
0.0
  0
LINE
  5
EF3
  8
250
 10
82.769999999999996
 20
34.62833333333333
 30
0.0
 11
85.0
 21
35.0
 31
0.0
  0
LINE
  5
EF4
  8
250
 10
85.0
 20
35.0
 30
0.0
 11
82.769999999999996
 21
35.0
 31
0.0
  0
TEXT
  5
EF5
  8
250
 10
57.333333333333343
 20
29.0
 30
0.0
 40
2.799999999999998
  1
50
1001
ACAD
1000
MTEXTBEGIN
1070
    73
1070
     1
1070
    44
1040
1.0
1070
    74
1070
     0
1000
MTEXTEND
1000
MTEXTBEGIN
1070
    73
1070
     1
1070
    44
1040
1.0
1070
    74
1070
     0
1000
MTEXTEND
  0
LINE
  5
EF6
  8
250
 10
82.769999999999996
 20
28.371666666666659
 30
0.0
 11
85.0
 21
28.0
 31
0.0
  0
LINE
  5
EF7
  8
250
 10
82.769999999999996
 20
27.62833333333333
 30
0.0
 11
85.0
 21
28.0
 31
0.0
  0
LINE
  5
EF8
  8
250
 10
85.0
 20
28.0
 30
0.0
 11
82.769999999999996
 21
28.0
 31
0.0
  0
LINE
  5
EF9
  8
250
 10
37.229999999999997
 20
27.62833333333333
 30
0.0
 11
35.0
 21
28.0
 31
0.0
  0
LINE
  5
EFA
  8
250
 10
37.229999999999997
 20
28.371666666666659
 30
0.0
 11
35.0
 21
28.0
 31
0.0
  0
LINE
  5
EFB
  8
250
 10
35.0
 20
28.0
 30
0.0
 11
37.229999999999997
 21
28.0
 31
0.0
  0
TEXT
  5
EFC
  8
250
 10
79.233333333333334
 20
22.0
 30
0.0
 40
2.799999999999998
  1
9
1001
ACAD
1000
MTEXTBEGIN
1070
    73
1070
     1
1070
    44
1040
1.0
1070
    74
1070
     0
1000
MTEXTEND
1000
MTEXTBEGIN
1070
    73
1070
     1
1070
    44
1040
1.0
1070
    74
1070
     0
1000
MTEXTEND
1000
MTEXTBEGIN
1070
    73
1070
     1
1070
    44
1040
1.0
1070
    74
1070
     0
1000
MTEXTEND
  0
LINE
  5
EFD
  8
250
 10
82.769999999999996
 20
21.37166666666667
 30
0.0
 11
85.0
 21
21.0
 31
0.0
  0
LINE
  5
EFE
  8
250
 10
82.769999999999996
 20
20.62833333333333
 30
0.0
 11
85.0
 21
21.0
 31
0.0
  0
LINE
  5
EFF
  8
250
 10
85.0
 20
21.0
 30
0.0
 11
82.769999999999996
 21
21.0
 31
0.0
  0
LINE
  5
F00
  8
250
 10
78.230000000000004
 20
20.62833333333333
 30
0.0
 11
76.0
 21
21.0
 31
0.0
  0
LINE
  5
F01
  8
250
 10
78.230000000000004
 20
21.37166666666667
 30
0.0
 11
76.0
 21
21.0
 31
0.0
  0
LINE
  5
F02
  8
250
 10
76.0
 20
21.0
 30
0.0
 11
78.230000000000004
 21
21.0
 31
0.0
  0
LINE
  5
F03
  8
250
 10
2.2299999999999991
 20
34.62833333333333
 30
0.0
 11
0.0
 21
35.0
 31
0.0
  0
LINE
  5
F04
  8
250
 10
2.2299999999999991
 20
35.37166666666667
 30
0.0
 11
0.0
 21
35.0
 31
0.0
  0
LINE
  5
F05
  8
250
 10
0.0
 20
35.0
 30
0.0
 11
2.2299999999999991
 21
35.0
 31
0.0
  0
TEXT
  5
F06
  8
250
 10
97.0
 20
-3.7999999999999989
 30
0.0
 40
2.799999999999998
  1
\U+2205
 50
90.0
1001
ACAD
1000
MTEXTBEGIN
1070
    73
1070
     1
1070
    44
1040
1.0
1070
    74
1070
     0
1000
MTEXTEND
1000
MTEXTBEGIN
1070
    73
1070
     1
1070
    44
1040
1.0
1070
    74
1070
     0
1000
MTEXTEND
1000
MTEXTBEGIN
1070
    73
1070
     1
1070
    44
1040
1.0
1070
    74
1070
     0
1000
MTEXTEND
  0
TEXT
  5
F07
  8
250
 10
97.0
 20
-1.2666666666666671
 30
0.0
 40
2.799999999999998
  1
20
 50
90.0
1001
ACAD
1000
MTEXTBEGIN
1070
    73
1070
     1
1070
    44
1040
1.0
1070
    74
1070
     0
1000
MTEXTEND
1000
MTEXTBEGIN
1070
    73
1070
     1
1070
    44
1040
1.0
1070
    74
1070
     0
1000
MTEXTEND
1000
MTEXTBEGIN
1070
    73
1070
     1
1070
    44
1040
1.0
1070
    74
1070
     0
1000
MTEXTEND
  0
LINE
  5
F08
  8
250
 10
97.62833333333333
 20
7.7699999999999978
 30
0.0
 11
98.0
 21
10.0
 31
0.0
  0
LINE
  5
F09
  8
250
 10
98.371666666666684
 20
7.7699999999999978
 30
0.0
 11
98.0
 21
10.0
 31
0.0
  0
LINE
  5
F0A
  8
250
 10
98.0
 20
10.0
 30
0.0
 11
98.0
 21
7.7699999999999978
 31
0.0
  0
TEXT
  5
F10
  8
250
 10
-42.975404073333323
 20
-20.238842340000001
 30
0.0
 40
2.799999999999998
  1
BBT30
  7
YOKO
1001
ITEMNAME
1000
LNSP3
1001
ACAD
1000
MTEXTBEGIN
1070
    73
1070
     1
1070
    44
1040
1.0
1070
    74
1070
     0
1000
MTEXTEND
1000
MTEXTBEGIN
1070
    73
1070
     1
1070
    44
1040
1.0
1070
    74
1070
     0
1000
MTEXTEND
1000
MTEXTBEGIN
1070
    73
1070
     1
1070
    44
1040
1.0
1070
    74
1070
     0
1000
MTEXTEND
1000
MTEXTBEGIN
1070
    73
1070
     1
1070
    44
1040
1.0
1070
    74
1070
     0
1000
MTEXTEND
  0
LINE
  5
F11
  8
250
 10
-23.631091409633061
 20
-14.522562450651151
 30
0.0
 11
-27.508737409999998
 21
-21.238842340000001
 31
0.0
1001
ACAD
1000
DSTYLE
1002
{
1070
     6
1000
OPEN
1070
   343
1005
594
1002
}
  0
LINE
  5
F12
  8
250
 10
-23.952964184741589
 20
-14.336729117378971
 30
0.0
 11
-22.516091410000001
 21
-12.5913258
 31
0.0
  0
LINE
  5
F13
  8
250
 10
-23.309218634524541
 20
-14.708395783923329
 30
0.0
 11
-22.516091410000001
 21
-12.5913258
 31
0.0
  0
LINE
  5
F14
  8
250
 10
-22.516091410000001
 20
-12.5913258
 30
0.0
 11
-23.631091409633061
 21
-14.522562450651151
 31
0.0
  0
LINE
  5
116E
  8
240
  6
CONTINUOUS
 10
84.500000000002672
 20
3.5000000000000102
 30
0.0
 11
84.499999999997129
 21
-3.5000000000000102
 31
0.0
1001
GRPNAME
1000
PASTMD03
  0
LINE
  5
116F
  8
241
  6
CONTINUOUS
 10
74.450504516113241
 20
5.5594932517652538
 30
0.0
 11
74.450504516101617
 21
-9.3082035071942073
 31
0.0
1001
GRPNAME
1000
PASTMD03
  0
LINE
  5
1170
  8
241
 10
84.110522672827756
 20
-9.3602494033457333
 30
0.0
 11
75.094928716187965
 21
-9.5975018758817328
 31
0.0
1001
GRPNAME
1000
PASTMD03
  0
ARC
  5
1171
  8
241
 10
75.081775375144289
 20
-9.0976749162052784
 30
0.0
 40
0.5000000000000218
 50
249.99999999905381
 51
271.50743575783832
1001
GRPNAME
1000
PASTMD03
  0
LINE
  5
1172
  8
241
 10
74.450504516126045
 20
-9.4000000000005528
 30
0.0
 11
74.910765303481085
 21
-9.5675212265981031
 31
0.0
1001
GRPNAME
1000
PASTMD03
  0
ARC
  5
1173
  8
241
 10
84.099999999992775
 20
-8.9603878356045925
 30
0.0
 40
0.4000000000000154
 50
271.50743575358661
 51
359.9999999948086
1001
GRPNAME
1000
PASTMD03
  0
LINE
  5
117D
  8
240
 10
74.191052724201569
 20
-10.0
 30
0.0
 11
84.999999999999915
 21
-10.0
 31
0.0
1001
GRPNAME
1000
PASTMD03
  0
LINE
  5
117E
  8
240
 10
84.499999999997129
 20
-3.5000000000000102
 30
0.0
 11
84.650947275798117
 21
-3.5000000000000111
 31
0.0
1001
GRPNAME
1000
PASTMD03
  0
LINE
  5
117F
  8
240
 10
84.650947275798117
 20
-3.499999999999996
 30
0.0
 11
84.650947275798146
 21
-7.7940151619277049
 31
0.0
1001
GRPNAME
1000
PASTMD03
  0
LINE
  5
1180
  8
240
 10
84.650947275798146
 20
-7.7940151619277049
 30
0.0
 11
85.0
 21
-8.2100000000000097
 31
0.0
1001
GRPNAME
1000
PASTMD03
  0
LINE
  5
1181
  8
240
 10
85.0
 20
-8.2100000000000097
 30
0.0
 11
85.0
 21
-10.0
 31
0.0
1001
GRPNAME
1000
PASTMD03
  0
LINE
  5
1182
  8
240
 10
74.191052724201569
 20
-9.4000000000005421
 30
0.0
 11
74.191052724201569
 21
-10.0
 31
0.0
  0
LINE
  5
1184
  8
241
 10
74.191052724201569
 20
-9.4000000000005421
 30
0.0
 11
74.450504516126045
 21
-9.4000000000005528
 31
0.0
  0
LINE
  5
1186
  8
241
 10
84.499999999997129
 20
-3.5000000000000102
 30
0.0
 11
84.499999999992781
 21
-8.9603878356408355
 31
0.0
  0
LINE
  5
118C
  8
250
 10
85.5
 20
-10.0
 30
0.0
 11
99.0
 21
-10.0
 31
0.0
  0
LINE
  5
118D
  8
250
 10
97.62833333333333
 20
-7.7699999999999978
 30
0.0
 11
98.0
 21
-10.0
 31
0.0
  0
LINE
  5
118E
  8
250
 10
98.371666666666684
 20
-7.7699999999999978
 30
0.0
 11
98.0
 21
-10.0
 31
0.0
  0
VIEWPORT
  5
22
 67
     1
  8
0
 10
261.51769911999997
 20
148.5
 30
0.0
 40
523.03539823000006
 41
297.0
 68
     1
 69
     1
1001
ACAD
1000
MVIEW
1002
{
1070
    16
1010
0.0
1020
0.0
1030
0.0
1010
0.0
1020
0.0
1030
1.0
1040
0.0
1040
297.0
1040
261.51769911999997
1040
148.5
1040
50.0
1040
0.0
1040
0.0
1070
     0
1070
   100
1070
     1
1070
     1
1070
     0
1070
     0
1070
     0
1070
     0
1040
0.0
1040
0.0
1040
0.0
1040
1.0
1040
1.0
1040
10.0
1040
10.0
1070
     0
1002
{
1002
}
1002
}
1001
GENIUS_GENOBJ-N-SDF_13
1002
{
1000
OWNER
1000
GEN
1002
}
1001
GENIUS_GENODEF_13
1002
{
1000
HIER
1070
     0
1002
}
1002
{
1000
MANEDIT
1070
     0
1002
}
1002
{
1000
NOSEL
1070
     0
1002
}
1002
{
1000
BEHIND
1070
     0
1002
}
1002
{
1000
OTHER
1070
     0
1002
}
1002
{
1000
REACTOR
1002
}
1001
GENIUS_GENSCREG_15
1000
PF
1040
1.0
1000
DF
1040
1.0
1000
MIN
1011
0.0000000049999471
1021
-0.0
1031
-0.0
1021
0.0
1031
0.0
1000
MAX
1011
523.035398235
1021
-0.0
1031
-0.0
1021
297.0
1031
0.0
1000
FLAGS
1070
     2
  0
ENDSEC
  0
EOF
