  0
SECTION
  2
HEADER
  9
$ACADVER
  1
AC1009
  9
$INSBASE
 10
0.0
 20
0.0
 30
0.0
  9
$EXTMIN
 10
-49.400000000000013
 20
-23.0
 30
0.0
  9
$EXTMAX
 10
85.0
 20
61.0
 30
0.0
  9
$LIMMIN
 10
0.0
 20
0.0
  9
$LIMMAX
 10
297.0
 20
210.0
  9
$ORTHOMODE
 70
     0
  9
$REGENMODE
 70
     1
  9
$FILLMODE
 70
     1
  9
$QTEXTMODE
 70
     0
  9
$MIRRTEXT
 70
     1
  9
$DRAGMODE
 70
     2
  9
$LTSCALE
 40
10.0
  9
$OSMODE
 70
    37
  9
$ATTMODE
 70
     1
  9
$TEXTSIZE
 40
3.0
  9
$TRACEWID
 40
1.0
  9
$TEXTSTYLE
  7
YOKO
  9
$CLAYER
  8
240
  9
$CELTYPE
  6
BYLAYER
  9
$CECOLOR
 62
   256
  9
$DIMSCALE
 40
1.0
  9
$DIMASZ
 40
2.2299999999999991
  9
$DIMEXO
 40
0.5
  9
$DIMDLI
 40
7.0
  9
$DIMRND
 40
0.0
  9
$DIMDLE
 40
0.0
  9
$DIMEXE
 40
1.0
  9
$DIMTP
 40
0.0
  9
$DIMTM
 40
0.01
  9
$DIMTXT
 40
2.799999999999998
  9
$DIMCEN
 40
0.0
  9
$DIMTSZ
 40
0.0
  9
$DIMTOL
 70
     0
  9
$DIMLIM
 70
     0
  9
$DIMTIH
 70
     0
  9
$DIMTOH
 70
     0
  9
$DIMSE1
 70
     0
  9
$DIMSE2
 70
     0
  9
$DIMTAD
 70
     3
  9
$DIMZIN
 70
     9
  9
$DIMBLK
  1
OPEN
  9
$DIMASO
 70
     1
  9
$DIMSHO
 70
     1
  9
$DIMPOST
  1

  9
$DIMAPOST
  1

  9
$DIMALT
 70
     0
  9
$DIMALTD
 70
     2
  9
$DIMALTF
 40
25.399999999999999
  9
$DIMLFAC
 40
1.0
  9
$DIMTOFL
 70
     1
  9
$DIMTVP
 40
0.0
  9
$DIMTIX
 70
     1
  9
$DIMSOXD
 70
     0
  9
$DIMSAH
 70
     0
  9
$DIMBLK1
  1

  9
$DIMBLK2
  1

  9
$DIMSTYLE
  2
BIGT
  9
$DIMCLRD
 70
   256
  9
$DIMCLRE
 70
   256
  9
$DIMCLRT
 70
    40
  9
$DIMTFAC
 40
1.0
  9
$DIMGAP
 40
1.0
  9
$LUNITS
 70
     2
  9
$LUPREC
 70
     6
  9
$SKETCHINC
 40
1.0
  9
$FILLETRAD
 40
0.0
  9
$AUNITS
 70
     0
  9
$AUPREC
 70
     6
  9
$MENU
  1
.
  9
$ELEVATION
 40
0.0
  9
$PELEVATION
 40
0.0
  9
$THICKNESS
 40
0.0
  9
$LIMCHECK
 70
     0
  9
$BLIPMODE
 70
     0
  9
$CHAMFERA
 40
0.2
  9
$CHAMFERB
 40
0.2
  9
$SKPOLY
 70
     0
  9
$TDCREATE
 40
2458137.665071574
  9
$TDUPDATE
 40
2458142.6312709032
  9
$TDINDWG
 40
0.0129664931
  9
$TDUSRTIMER
 40
0.0129664468
  9
$USRTIMER
 70
     1
  9
$ANGBASE
 50
0.0
  9
$ANGDIR
 70
     0
  9
$PDMODE
 70
     1
  9
$PDSIZE
 40
0.0
  9
$PLINEWID
 40
0.0
  9
$COORDS
 70
     1
  9
$SPLFRAME
 70
     0
  9
$SPLINETYPE
 70
     6
  9
$SPLINESEGS
 70
     4
  9
$ATTDIA
 70
     1
  9
$ATTREQ
 70
     1
  9
$HANDLING
 70
     1
  9
$HANDSEED
  5
4750
  9
$SURFTAB1
 70
     6
  9
$SURFTAB2
 70
     6
  9
$SURFTYPE
 70
     6
  9
$SURFU
 70
     6
  9
$SURFV
 70
     6
  9
$UCSNAME
  2

  9
$UCSORG
 10
0.0
 20
0.0
 30
0.0
  9
$UCSXDIR
 10
1.0
 20
0.0
 30
0.0
  9
$UCSYDIR
 10
0.0
 20
1.0
 30
0.0
  9
$PUCSNAME
  2

  9
$PUCSORG
 10
0.0
 20
0.0
 30
0.0
  9
$PUCSXDIR
 10
1.0
 20
0.0
 30
0.0
  9
$PUCSYDIR
 10
0.0
 20
1.0
 30
0.0
  9
$USERI1
 70
     1
  9
$USERI2
 70
     0
  9
$USERI3
 70
     0
  9
$USERI4
 70
     0
  9
$USERI5
 70
     0
  9
$USERR1
 40
0.0
  9
$USERR2
 40
0.0
  9
$USERR3
 40
0.0
  9
$USERR4
 40
0.0
  9
$USERR5
 40
0.0
  9
$WORLDVIEW
 70
     1
  9
$SHADEDGE
 70
     3
  9
$SHADEDIF
 70
    70
  9
$TILEMODE
 70
     1
  9
$MAXACTVP
 70
    16
  9
$PLIMCHECK
 70
     0
  9
$PEXTMIN
 10
1.0000000000000000E+020
 20
1.0000000000000000E+020
 30
1.0000000000000000E+020
  9
$PEXTMAX
 10
-1.0000000000000000E+020
 20
-1.0000000000000000E+020
 30
-1.0000000000000000E+020
  9
$PLIMMIN
 10
0.0
 20
0.0
  9
$PLIMMAX
 10
420.0
 20
297.0
  9
$UNITMODE
 70
     0
  9
$VISRETAIN
 70
     1
  9
$PLINEGEN
 70
     0
  9
$PSLTSCALE
 70
     1
  0
ENDSEC
  0
SECTION
  2
TABLES
  0
TABLE
  2
VPORT
 70
     1
  0
VPORT
  2
*ACTIVE
 70
     0
 10
0.0
 20
0.0
 11
1.0
 21
1.0
 12
14.76800462093871
 22
9.3690664380058237
 13
0.0
 23
0.0
 14
7.0
 24
7.0
 15
7.0
 25
7.0
 16
0.0
 26
0.0
 36
1.0
 17
0.0
 27
0.0
 37
0.0
 40
114.8992540078375
 41
1.4533622559652919
 42
50.0
 43
0.0
 44
0.0
 50
0.0
 51
0.0
 71
     0
 72
  2000
 73
     1
 74
     0
 75
     0
 76
     1
 77
     0
 78
     0
  0
ENDTAB
  0
TABLE
  2
LTYPE
 70
    20
  0
LTYPE
  2
CONTINUOUS
 70
     0
  3
Solid line
 72
    65
 73
     0
 40
0.0
  0
LTYPE
  2
CENTER2
 70
     0
  3
___ _ ___ _ ___ _ ___ _ ___ _ ___ _ ___ _ ___ _
 72
    65
 73
     4
 40
1.125
 49
0.75
 49
-0.125
 49
0.125
 49
-0.125
  0
LTYPE
  2
HIDDEN2
 70
     0
  3
_ _ _ _ _ _ _ _ _ _ _ _ _ _ _ _ _ _ _ _ _ _ _ _
 72
    65
 73
     2
 40
0.1875
 49
0.125
 49
-0.0625
  0
LTYPE
  2
AMCONSTR
 70
     0
  3
_______________________
 72
    65
 73
     2
 40
9999.0
 49
9999.0
 49
0.0
  0
LTYPE
  2
HIDDEN
 70
     0
  3
Hidden __ __ __ __ __ __ __ __ __ __ __ __ __ _
 72
    65
 73
     2
 40
0.375
 49
0.25
 49
-0.125
  0
LTYPE
  2
PHANTOM2
 70
     0
  3
Phantom (.5x) ___ _ _ ___ _ _ ___ _ _ ___ _ _
 72
    65
 73
     6
 40
1.25
 49
0.625
 49
-0.125
 49
0.125
 49
-0.125
 49
0.125
 49
-0.125
  0
LTYPE
  2
CENTER
 70
     0
  3
Center ____ _ ____ _ ____ _ ____ _ ____ _ ____
 72
    65
 73
     4
 40
2.0
 49
1.25
 49
-0.25
 49
0.25
 49
-0.25
  0
LTYPE
  2
AMZIGZAG2
 70
     0
  3
/\/-/\/-/\/-/\/-/\/-/\/
 72
    65
 73
     2
 40
0.4401
 49
0.0001
 49
-0.4400000000000001
  0
LTYPE
  2
ACANSTGB
 70
     0
  3
__ . . __ . .
 72
    65
 73
     6
 40
0.35433070866
 49
0.15748031496
 49
-0.03937007874
 49
0.03937007874
 49
-0.03937007874
 49
0.03937007874
 49
-0.03937007874
  0
LTYPE
  2
ACANSTGL
 70
     0
  3
_ _ _ _ _
 72
    65
 73
     2
 40
0.11811023622
 49
0.07874015748
 49
-0.03937007874
  0
ENDTAB
  0
TABLE
  2
LAYER
 70
    10
  0
LAYER
  2
0
 70
     0
 62
     7
  6
CONTINUOUS
  0
LAYER
  2
240
 70
     0
 62
     4
  6
CONTINUOUS
  0
LAYER
  2
DEFPOINTS
 70
     0
 62
     7
  6
CONTINUOUS
  0
LAYER
  2
245
 70
     0
 62
     2
  6
CENTER2
  0
LAYER
  2
241
 70
     0
 62
   211
  6
CONTINUOUS
  0
LAYER
  2
242
 70
     0
 62
     3
  6
CONTINUOUS
  0
LAYER
  2
243
 70
     0
 62
   211
  6
HIDDEN2
  0
LAYER
  2
247
 70
     0
 62
    60
  6
CONTINUOUS
  0
LAYER
  2
250
 70
     0
 62
     3
  6
CONTINUOUS
  0
ENDTAB
  0
TABLE
  2
STYLE
 70
     7
  0
STYLE
  2
STANDARD
 70
     0
 40
0.0
 41
1.0
 50
0.0
 71
     0
 42
3.0
  3
romans.shx
  4
extfont.shx
  0
STYLE
  2
YOKO
 70
     0
 40
0.0
 41
1.0
 50
0.0
 71
     0
 42
3.0
  3
romans.shx
  4
extfont.shx
  0
STYLE
  2

 70
     1
 40
0.0
 41
1.0
 50
0.0
 71
     0
 42
3.0
  3
genltshp.shx
  4

  0
STYLE
  2
ACANSGDT
 70
     0
 40
0.0
 41
1.0
 50
0.0
 71
     0
 42
3.0
  3
amgdt.shx
  4

  0
ENDTAB
  0
TABLE
  2
VIEW
 70
     0
  0
ENDTAB
  0
TABLE
  2
UCS
 70
     0
  0
ENDTAB
  0
TABLE
  2
APPID
 70
    40
  0
APPID
  2
ACAD
 70
     0
  0
APPID
  2
ACADANNOTATIVE
 70
     0
  0
APPID
  2
GLOBAL
 70
     0
  0
APPID
  2
DETAIL
 70
     0
  0
APPID
  2
GRPNAME
 70
     0
  0
APPID
  2
GPARA
 70
     0
  0
APPID
  2
MCAD_NO_VIS
 70
     0
  0
APPID
  2
ACAD_TEMP_GRAPHIC
 70
     0
  0
APPID
  2
ACATTRIBSERVICES
 70
     0
  0
APPID
  2
GENIUS_GENSCREG_15
 70
     0
  0
APPID
  2
GENIUS_GENODEF_13
 70
     0
  0
APPID
  2
GENIUS_GENOBJ-N-SDF_13
 70
     0
  0
APPID
  2
GENIUS_GENREC_14
 70
     0
  0
APPID
  2
GENIUS_GENOBJ-N-REC_13
 70
     0
  0
APPID
  2
GENIUS_GENDIMSH_14
 70
     0
  0
APPID
  2
GENIUS_GENOBJ-N-DIM_13
 70
     0
  0
APPID
  2
GENIUS_GENDIM_13
 70
     0
  0
APPID
  2
GENIUS_GENDTOL_13
 70
     0
  0
APPID
  2
GENIUS_GENOLIS_13
 70
     0
  0
APPID
  2
GENIUS_GENOENT_13
 70
     0
  0
APPID
  2
GENIUS_GENOBJ-F-FEM_13
 70
     0
  0
APPID
  2
GENIUS_GENOREF_13
 70
     0
  0
APPID
  2
GENIUS_GEFFEM_13
 70
     0
  0
APPID
  2
GENIUS_GEFFEMP_13
 70
     0
  0
APPID
  2
AD_DRAW
 70
     0
  0
APPID
  2
DESIGNERASSEMBLIES
 70
     0
  0
APPID
  2
ACADM_DIM_EDIT
 70
     0
  0
APPID
  2
AMDT_DM_ADJ
 70
     0
  0
APPID
  2
ITEMNAME
 70
     0
  0
APPID
  2
GENIUS_GENOBJ-N-FIL_13
 70
     0
  0
APPID
  2
GENIUS_GENFIL_13
 70
     0
  0
APPID
  2
GENIUS_GENOBJ-N-CHA_13
 70
     0
  0
APPID
  2
ACAECLAYERSTANDARD
 70
     0
  0
APPID
  2
ACAD_NAV_VCDISPLAY
 70
     0
  0
APPID
  2
ACAD_DSTYLE_DIMJAG
 70
     0
  0
APPID
  2
ACAD_DSTYLE_DIMBREAK
 70
     0
  0
APPID
  2
ACAD_EXEMPT_FROM_CAD_STANDARDS
 70
     0
  0
APPID
  2
ACAD_DSTYLE_DIMINSPECT
 70
     0
  0
APPID
  2
ACAD_MLEADERVER
 70
     0
  0
APPID
  2
ACAD_DSTYLE_DIMRADIAL_EXTENSION
 70
     0
  0
ENDTAB
  0
TABLE
  2
DIMSTYLE
 70
    17
  0
DIMSTYLE
  2
STANDARD
 70
     0
  3

  4

  5

  6

  7

 40
1.0
 41
0.18
 42
0.0625
 43
0.38
 44
0.18
 45
0.0
 46
0.0
 47
0.0
 48
0.0
140
0.18
141
0.09
142
0.0
143
25.399999999999999
144
1.0
145
0.0
146
1.0
147
0.09
 71
     0
 72
     0
 73
     1
 74
     1
 75
     0
 76
     0
 77
     0
 78
     0
170
     0
171
     2
172
     0
173
     0
174
     0
175
     0
176
     0
177
     0
178
     0
  0
DIMSTYLE
  2
BIGT
 70
     0
  3

  4

  5

  6

  7

 40
1.0
 41
2.2299999999999991
 42
0.5
 43
7.0
 44
1.0
 45
0.0
 46
0.0
 47
0.0
 48
0.01
140
2.799999999999998
141
0.0
142
0.0
143
25.399999999999999
144
1.0
145
0.0
146
1.0
147
1.0
 71
     0
 72
     0
 73
     0
 74
     0
 75
     0
 76
     0
 77
     3
 78
     9
170
     0
171
     2
172
     1
173
     0
174
     1
175
     0
176
   256
177
   256
178
    40
  0
DIMSTYLE
  2
AM_ANSI
 70
     0
  3

  4
mm
  5

  6

  7

 40
1.0
 41
0.12
 42
0.05
 43
0.5
 44
0.1
 45
0.0
 46
0.0
 47
0.1
 48
0.1
140
0.12
141
0.0
142
0.0
143
25.399999999999999
144
1.0
145
0.0
146
0.71
147
0.06
 71
     0
 72
     0
 73
     1
 74
     1
 75
     0
 76
     0
 77
     0
 78
     7
170
     0
171
     2
172
     0
173
     0
174
     0
175
     0
176
   256
177
   256
178
     2
  0
DIMSTYLE
  2
AM_ANSI$3
 70
     0
  3

  4
mm
  5

  6

  7

 40
1.0
 41
0.12
 42
0.05
 43
0.5
 44
0.1
 45
0.0
 46
0.0
 47
0.1
 48
0.1
140
0.12
141
0.0
142
0.0
143
25.399999999999999
144
1.0
145
0.0
146
0.71
147
0.06
 71
     0
 72
     0
 73
     1
 74
     1
 75
     0
 76
     0
 77
     0
 78
     7
170
     0
171
     2
172
     0
173
     0
174
     0
175
     0
176
   256
177
   256
178
     2
  0
DIMSTYLE
  2
AM_ANSI$4
 70
     0
  3

  4
mm
  5

  6

  7

 40
1.0
 41
0.12
 42
0.05
 43
0.5
 44
0.1
 45
0.0
 46
0.0
 47
0.1
 48
0.1
140
0.12
141
0.0
142
0.0
143
25.399999999999999
144
1.0
145
0.0
146
0.71
147
0.06
 71
     0
 72
     0
 73
     1
 74
     1
 75
     0
 76
     0
 77
     0
 78
     7
170
     0
171
     2
172
     0
173
     0
174
     0
175
     0
176
   256
177
   256
178
     2
  0
DIMSTYLE
  2
AM_ANSI$7
 70
     0
  3

  4
mm
  5

  6

  7

 40
1.0
 41
0.12
 42
0.05
 43
0.5
 44
0.1
 45
0.0
 46
0.0
 47
0.1
 48
0.1
140
0.12
141
0.0
142
0.0
143
25.399999999999999
144
1.0
145
0.0
146
0.71
147
0.06
 71
     0
 72
     0
 73
     1
 74
     1
 75
     0
 76
     0
 77
     0
 78
     7
170
     0
171
     2
172
     0
173
     0
174
     0
175
     0
176
   256
177
   256
178
     2
  0
DIMSTYLE
  2
AM_ANSI$SF
 70
     0
  3

  4
mm
  5

  6

  7

 40
1.0
 41
0.12
 42
0.05
 43
0.5
 44
0.1
 45
0.0
 46
0.0
 47
0.1
 48
0.1
140
0.12
141
0.0
142
0.0
143
25.399999999999999
144
1.0
145
0.0
146
0.71
147
0.06
 71
     0
 72
     0
 73
     1
 74
     1
 75
     1
 76
     1
 77
     0
 78
     7
170
     0
171
     2
172
     0
173
     0
174
     0
175
     0
176
   256
177
   256
178
     2
  0
DIMSTYLE
  2
AM_ANSI$SH
 70
     0
  3

  4
mm
  5

  6
GENAXEH
  7

 40
1.0
 41
0.12
 42
0.05
 43
0.5
 44
0.1
 45
0.0
 46
0.0
 47
0.1
 48
0.1
140
0.12
141
0.0
142
0.0
143
25.399999999999999
144
1.0
145
0.0
146
0.71
147
0.06
 71
     0
 72
     0
 73
     1
 74
     1
 75
     1
 76
     1
 77
     0
 78
     7
170
     0
171
     2
172
     0
173
     1
174
     0
175
     0
176
   256
177
   256
178
     2
  0
ENDTAB
  0
ENDSEC
  0
SECTION
  2
BLOCKS
  0
BLOCK
  8
0
  2
$MODEL_SPACE
 70
     0
 10
0.0
 20
0.0
 30
0.0
  3
$MODEL_SPACE
  1

  0
ENDBLK
  5
45B2
  8
0
  0
BLOCK
 67
     1
  8
0
  2
$PAPER_SPACE
 70
     0
 10
0.0
 20
0.0
 30
0.0
  3
$PAPER_SPACE
  1

  0
ENDBLK
  5
45AE
 67
     1
  8
0
  0
BLOCK
  8
0
  2
_OPEN
 70
     0
 10
0.0
 20
0.0
 30
0.0
  3
_OPEN
  1

  0
LINE
  5
3E1A
  8
0
  6
BYBLOCK
 62
     0
 10
-1.0
 20
0.1666666666666666
 30
0.0
 11
0.0
 21
0.0
 31
0.0
  0
LINE
  5
3E1B
  8
0
  6
BYBLOCK
 62
     0
 10
-1.0
 20
-0.1666666666666666
 30
0.0
 11
0.0
 21
0.0
 31
0.0
  0
LINE
  5
3E1C
  8
0
  6
BYBLOCK
 62
     0
 10
0.0
 20
0.0
 30
0.0
 11
-1.0
 21
0.0
 31
0.0
  0
ENDBLK
  5
3E1D
  8
0
  0
BLOCK
  8
0
  2
GENAXEH
 70
     0
 10
0.0
 20
0.0
 30
0.0
  3
GENAXEH
  1

  0
LINE
  5
3E45
  8
0
 10
-1.0
 20
0.0
 30
0.0
 11
1.0
 21
0.0
 31
0.0
  0
ENDBLK
  5
3E46
  8
0
  0
BLOCK
  8
0
  2
*U4
 70
     1
 10
0.0
 20
0.0
 30
0.0
  3
*U4
  1

  0
TEXT
  5
4538
  8
241
 10
-49.952380952380963
 20
56.0
 30
0.0
 40
5.0
  1
BBT30-EM.625-2.5
  7
YOKO
  0
ENDBLK
  5
453A
  8
0
  0
BLOCK
  8
0
  2
_ACMFILLEDHALF
 70
     0
 10
0.0
 20
0.0
 30
0.0
  3
_ACMFILLEDHALF
  1

  0
TRACE
  5
4660
  8
240
 62
     0
 10
-0.8
 20
0.0
 30
0.0
 11
-1.0
 21
0.166666666
 31
0.0
 12
0.0
 22
0.0
 32
0.0
 13
0.0
 23
0.0
 33
0.0
  0
LINE
  5
4661
  8
240
 62
     0
 10
-1.0
 20
0.0
 30
0.0
 11
-0.8
 21
0.0
 31
0.0
  0
ENDBLK
  5
465F
  8
0
  0
ENDSEC
  0
SECTION
  2
ENTITIES
  0
LINE
  5
42A4
  8
250
  6
CONTINUOUS
 10
-29.192646
 20
-20.993266540993321
 30
0.0
 11
-46.92597932999999
 21
-20.993266540993321
 31
0.0
1001
ITEMNAME
1000
LNSP2
  0
TEXT
  5
42A5
  8
250
  6
CONTINUOUS
 10
-44.659312663333303
 20
-19.993266540993321
 30
0.0
 40
2.799999999999998
  1
BBT30
  7
YOKO
1001
ITEMNAME
1000
LNSP3
1001
ACAD
1000
MTEXTBEGIN
1070
    73
1070
     1
1070
    44
1040
1.0
1070
    74
1070
     0
1000
MTEXTEND
1000
MTEXTBEGIN
1070
    73
1070
     1
1070
    44
1040
1.0
1070
    74
1070
     0
1000
MTEXTEND
1000
MTEXTBEGIN
1070
    73
1070
     1
1070
    44
1040
1.0
1070
    74
1070
     0
1000
MTEXTEND
1000
MTEXTBEGIN
1070
    73
1070
     1
1070
    44
1040
1.0
1070
    74
1070
     0
1000
MTEXTEND
  0
LINE
  5
42A6
  8
250
  6
CONTINUOUS
 10
-25.314999999633049
 20
-14.276986651644499
 30
0.0
 11
-29.192646
 21
-20.993266540993321
 31
0.0
1001
ACAD
1000
DSTYLE
1002
{
1070
     6
1000
OPEN
1070
   343
1005
0
1002
}
  0
LINE
  5
42A7
  8
250
  6
CONTINUOUS
 10
-25.63687277474159
 20
-14.09115331837233
 30
0.0
 11
-24.199999999999989
 21
-12.34575000099335
 31
0.0
  0
LINE
  5
42A8
  8
250
  6
CONTINUOUS
 10
-24.993127224524532
 20
-14.462819984916679
 30
0.0
 11
-24.199999999999989
 21
-12.34575000099335
 31
0.0
  0
LINE
  5
42A9
  8
250
  6
CONTINUOUS
 10
-24.199999999999989
 20
-12.34575000099335
 30
0.0
 11
-25.314999999633049
 21
-14.276986651644499
 31
0.0
  0
LINE
  5
42AA
  8
245
  6
CENTER2
 10
-49.400000000000013
 20
0.0
 30
0.0
 11
65.279414793857427
 21
0.0
 31
0.0
  0
LINE
  5
42AB
  8
240
  6
CONTINUOUS
 10
-48.399999999999991
 20
-8.8165000019866966
 30
0.0
 11
0.0
 21
-15.875
 31
0.0
  0
LINE
  5
42AC
  8
240
  6
CONTINUOUS
 10
-48.399999999999991
 20
8.8165000019866966
 30
0.0
 11
0.0
 21
15.875
 31
0.0
  0
LINE
  5
42AD
  8
240
  6
CONTINUOUS
 10
-48.399999999999991
 20
-8.8165000019866966
 30
0.0
 11
-48.399999999999991
 21
8.8165000019866966
 31
0.0
  0
LINE
  5
42AE
  8
241
  6
CONTINUOUS
 10
9.5999999999999943
 20
-23.0
 30
0.0
 11
9.5999999999999943
 21
-8.0500000000000114
 31
0.0
  0
LINE
  5
42AF
  8
241
  6
CONTINUOUS
 10
15.29059892000001
 20
-19.0
 30
0.0
 11
15.29059892000001
 21
-6.7795059499999821
 31
0.0
  0
LINE
  5
42B0
  8
241
  6
CONTINUOUS
 10
11.909401080000009
 20
-19.0
 30
0.0
 11
11.909401080000009
 21
-7.9926246999999639
 31
0.0
  0
LINE
  5
42B1
  8
241
  6
CONTINUOUS
 10
17.599999999999991
 20
-23.0
 30
0.0
 11
17.599999999999991
 21
-4.53651848999999
 31
0.0
  0
LINE
  5
42B2
  8
241
  6
CONTINUOUS
 10
0.0
 20
-15.875
 30
0.0
 11
0.0
 21
15.875
 31
0.0
  0
LINE
  5
42B3
  8
240
  6
CONTINUOUS
 10
9.5999999999999943
 20
-23.0
 30
0.0
 11
1.0
 21
-23.0
 31
0.0
  0
LINE
  5
42B4
  8
240
  6
CONTINUOUS
 10
1.0
 20
-15.875
 30
0.0
 11
1.0
 21
-23.0
 31
0.0
  0
LINE
  5
42B5
  8
240
  6
CONTINUOUS
 10
0.0
 20
-15.875
 30
0.0
 11
1.0
 21
-15.875
 31
0.0
  0
LINE
  5
42B6
  8
240
  6
CONTINUOUS
 10
11.909401080000009
 20
-19.0
 30
0.0
 11
9.5999999999999943
 21
-23.0
 31
0.0
  0
LINE
  5
42B7
  8
240
  6
CONTINUOUS
 10
15.29059892000001
 20
-19.0
 30
0.0
 11
17.599999999999991
 21
-23.0
 31
0.0
  0
LINE
  5
42B8
  8
240
  6
CONTINUOUS
 10
11.909401080000009
 20
-19.0
 30
0.0
 11
15.29059892000001
 21
-19.0
 31
0.0
  0
LINE
  5
42B9
  8
240
  6
CONTINUOUS
 10
9.5999999999999943
 20
23.0
 30
0.0
 11
1.0
 21
23.0
 31
0.0
  0
LINE
  5
42BA
  8
241
  6
CONTINUOUS
 10
10.94999999999999
 20
8.0500000000000114
 30
0.0
 11
1.0
 21
8.0500000000000114
 31
0.0
  0
LINE
  5
42BB
  8
241
  6
CONTINUOUS
 10
10.94999999999999
 20
-8.0500000000000114
 30
0.0
 11
1.0
 21
-8.0500000000000114
 31
0.0
  0
LINE
  5
42BC
  8
241
  6
CONTINUOUS
 10
1.0
 20
-15.875
 30
0.0
 11
1.0
 21
15.875
 31
0.0
  0
LINE
  5
42BD
  8
240
  6
CONTINUOUS
 10
1.0
 20
15.875
 30
0.0
 11
1.0
 21
23.0
 31
0.0
  0
LINE
  5
42BE
  8
240
  6
CONTINUOUS
 10
0.0
 20
15.875
 30
0.0
 11
1.0
 21
15.875
 31
0.0
  0
LINE
  5
42BF
  8
241
  6
CONTINUOUS
 10
15.29059892000001
 20
19.0
 30
0.0
 11
15.29059892000001
 21
6.7795059499999821
 31
0.0
  0
LINE
  5
42C0
  8
241
  6
CONTINUOUS
 10
11.909401080000009
 20
19.0
 30
0.0
 11
11.909401080000009
 21
7.9926246999999639
 31
0.0
  0
LINE
  5
42C1
  8
241
  6
CONTINUOUS
 10
9.5999999999999943
 20
23.0
 30
0.0
 11
9.5999999999999943
 21
8.0500000000000114
 31
0.0
  0
LINE
  5
42C2
  8
241
  6
CONTINUOUS
 10
17.599999999999991
 20
23.0
 30
0.0
 11
17.599999999999991
 21
4.53651848999999
 31
0.0
  0
ARC
  5
42C3
  8
241
  6
CONTINUOUS
 10
10.94999999999999
 20
0.0
 30
0.0
 40
8.0499999999999812
 50
270.0
 51
90.0
  0
LINE
  5
42C4
  8
240
  6
CONTINUOUS
 10
11.909401080000009
 20
19.0
 30
0.0
 11
9.5999999999999943
 21
23.0
 31
0.0
  0
LINE
  5
42C5
  8
240
  6
CONTINUOUS
 10
15.29059892000001
 20
19.0
 30
0.0
 11
17.599999999999991
 21
23.0
 31
0.0
  0
LINE
  5
42C6
  8
240
  6
CONTINUOUS
 10
11.909401080000009
 20
19.0
 30
0.0
 11
15.29059892000001
 21
19.0
 31
0.0
  0
LINE
  5
42C7
  8
240
  6
CONTINUOUS
 10
22.0
 20
23.0
 30
0.0
 11
17.599999999999991
 21
23.0
 31
0.0
  0
LINE
  5
42C8
  8
240
  6
CONTINUOUS
 10
17.599999999999991
 20
-23.0
 30
0.0
 11
22.0
 21
-23.0
 31
0.0
  0
LINE
  5
42C9
  8
240
  6
CONTINUOUS
 10
22.0
 20
23.0
 30
0.0
 11
22.0
 21
21.649999999999881
 31
0.0
  0
LINE
  5
42CA
  8
247
  6
CONTINUOUS
 10
6.4999999999999432
 20
-15.75
 30
0.0
 11
6.5
 21
-11.11538461566999
 31
0.0
  0
LINE
  5
42CB
  8
247
  6
CONTINUOUS
 10
4.0
 20
-14.954893499987911
 30
0.0
 11
6.0999999999160082
 21
-15.557058810057351
 31
0.0
  0
LINE
  5
42CC
  8
247
  6
CONTINUOUS
 10
4.996153846113998
 20
-14.32515140351904
 30
0.0
 11
4.996153846113998
 21
-15.240536018867029
 31
0.0
  0
ARC
  5
42CD
  8
247
  6
CONTINUOUS
 10
4.3847190672940961
 20
-14.08726340194675
 30
0.0
 40
0.3876715809326743
 50
72.9978896752922
 51
172.92416621851359
  0
ARC
  5
42CE
  8
247
  6
CONTINUOUS
 10
4.305223131028014
 20
-14.38247755680406
 30
0.0
 40
0.6933047965358772
 50
4.7429368522022122
 51
73.849226273266751
1001
GENIUS_GENOBJ-N-FIL_13
1002
{
1000
OWNER
1000
GEN
1002
}
1001
GENIUS_GENODEF_13
1002
{
1000
HIER
1070
     0
1002
}
1002
{
1000
MANEDIT
1070
     0
1002
}
1002
{
1000
NOSEL
1070
     0
1002
}
1002
{
1000
BEHIND
1070
     0
1002
}
1002
{
1000
OTHER
1070
     0
1002
}
1002
{
1000
REACTOR
1002
}
  0
LINE
  5
42CF
  8
247
  6
CONTINUOUS
 10
6.0999999999160082
 20
-14.64167419470937
 30
0.0
 11
6.0999999999160082
 21
-15.557058810057351
 31
0.0
  0
LINE
  5
42D0
  8
247
  6
CONTINUOUS
 10
4.0
 20
-14.954893499987911
 30
0.0
 11
4.0
 21
-14.039508884639931
 31
0.0
  0
ARC
  5
42D1
  8
247
  6
CONTINUOUS
 10
5.3874169627678707
 20
-14.3783064762668
 30
0.0
 40
0.394857301075386
 50
65.990941652528889
 51
172.26344345906909
  0
ARC
  5
42D2
  8
247
  6
CONTINUOUS
 10
5.391200327332565
 20
-14.71244661042692
 30
0.0
 40
0.7123241612361686
 50
5.7019851642564632
 51
77.277338436822006
1001
GENIUS_GENOBJ-N-FIL_13
1002
{
1000
OWNER
1000
GEN
1002
}
1001
GENIUS_GENODEF_13
1002
{
1000
HIER
1070
     0
1002
}
1002
{
1000
MANEDIT
1070
     0
1002
}
1002
{
1000
NOSEL
1070
     0
1002
}
1002
{
1000
BEHIND
1070
     0
1002
}
1002
{
1000
OTHER
1070
     0
1002
}
1002
{
1000
REACTOR
1002
}
  0
LINE
  5
42D3
  8
247
  6
CONTINUOUS
 10
6.0999999999160082
 20
-13.683981887063339
 30
0.0
 11
4.0
 21
-13.08181657699396
 31
0.0
  0
LINE
  5
42D4
  8
247
  6
CONTINUOUS
 10
4.0
 20
-11.585662730907931
 30
0.0
 11
4.0
 21
-11.981678364303541
 31
0.0
  0
LINE
  5
42D5
  8
247
  6
CONTINUOUS
 10
6.0999999999160082
 20
-12.60873965394393
 30
0.0
 11
6.0999999999160082
 21
-12.17797042319193
 31
0.0
  0
ARC
  5
42D6
  8
247
  6
CONTINUOUS
 10
5.4582995950833562
 20
-11.381816577069911
 30
0.0
 40
1.576855057639547
 50
202.35948814152559
 51
254.99324854284649
  0
ARC
  5
42D7
  8
247
  6
CONTINUOUS
 10
4.5658188585381341
 20
-11.847511366133171
 30
0.0
 40
0.6234706797009447
 50
94.994589319075317
 51
155.1663289573039
1001
GENIUS_GENOBJ-N-FIL_13
1002
{
1000
OWNER
1000
GEN
1002
}
1001
GENIUS_GENODEF_13
1002
{
1000
HIER
1070
     0
1002
}
1002
{
1000
MANEDIT
1070
     0
1002
}
1002
{
1000
NOSEL
1070
     0
1002
}
1002
{
1000
BEHIND
1070
     0
1002
}
1002
{
1000
OTHER
1070
     0
1002
}
1002
{
1000
REACTOR
1002
}
  0
ARC
  5
42D8
  8
247
  6
CONTINUOUS
 10
5.1621021219694381
 20
-12.44418395103275
 30
0.0
 40
0.9749472149106983
 50
15.8460965557808
 51
82.325137004169278
  0
ARC
  5
42D9
  8
247
  6
CONTINUOUS
 10
5.3714704019710631
 20
-12.03521163877218
 30
0.0
 40
0.9271945638692009
 50
249.7136016704969
 51
321.78874565641149
1001
GENIUS_GENOBJ-N-FIL_13
1002
{
1000
OWNER
1000
GEN
1002
}
1001
GENIUS_GENODEF_13
1002
{
1000
HIER
1070
     0
1002
}
1002
{
1000
MANEDIT
1070
     0
1002
}
1002
{
1000
NOSEL
1070
     0
1002
}
1002
{
1000
BEHIND
1070
     0
1002
}
1002
{
1000
OTHER
1070
     0
1002
}
1002
{
1000
REACTOR
1002
}
  0
LINE
  5
42DA
  8
247
  6
CONTINUOUS
 10
5.2923076922559744
 20
-11.962585807815911
 30
0.0
 11
5.2923076922559744
 21
-11.47797042321997
 31
0.0
  0
ARC
  5
42DB
  8
247
  6
CONTINUOUS
 10
5.25
 20
-15.75
 30
0.0
 40
1.25
 50
180.0
 51
0.0
  0
LINE
  5
42DC
  8
247
  6
CONTINUOUS
 10
4.0
 20
-15.75
 30
0.0
 11
4.0
 21
-15.30384615391398
 31
0.0
  0
ARC
  5
42DD
  8
247
  6
CONTINUOUS
 10
5.25
 20
-11.11538461566999
 30
0.0
 40
1.25
 50
0.0
 51
180.0
  0
LINE
  5
4302
  8
243
  6
HIDDEN2
 10
15.395603337825399
 20
7.9379999999998727
 30
0.0
 11
63.499999999999901
 21
7.9380000000000193
 31
0.0
  0
LINE
  5
4305
  8
240
  6
CONTINUOUS
 10
23.000000000000089
 20
20.649999999999881
 30
0.0
 11
56.800000000000288
 21
20.650000000000041
 31
0.0
  0
LINE
  5
4306
  8
240
  6
CONTINUOUS
 10
56.800000000000288
 20
20.650000000000041
 30
0.0
 11
63.499999999999901
 21
13.95000000000009
 31
0.0
  0
LINE
  5
4307
  8
241
  6
CONTINUOUS
 10
56.799999999999983
 20
-20.470359442248881
 30
0.0
 11
56.799999999999969
 21
20.650000000000041
 31
0.0
  0
LINE
  5
4308
  8
240
  6
CONTINUOUS
 10
63.499999999999901
 20
13.95000000000009
 30
0.0
 11
63.499999999999972
 21
-13.950000000000051
 31
0.0
  0
LINE
  5
4309
  8
240
  6
CONTINUOUS
 10
23.00000000000006
 20
-20.649999999999981
 30
0.0
 11
56.799999999999969
 21
-20.649999999999981
 31
0.0
  0
ARC
  5
430A
  8
240
  6
CONTINUOUS
 10
23.00000000000006
 20
-21.649999999999981
 30
0.0
 40
1.0
 50
90.0
 51
180.0
  0
LINE
  5
430B
  8
240
  6
CONTINUOUS
 10
63.499999999999972
 20
-13.950000000000051
 30
0.0
 11
56.799999999999969
 21
-20.649999999999981
 31
0.0
  0
ARC
  5
430C
  8
240
  6
CONTINUOUS
 10
23.000000000000089
 20
21.649999999999881
 30
0.0
 40
1.0
 50
180.0
 51
270.0
  0
LINE
  5
4316
  8
240
  6
CONTINUOUS
 10
22.0
 20
-21.649999999999981
 30
0.0
 11
22.0
 21
-23.0
 31
0.0
  0
LINE
  5
4318
  8
241
  6
CONTINUOUS
 10
22.00000000000006
 20
-21.649999999999981
 30
0.0
 11
22.0
 21
21.649999999999881
 31
0.0
  0
LINE
  5
4319
  8
243
  6
HIDDEN2
 10
15.39560333782541
 20
-7.937999999999894
 30
0.0
 11
63.499999999999922
 21
-7.9380000000000139
 31
0.0
  0
INSERT
  5
43D5
  8
240
  2
*U4
 10
0.0
 20
0.0
 30
0.0
  0
CIRCLE
  5
43D6
  8
242
  6
CONTINUOUS
 10
39.700000000000003
 20
0.0
 30
0.0
 40
6.4390000000000001
  0
CIRCLE
  5
43D7
  8
241
  6
CONTINUOUS
 10
39.700000000000003
 20
0.0
 30
0.0
 40
7.1440000000000001
  0
LINE
  5
43FD
  8
250
  6
CONTINUOUS
 10
63.499999999999901
 20
14.45000000000009
 30
0.0
 11
63.499999999999901
 21
42.999999999999972
 31
0.0
  0
LINE
  5
43FE
  8
250
  6
CONTINUOUS
 10
-4.9000000000019091
 20
8.9500000000003581
 30
0.0
 11
-4.9000000000019082
 21
42.999999999999972
 31
0.0
  0
LINE
  5
43FF
  8
250
  6
CONTINUOUS
 10
61.269999999999897
 20
41.999999999999957
 30
0.0
 11
-2.6700000000019082
 21
41.999999999999957
 31
0.0
  0
LINE
  5
4403
  8
250
  6
CONTINUOUS
 10
0.0
 20
16.375
 30
0.0
 11
0.0000000000000012
 21
36.0
 31
0.0
  0
LINE
  5
4404
  8
250
  6
CONTINUOUS
 10
63.499999999999901
 20
14.45000000000009
 30
0.0
 11
63.499999999999901
 21
36.0
 31
0.0
  0
LINE
  5
4405
  8
250
  6
CONTINUOUS
 10
2.23
 20
35.0
 30
0.0
 11
61.269999999999897
 21
35.0
 31
0.0
  0
LINE
  5
4409
  8
250
  6
CONTINUOUS
 10
63.999999999999943
 20
7.9380000000000193
 30
0.0
 11
78.0
 21
7.9380000000000139
 31
0.0
  0
LINE
  5
440A
  8
250
  6
CONTINUOUS
 10
63.99999999999995
 20
-7.9380000000000139
 30
0.0
 11
78.0
 21
-7.9380000000000193
 31
0.0
  0
LINE
  5
440B
  8
250
  6
CONTINUOUS
 10
77.0
 20
5.7080000000000171
 30
0.0
 11
77.0
 21
-5.7080000000000188
 31
0.0
  0
LINE
  5
440F
  8
250
  6
CONTINUOUS
 10
57.300000000000281
 20
20.650000000000041
 30
0.0
 11
85.0
 21
20.650000000000031
 31
0.0
  0
LINE
  5
4410
  8
250
  6
CONTINUOUS
 10
57.299999999999962
 20
-20.649999999999981
 30
0.0
 11
85.0
 21
-20.649999999999981
 31
0.0
  0
LINE
  5
4411
  8
250
  6
CONTINUOUS
 10
84.0
 20
18.42000000000003
 30
0.0
 11
84.0
 21
-18.41999999999998
 31
0.0
  0
TEXT
  5
4415
  8
250
  6
CONTINUOUS
 10
75.999999999999986
 20
-7.2666666666666524
 30
0.0
 40
2.799999999999998
  1
\U+2205.625
 50
90.0
  0
LINE
  5
4416
  8
250
  6
CONTINUOUS
 10
77.371666666666655
 20
-5.7080000000000179
 30
0.0
 11
77.0
 21
-7.9380000000000193
 31
0.0
  0
LINE
  5
4417
  8
250
  6
CONTINUOUS
 10
76.62833333333333
 20
-5.7080000000000179
 30
0.0
 11
77.0
 21
-7.9380000000000193
 31
0.0
  0
LINE
  5
4418
  8
250
  6
CONTINUOUS
 10
77.0
 20
-7.9380000000000193
 30
0.0
 11
77.0
 21
-5.7080000000000179
 31
0.0
  0
LINE
  5
4419
  8
250
  6
CONTINUOUS
 10
76.62833333333333
 20
5.7080000000000162
 30
0.0
 11
77.0
 21
7.9380000000000139
 31
0.0
  0
LINE
  5
441A
  8
250
  6
CONTINUOUS
 10
77.371666666666655
 20
5.7080000000000162
 30
0.0
 11
77.0
 21
7.9380000000000139
 31
0.0
  0
LINE
  5
441B
  8
250
  6
CONTINUOUS
 10
77.0
 20
7.9380000000000139
 30
0.0
 11
77.0
 21
5.7080000000000162
 31
0.0
  0
TEXT
  5
441C
  8
250
  6
CONTINUOUS
 10
82.999999999999986
 20
-7.2666666666666222
 30
0.0
 40
2.799999999999998
  1
\U+22051.63
 50
90.0
  0
LINE
  5
441D
  8
250
  6
CONTINUOUS
 10
84.371666666666684
 20
-18.41999999999998
 30
0.0
 11
84.0
 21
-20.649999999999981
 31
0.0
  0
LINE
  5
441E
  8
250
  6
CONTINUOUS
 10
83.628333333333316
 20
-18.41999999999998
 30
0.0
 11
84.0
 21
-20.649999999999981
 31
0.0
  0
LINE
  5
441F
  8
250
  6
CONTINUOUS
 10
84.0
 20
-20.649999999999981
 30
0.0
 11
84.0
 21
-18.41999999999998
 31
0.0
  0
LINE
  5
4420
  8
250
  6
CONTINUOUS
 10
83.628333333333316
 20
18.42000000000003
 30
0.0
 11
84.0
 21
20.650000000000031
 31
0.0
  0
LINE
  5
4421
  8
250
  6
CONTINUOUS
 10
84.371666666666684
 20
18.42000000000003
 30
0.0
 11
84.0
 21
20.650000000000031
 31
0.0
  0
LINE
  5
4422
  8
250
  6
CONTINUOUS
 10
84.0
 20
20.650000000000031
 30
0.0
 11
84.0
 21
18.42000000000003
 31
0.0
  0
TEXT
  5
4423
  8
250
  6
CONTINUOUS
 10
23.29999999999901
 20
42.999999999999972
 30
0.0
 40
2.799999999999998
  1
(max.2.69)
  0
LINE
  5
4424
  8
250
  6
CONTINUOUS
 10
-2.6700000000019082
 20
41.628333333333288
 30
0.0
 11
-4.9000000000019082
 21
41.999999999999957
 31
0.0
  0
LINE
  5
4425
  8
250
  6
CONTINUOUS
 10
-2.6700000000019082
 20
42.371666666666641
 30
0.0
 11
-4.9000000000019082
 21
41.999999999999957
 31
0.0
  0
LINE
  5
4426
  8
250
  6
CONTINUOUS
 10
-4.9000000000019082
 20
41.999999999999957
 30
0.0
 11
-2.6700000000019082
 21
41.999999999999957
 31
0.0
  0
LINE
  5
4427
  8
250
  6
CONTINUOUS
 10
61.269999999999897
 20
42.371666666666641
 30
0.0
 11
63.499999999999901
 21
41.999999999999957
 31
0.0
  0
LINE
  5
4428
  8
250
  6
CONTINUOUS
 10
61.269999999999897
 20
41.628333333333288
 30
0.0
 11
63.499999999999901
 21
41.999999999999957
 31
0.0
  0
LINE
  5
4429
  8
250
  6
CONTINUOUS
 10
63.499999999999901
 20
41.999999999999957
 30
0.0
 11
61.269999999999897
 21
41.999999999999957
 31
0.0
  0
TEXT
  5
442A
  8
250
  6
CONTINUOUS
 10
28.416666666666629
 20
36.0
 30
0.0
 40
2.799999999999998
  1
2.50
  0
LINE
  5
442B
  8
250
  6
CONTINUOUS
 10
61.269999999999897
 20
35.37166666666667
 30
0.0
 11
63.499999999999901
 21
35.0
 31
0.0
  0
LINE
  5
442C
  8
250
  6
CONTINUOUS
 10
61.269999999999897
 20
34.62833333333333
 30
0.0
 11
63.499999999999901
 21
35.0
 31
0.0
  0
LINE
  5
442D
  8
250
  6
CONTINUOUS
 10
63.499999999999901
 20
35.0
 30
0.0
 11
61.269999999999897
 21
35.0
 31
0.0
  0
LINE
  5
442E
  8
250
  6
CONTINUOUS
 10
2.23
 20
34.62833333333333
 30
0.0
 11
0.0000000000000012
 21
35.0
 31
0.0
  0
LINE
  5
442F
  8
250
  6
CONTINUOUS
 10
2.23
 20
35.37166666666667
 30
0.0
 11
0.0000000000000012
 21
35.0
 31
0.0
  0
LINE
  5
4430
  8
250
  6
CONTINUOUS
 10
0.0000000000000012
 20
35.0
 30
0.0
 11
2.23
 21
35.0
 31
0.0
  0
POLYLINE
  5
46D3
  8
241
  6
CONTINUOUS
 66
     1
 10
0.0
 20
0.0
 30
0.0
 70
     1
  0
VERTEX
  5
4749
  8
241
  6
CONTINUOUS
 10
35.731250000000003
 20
-2.2913588808463241
 30
0.0
  0
VERTEX
  5
474A
  8
241
  6
CONTINUOUS
 10
39.700000000000003
 20
-4.5827177616926544
 30
0.0
  0
VERTEX
  5
474B
  8
241
  6
CONTINUOUS
 10
43.668750000000003
 20
-2.2913588808463321
 30
0.0
  0
VERTEX
  5
474C
  8
241
  6
CONTINUOUS
 10
43.66875000000001
 20
2.2913588808463201
 30
0.0
  0
VERTEX
  5
474D
  8
241
  6
CONTINUOUS
 10
39.70000000000001
 20
4.5827177616926544
 30
0.0
  0
VERTEX
  5
474E
  8
241
  6
CONTINUOUS
 10
35.731250000000003
 20
2.291358880846333
 30
0.0
  0
SEQEND
  5
474F
  8
241
  6
CONTINUOUS
  0
VIEWPORT
  5
22
 67
     1
  8
0
 10
261.51769911504419
 20
148.5
 30
0.0
 40
523.0353982300885
 41
297.0
 68
     1
 69
     1
1001
ACAD
1000
MVIEW
1002
{
1070
    16
1010
0.0
1020
0.0
1030
0.0
1010
0.0
1020
0.0
1030
1.0
1040
0.0
1040
297.0
1040
261.51769911504419
1040
148.5
1040
50.0
1040
0.0
1040
0.0
1070
     0
1070
   100
1070
     1
1070
     1
1070
     0
1070
     0
1070
     0
1070
     0
1040
0.0
1040
0.0
1040
0.0
1040
1.0
1040
1.0
1040
10.0
1040
10.0
1070
     0
1002
{
1002
}
1002
}
1001
GENIUS_GENODEF_13
1002
{
1000
HIER
1070
     0
1002
}
1002
{
1000
MANEDIT
1070
     0
1002
}
1002
{
1000
NOSEL
1070
     0
1002
}
1002
{
1000
BEHIND
1070
     0
1002
}
1002
{
1000
OTHER
1070
     0
1002
}
1002
{
1000
REACTOR
1002
}
1001
GENIUS_GENOBJ-N-SDF_13
1002
{
1000
OWNER
1000
GEN
1002
}
1001
GENIUS_GENSCREG_15
1000
PF
1040
1.0
1000
DF
1040
1.0
1000
MIN
1011
0.0
1021
0.0
1031
0.0
1021
0.0
1031
0.0
1000
MAX
1011
523.0353982300885
1021
0.0
1031
0.0
1021
297.0
1031
0.0
1000
FLAGS
1070
     4
  0
ENDSEC
  0
EOF
