ISO-10303-21;
HEADER;
FILE_DESCRIPTION((''),'1');
FILE_NAME('//Big_tech03/bigt/Translate/21_\X2\8F2A90ED7DDA\X0\-DXF/21_CK\X2\30DC30FC30EA30F330B030B730B930C630E0\X0\/01_CK\X2\30D930FC30B930DB30EB30C0\X0\ CK/BBT/BBT30/BBT30-CK5-120.stp','2012-05-17T01:28:37',(''),(''),'Spatial Interop R18','Kubotek KeyCreator V8.5.1 (14335)',' ');
FILE_SCHEMA(('CONFIG_CONTROL_DESIGN'));
ENDSEC;
DATA;
#1=DESIGN_CONTEXT('',#27,'design');
#2=APPLICATION_PROTOCOL_DEFINITION('INTERNATIONAL STANDARD','config_control_design',1994,#27);
#3=PRODUCT_CATEGORY_RELATIONSHIP('NONE','NONE',#28,#29);
#4=DATE_AND_TIME(#30,#31);
#5=DATE_TIME_ROLE('creation_date');
#6=DATE_TIME_ROLE('classification_date');
#7=PERSON_AND_ORGANIZATION_ROLE('creator');
#8=PERSON_AND_ORGANIZATION_ROLE('design_supplier');
#9=PERSON_AND_ORGANIZATION_ROLE('classification_officer');
#10=PERSON_AND_ORGANIZATION_ROLE('design_owner');
#11=APPROVAL_PERSON_ORGANIZATION(#32,#33,#34);
#12=APPROVAL_DATE_TIME(#4,#33);
#13=CC_DESIGN_APPROVAL(#33,(#35,#36,#37));
#14=CC_DESIGN_DATE_AND_TIME_ASSIGNMENT(#4,#5,(#37));
#15=CC_DESIGN_DATE_AND_TIME_ASSIGNMENT(#4,#6,(#35));
#16=CC_DESIGN_PERSON_AND_ORGANIZATION_ASSIGNMENT(#32,#10,(#38));
#17=CC_DESIGN_PERSON_AND_ORGANIZATION_ASSIGNMENT(#32,#7,(#37));
#18=CC_DESIGN_PERSON_AND_ORGANIZATION_ASSIGNMENT(#32,#7,(#36));
#19=CC_DESIGN_PERSON_AND_ORGANIZATION_ASSIGNMENT(#32,#8,(#36));
#20=CC_DESIGN_SECURITY_CLASSIFICATION(#35,(#36));
#21=CC_DESIGN_PERSON_AND_ORGANIZATION_ASSIGNMENT(#32,#9,(#35));
#22=SHAPE_DEFINITION_REPRESENTATION(#39,#40);
#23= (GEOMETRIC_REPRESENTATION_CONTEXT(3)GLOBAL_UNCERTAINTY_ASSIGNED_CONTEXT((#43))GLOBAL_UNIT_ASSIGNED_CONTEXT((#45,#46,#47))REPRESENTATION_CONTEXT('NONE','WORKSPACE'));
#27=APPLICATION_CONTEXT('CONFIGURATION CONTROLLED 3D DESIGNS OF MECHANICAL PARTS AND ASSEMBLIES');
#28=PRODUCT_CATEGORY('part','NONE');
#29=PRODUCT_RELATED_PRODUCT_CATEGORY('detail',' ',(#38));
#30=CALENDAR_DATE(2012,17,4);
#31=LOCAL_TIME(10,28,37.0,#49);
#32=PERSON_AND_ORGANIZATION(#50,#51);
#33=APPROVAL(#52,'SOLID MODEL');
#34=APPROVAL_ROLE('APPROVED');
#35=SECURITY_CLASSIFICATION('','',#53);
#36=PRODUCT_DEFINITION_FORMATION_WITH_SPECIFIED_SOURCE(' ','NONE',#38,.NOT_KNOWN.);
#37=PRODUCT_DEFINITION('NONE','NONE',#36,#1);
#38=PRODUCT('1','1','PART-1-DESC',(#54));
#39=PRODUCT_DEFINITION_SHAPE('NONE','NONE',#37);
#40=ADVANCED_BREP_SHAPE_REPRESENTATION('1',(#55,#56),#23);
#43=UNCERTAINTY_MEASURE_WITH_UNIT(LENGTH_MEASURE(1.0E-006),#45,'','');
#45= (CONVERSION_BASED_UNIT('MILLIMETRE',#59)LENGTH_UNIT()NAMED_UNIT(#62));
#46= (NAMED_UNIT(#64)PLANE_ANGLE_UNIT()SI_UNIT($,.RADIAN.));
#47= (NAMED_UNIT(#64)SOLID_ANGLE_UNIT()SI_UNIT($,.STERADIAN.));
#49=COORDINATED_UNIVERSAL_TIME_OFFSET(9,0,.AHEAD.);
#50=PERSON('','UNSPECIFIED',$,$,$,$);
#51=ORGANIZATION('UNSPECIFIED','UNSPECIFIED','UNSPECIFIED');
#52=APPROVAL_STATUS('approved');
#53=SECURITY_CLASSIFICATION_LEVEL('unclassified');
#54=MECHANICAL_CONTEXT('',#27,'mechanical');
#55=MANIFOLD_SOLID_BREP('1',#70);
#56=AXIS2_PLACEMENT_3D('',#71,#72,#73);
#59=LENGTH_MEASURE_WITH_UNIT(LENGTH_MEASURE(1.0),#74);
#62=DIMENSIONAL_EXPONENTS(1.0,0.0,0.0,0.0,0.0,0.0,0.0);
#64=DIMENSIONAL_EXPONENTS(0.0,0.0,0.0,0.0,0.0,0.0,0.0);
#70=CLOSED_SHELL('',(#75,#76,#77,#78,#79,#80,#81,#82,#83,#84,#85,#86,#87,#88));
#71=CARTESIAN_POINT('',(0.0,0.0,0.0));
#72=DIRECTION('',(0.0,0.0,1.0));
#73=DIRECTION('',(1.0,0.0,0.0));
#74= (NAMED_UNIT(#62)LENGTH_UNIT()SI_UNIT(.MILLI.,.METRE.));
#75=ADVANCED_FACE('',(#90,#91),#92,.T.);
#76=ADVANCED_FACE('',(#93,#94),#95,.T.);
#77=ADVANCED_FACE('',(#96),#97,.T.);
#78=ADVANCED_FACE('',(#98,#99),#100,.T.);
#79=ADVANCED_FACE('',(#101,#102),#103,.T.);
#80=ADVANCED_FACE('',(#104,#105),#106,.T.);
#81=ADVANCED_FACE('',(#107,#108),#109,.T.);
#82=ADVANCED_FACE('',(#110,#111),#112,.T.);
#83=ADVANCED_FACE('',(#113,#114),#115,.T.);
#84=ADVANCED_FACE('',(#116,#117),#118,.T.);
#85=ADVANCED_FACE('',(#119,#120),#121,.T.);
#86=ADVANCED_FACE('',(#122,#123),#124,.T.);
#87=ADVANCED_FACE('',(#125),#126,.T.);
#88=ADVANCED_FACE('',(#127,#128),#129,.T.);
#90=FACE_BOUND('',#130,.T.);
#91=FACE_BOUND('',#131,.T.);
#92=CONICAL_SURFACE('',#132,23.85,0.785398163397458);
#93=FACE_BOUND('',#133,.T.);
#94=FACE_BOUND('',#134,.T.);
#95=CYLINDRICAL_SURFACE('',#135,25.0);
#96=FACE_OUTER_BOUND('',#136,.T.);
#97=PLANE('',#137);
#98=FACE_BOUND('',#138,.T.);
#99=FACE_BOUND('',#139,.T.);
#100=CYLINDRICAL_SURFACE('',#140,22.7);
#101=FACE_BOUND('',#141,.T.);
#102=FACE_BOUND('',#142,.T.);
#103=CYLINDRICAL_SURFACE('',#143,15.8750000000006);
#104=FACE_OUTER_BOUND('',#144,.T.);
#105=FACE_BOUND('',#145,.T.);
#106=PLANE('',#146);
#107=FACE_BOUND('',#147,.T.);
#108=FACE_BOUND('',#148,.T.);
#109=CYLINDRICAL_SURFACE('',#149,23.0);
#110=FACE_BOUND('',#150,.T.);
#111=FACE_BOUND('',#151,.T.);
#112=CONICAL_SURFACE('',#152,21.0,1.0471975511966);
#113=FACE_BOUND('',#153,.T.);
#114=FACE_BOUND('',#154,.T.);
#115=CYLINDRICAL_SURFACE('',#155,19.0);
#116=FACE_BOUND('',#156,.T.);
#117=FACE_BOUND('',#157,.T.);
#118=CONICAL_SURFACE('',#158,21.0,1.0471975511966);
#119=FACE_BOUND('',#159,.T.);
#120=FACE_BOUND('',#160,.T.);
#121=CYLINDRICAL_SURFACE('',#161,22.9999999999999);
#122=FACE_BOUND('',#162,.T.);
#123=FACE_BOUND('',#163,.T.);
#124=CONICAL_SURFACE('',#164,22.8499999999999,0.785398163393167);
#125=FACE_OUTER_BOUND('',#165,.T.);
#126=PLANE('',#166);
#127=FACE_BOUND('',#167,.T.);
#128=FACE_BOUND('',#168,.T.);
#129=CONICAL_SURFACE('',#169,12.3457500000001,0.144815870053811);
#130=EDGE_LOOP('',(#170));
#131=EDGE_LOOP('',(#171));
#132=AXIS2_PLACEMENT_3D('',#172,#173,#174);
#133=EDGE_LOOP('',(#175));
#134=EDGE_LOOP('',(#176));
#135=AXIS2_PLACEMENT_3D('',#177,#178,#179);
#136=EDGE_LOOP('',(#180));
#137=AXIS2_PLACEMENT_3D('',#181,#182,#183);
#138=EDGE_LOOP('',(#184));
#139=EDGE_LOOP('',(#185));
#140=AXIS2_PLACEMENT_3D('',#186,#187,#188);
#141=EDGE_LOOP('',(#189));
#142=EDGE_LOOP('',(#190));
#143=AXIS2_PLACEMENT_3D('',#191,#192,#193);
#144=EDGE_LOOP('',(#194));
#145=EDGE_LOOP('',(#195));
#146=AXIS2_PLACEMENT_3D('',#196,#197,#198);
#147=EDGE_LOOP('',(#199));
#148=EDGE_LOOP('',(#200));
#149=AXIS2_PLACEMENT_3D('',#201,#202,#203);
#150=EDGE_LOOP('',(#204));
#151=EDGE_LOOP('',(#205));
#152=AXIS2_PLACEMENT_3D('',#206,#207,#208);
#153=EDGE_LOOP('',(#209));
#154=EDGE_LOOP('',(#210));
#155=AXIS2_PLACEMENT_3D('',#211,#212,#213);
#156=EDGE_LOOP('',(#214));
#157=EDGE_LOOP('',(#215));
#158=AXIS2_PLACEMENT_3D('',#216,#217,#218);
#159=EDGE_LOOP('',(#219));
#160=EDGE_LOOP('',(#220));
#161=AXIS2_PLACEMENT_3D('',#221,#222,#223);
#162=EDGE_LOOP('',(#224));
#163=EDGE_LOOP('',(#225));
#164=AXIS2_PLACEMENT_3D('',#226,#227,#228);
#165=EDGE_LOOP('',(#229));
#166=AXIS2_PLACEMENT_3D('',#230,#231,#232);
#167=EDGE_LOOP('',(#233));
#168=EDGE_LOOP('',(#234));
#169=AXIS2_PLACEMENT_3D('',#235,#236,#237);
#170=ORIENTED_EDGE('',*,*,#238,.F.);
#171=ORIENTED_EDGE('',*,*,#239,.T.);
#172=CARTESIAN_POINT('',(2.51968533596198E-015,5.03937067192397E-015,-41.1495843163316));
#173=DIRECTION('',(6.12323399573676E-017,1.22464679914735E-016,-1.0));
#174=DIRECTION('',(-1.23259516440783E-032,1.0,1.22464679914735E-016));
#175=ORIENTED_EDGE('',*,*,#240,.F.);
#176=ORIENTED_EDGE('',*,*,#238,.T.);
#177=CARTESIAN_POINT('',(3.22385724547171E-015,6.44771449094342E-015,-52.6495843163316));
#178=DIRECTION('',(-6.12323399573677E-017,-1.22464679914735E-016,1.0));
#179=DIRECTION('',(-1.23259516440783E-032,1.0,1.22464679914735E-016));
#180=ORIENTED_EDGE('',*,*,#240,.T.);
#181=CARTESIAN_POINT('',(3.85761196403047E-015,12.5,-62.9995843163316));
#182=DIRECTION('',(6.12323399573677E-017,-1.61752414389304E-016,-1.0));
#183=DIRECTION('',(5.07732609604187E-033,1.0,-1.61752414389304E-016));
#184=ORIENTED_EDGE('',*,*,#239,.F.);
#185=ORIENTED_EDGE('',*,*,#241,.T.);
#186=CARTESIAN_POINT('',(1.8981770853947E-015,3.7963541707894E-015,-30.9995843163317));
#187=DIRECTION('',(-6.12323399573676E-017,-1.22464679914735E-016,1.0));
#188=DIRECTION('',(-1.23259516440783E-032,1.0,1.22464679914735E-016));
#189=ORIENTED_EDGE('',*,*,#242,.F.);
#190=ORIENTED_EDGE('',*,*,#243,.T.);
#191=CARTESIAN_POINT('',(3.06161699787108E-017,6.12323399574216E-017,-0.500000000000441));
#192=DIRECTION('',(-6.12323399573676E-017,-1.22464679914735E-016,1.0));
#193=DIRECTION('',(-1.23259516440783E-032,1.0,1.22464679914735E-016));
#194=ORIENTED_EDGE('',*,*,#244,.F.);
#195=ORIENTED_EDGE('',*,*,#242,.T.);
#196=CARTESIAN_POINT('',(6.12323399573674E-017,19.4375000000006,-0.999999999999998));
#197=DIRECTION('',(-6.12323399573677E-017,-1.22464679914735E-016,1.0));
#198=DIRECTION('',(1.23259516440783E-032,-1.0,-1.22464679914735E-016));
#199=ORIENTED_EDGE('',*,*,#245,.F.);
#200=ORIENTED_EDGE('',*,*,#244,.T.);
#201=CARTESIAN_POINT('',(3.24531401774048E-016,6.49062803548097E-016,-5.3));
#202=DIRECTION('',(-6.12323399573677E-017,-1.22464679914735E-016,1.0));
#203=DIRECTION('',(-1.23259516440783E-032,1.0,1.22464679914735E-016));
#204=ORIENTED_EDGE('',*,*,#246,.F.);
#205=ORIENTED_EDGE('',*,*,#245,.T.);
#206=CARTESIAN_POINT('',(6.58535479505723E-016,1.31707095901145E-015,-10.7547005383792));
#207=DIRECTION('',(-6.12323399573677E-017,-1.22464679914735E-016,1.0));
#208=DIRECTION('',(-1.23259516440783E-032,1.0,1.22464679914735E-016));
#209=ORIENTED_EDGE('',*,*,#247,.F.);
#210=ORIENTED_EDGE('',*,*,#246,.T.);
#211=CARTESIAN_POINT('',(8.32759823420199E-016,1.6655196468404E-015,-13.6));
#212=DIRECTION('',(-6.12323399573677E-017,-1.22464679914735E-016,1.0));
#213=DIRECTION('',(-1.23259516440783E-032,1.0,1.22464679914735E-016));
#214=ORIENTED_EDGE('',*,*,#248,.F.);
#215=ORIENTED_EDGE('',*,*,#247,.T.);
#216=CARTESIAN_POINT('',(1.00698416733468E-015,2.01396833466935E-015,-16.4452994616207));
#217=DIRECTION('',(6.12323399573677E-017,1.22464679914735E-016,-1.0));
#218=DIRECTION('',(-1.23259516440783E-032,1.0,1.22464679914735E-016));
#219=ORIENTED_EDGE('',*,*,#249,.F.);
#220=ORIENTED_EDGE('',*,*,#248,.T.);
#221=CARTESIAN_POINT('',(1.20320275352036E-015,2.40640550704071E-015,-19.6497921581647));
#222=DIRECTION('',(-6.12323399573677E-017,-1.22464679914735E-016,1.0));
#223=DIRECTION('',(-1.23259516440783E-032,1.0,1.22464679914735E-016));
#224=ORIENTED_EDGE('',*,*,#241,.F.);
#225=ORIENTED_EDGE('',*,*,#249,.T.);
#226=CARTESIAN_POINT('',(1.33790117478472E-015,2.67580234956944E-015,-21.8495843163305));
#227=DIRECTION('',(-6.12323399573677E-017,-1.22464679914735E-016,1.0));
#228=DIRECTION('',(-1.23259516440783E-032,1.0,1.22464679914735E-016));
#229=ORIENTED_EDGE('',*,*,#250,.F.);
#230=CARTESIAN_POINT('',(-2.96364525393659E-015,4.40825,48.4));
#231=DIRECTION('',(-6.12323399573677E-017,-1.22464679914735E-016,1.0));
#232=DIRECTION('',(1.23259516440783E-032,-1.0,-1.22464679914735E-016));
#233=ORIENTED_EDGE('',*,*,#243,.F.);
#234=ORIENTED_EDGE('',*,*,#250,.T.);
#235=CARTESIAN_POINT('',(-1.48182262696827E-015,-2.96364525393654E-015,24.1999999999996));
#236=DIRECTION('',(6.12323399573677E-017,1.22464679914735E-016,-1.0));
#237=DIRECTION('',(-1.23259516440783E-032,1.0,1.22464679914735E-016));
#238=EDGE_CURVE('',#251,#251,#252,.T.);
#239=EDGE_CURVE('',#253,#253,#254,.T.);
#240=EDGE_CURVE('',#255,#255,#256,.T.);
#241=EDGE_CURVE('',#257,#257,#258,.T.);
#242=EDGE_CURVE('',#259,#259,#260,.T.);
#243=EDGE_CURVE('',#261,#261,#262,.T.);
#244=EDGE_CURVE('',#263,#263,#264,.T.);
#245=EDGE_CURVE('',#265,#265,#266,.T.);
#246=EDGE_CURVE('',#267,#267,#268,.T.);
#247=EDGE_CURVE('',#269,#269,#270,.T.);
#248=EDGE_CURVE('',#271,#271,#272,.T.);
#249=EDGE_CURVE('',#273,#273,#274,.T.);
#250=EDGE_CURVE('',#275,#275,#276,.T.);
#251=VERTEX_POINT('',#277);
#252=CIRCLE('',#278,25.0);
#253=VERTEX_POINT('',#279);
#254=CIRCLE('',#280,22.7);
#255=VERTEX_POINT('',#281);
#256=CIRCLE('',#282,25.0);
#257=VERTEX_POINT('',#283);
#258=CIRCLE('',#284,22.7);
#259=VERTEX_POINT('',#285);
#260=CIRCLE('',#286,15.8750000000011);
#261=VERTEX_POINT('',#287);
#262=CIRCLE('',#288,15.8750000000001);
#263=VERTEX_POINT('',#289);
#264=CIRCLE('',#290,23.0);
#265=VERTEX_POINT('',#291);
#266=CIRCLE('',#292,23.0);
#267=VERTEX_POINT('',#293);
#268=CIRCLE('',#294,19.0);
#269=VERTEX_POINT('',#295);
#270=CIRCLE('',#296,19.0);
#271=VERTEX_POINT('',#297);
#272=CIRCLE('',#298,23.0);
#273=VERTEX_POINT('',#299);
#274=CIRCLE('',#300,22.9999999999998);
#275=VERTEX_POINT('',#301);
#276=CIRCLE('',#302,8.81650000000001);
#277=CARTESIAN_POINT('',(2.59010252691295E-015,25.0,-42.2995843163316));
#278=AXIS2_PLACEMENT_3D('',#303,#304,#305);
#279=CARTESIAN_POINT('',(2.44926814501101E-015,22.7,-39.9995843163317));
#280=AXIS2_PLACEMENT_3D('',#306,#307,#308);
#281=CARTESIAN_POINT('',(3.85761196403047E-015,25.0,-62.9995843163316));
#282=AXIS2_PLACEMENT_3D('',#309,#310,#311);
#283=CARTESIAN_POINT('',(1.34708602577839E-015,22.7,-21.9995843163317));
#284=AXIS2_PLACEMENT_3D('',#312,#313,#314);
#285=CARTESIAN_POINT('',(6.12323399573675E-017,15.8750000000011,-0.999999999999998));
#286=AXIS2_PLACEMENT_3D('',#315,#316,#317);
#287=CARTESIAN_POINT('',(5.33213906403896E-029,15.8750000000001,-8.72055873206354E-013));
#288=AXIS2_PLACEMENT_3D('',#318,#319,#320);
#289=CARTESIAN_POINT('',(6.12323399573674E-017,23.0,-0.999999999999997));
#290=AXIS2_PLACEMENT_3D('',#321,#322,#323);
#291=CARTESIAN_POINT('',(5.87830463590729E-016,23.0,-9.6));
#292=AXIS2_PLACEMENT_3D('',#324,#325,#326);
#293=CARTESIAN_POINT('',(7.29240495420715E-016,19.0,-11.9094010767585));
#294=AXIS2_PLACEMENT_3D('',#327,#328,#329);
#295=CARTESIAN_POINT('',(9.36279151419683E-016,19.0,-15.2905989232415));
#296=AXIS2_PLACEMENT_3D('',#330,#331,#332);
#297=CARTESIAN_POINT('',(1.07768918324967E-015,23.0,-17.6));
#298=AXIS2_PLACEMENT_3D('',#333,#334,#335);
#299=CARTESIAN_POINT('',(1.32871632379104E-015,22.9999999999998,-21.6995843163294));
#300=AXIS2_PLACEMENT_3D('',#336,#337,#338);
#301=CARTESIAN_POINT('',(-2.96364525393659E-015,8.8165,48.4));
#302=AXIS2_PLACEMENT_3D('',#339,#340,#341);
#303=CARTESIAN_POINT('',(2.59010252691295E-015,5.18020505382591E-015,-42.2995843163316));
#304=DIRECTION('',(6.12323399573677E-017,1.22464679914735E-016,-1.0));
#305=DIRECTION('',(-1.23259516440783E-032,1.0,1.22464679914735E-016));
#306=CARTESIAN_POINT('',(2.44926814501101E-015,4.89853629002202E-015,-39.9995843163317));
#307=DIRECTION('',(6.12323399573676E-017,1.22464679914735E-016,-1.0));
#308=DIRECTION('',(-1.23259516440783E-032,1.0,1.22464679914735E-016));
#309=CARTESIAN_POINT('',(3.85761196403047E-015,7.71522392806093E-015,-62.9995843163316));
#310=DIRECTION('',(6.12323399573677E-017,1.22464679914735E-016,-1.0));
#311=DIRECTION('',(-1.23259516440783E-032,1.0,1.22464679914735E-016));
#312=CARTESIAN_POINT('',(1.34708602577839E-015,2.69417205155679E-015,-21.9995843163317));
#313=DIRECTION('',(6.12323399573676E-017,1.22464679914735E-016,-1.0));
#314=DIRECTION('',(-1.23259516440783E-032,1.0,1.22464679914735E-016));
#315=CARTESIAN_POINT('',(6.12323399573677E-017,1.22464679914735E-016,-1.0));
#316=DIRECTION('',(6.12323399573677E-017,1.22464679914735E-016,-1.0));
#317=DIRECTION('',(-1.23259516440783E-032,1.0,1.22464679914735E-016));
#318=CARTESIAN_POINT('',(5.35150790508696E-029,1.07030158101739E-028,-8.73967564984923E-013));
#319=DIRECTION('',(6.12323399573677E-017,1.22464679914735E-016,-1.0));
#320=DIRECTION('',(-1.23259516440783E-032,1.0,1.22464679914735E-016));
#321=CARTESIAN_POINT('',(6.12323399573677E-017,1.22464679914735E-016,-1.0));
#322=DIRECTION('',(6.12323399573677E-017,1.22464679914735E-016,-1.0));
#323=DIRECTION('',(-1.23259516440783E-032,1.0,1.22464679914735E-016));
#324=CARTESIAN_POINT('',(5.8783046359073E-016,1.17566092718146E-015,-9.6));
#325=DIRECTION('',(6.12323399573677E-017,1.22464679914735E-016,-1.0));
#326=DIRECTION('',(-1.23259516440783E-032,1.0,1.22464679914735E-016));
#327=CARTESIAN_POINT('',(7.29240495420715E-016,1.45848099084143E-015,-11.9094010767585));
#328=DIRECTION('',(6.12323399573677E-017,1.22464679914735E-016,-1.0));
#329=DIRECTION('',(-1.23259516440783E-032,1.0,1.22464679914735E-016));
#330=CARTESIAN_POINT('',(9.36279151419684E-016,1.87255830283937E-015,-15.2905989232415));
#331=DIRECTION('',(6.12323399573677E-017,1.22464679914735E-016,-1.0));
#332=DIRECTION('',(-1.23259516440783E-032,1.0,1.22464679914735E-016));
#333=CARTESIAN_POINT('',(1.07768918324967E-015,2.15537836649934E-015,-17.6));
#334=DIRECTION('',(6.12323399573677E-017,1.22464679914735E-016,-1.0));
#335=DIRECTION('',(-1.23259516440783E-032,1.0,1.22464679914735E-016));
#336=CARTESIAN_POINT('',(1.32871632379104E-015,2.65743264758209E-015,-21.6995843163294));
#337=DIRECTION('',(6.12323399573677E-017,1.22464679914735E-016,-1.0));
#338=DIRECTION('',(-1.23259516440783E-032,1.0,1.22464679914735E-016));
#339=CARTESIAN_POINT('',(-2.96364525393659E-015,-5.92729050787319E-015,48.4));
#340=DIRECTION('',(6.12323399573677E-017,1.22464679914735E-016,-1.0));
#341=DIRECTION('',(-1.23259516440783E-032,1.0,1.22464679914735E-016));
ENDSEC;
END-ISO-10303-21;
