999
NT  : 16.0 - 919
  0
SECTION
  2
HEADER
  9
$ACADVER
  1
AC1006
  9
$INSBASE
 10
0.000000000
 20
0.000000000
  9
$EXTMIN
 10
-44.904657729
 20
-20.069019408
  9
$EXTMAX
 10
83.524874328
 20
37.997182774
  9
$LIMMIN
 10
-44.904657729
 20
-20.069019408
  9
$LIMMAX
 10
83.524874328
 20
37.997182774
  9
$AUNITS
 70
     2
  9
$ANGBASE
 50
0.000
  9
$ANGDIR
 70
     0
  0
ENDSEC
  0
SECTION
  2
TABLES
  0
TABLE
  2
LTYPE
 70
     8
  0
LTYPE
  2
PUNKT
 70
    64
  3
..............
 72
    65
 73
     2
 40
1.500
 49
0.700
 49
-0.800
  0
LTYPE
  2
GESTRICHELT
 70
    64
  3
-- -- -- -- --
 72
    65
 73
     7
 40
2.800
 49
0.900
 49
0.000
 49
0.900
 49
0.000
 49
0.200
 49
0.000
 49
-0.800
  0
LTYPE
  2
STRICHPUNKT
 70
    64
  3
--.--.--.--.--
 72
    65
 73
     4
 40
8.800
 49
5.500
 49
-1.300
 49
0.700
 49
-1.300
  0
LTYPE
  2
STRICHPUNKT
 70
    64
  3
--.--.--.--.--
 72
    65
 73
     4
 40
8.800
 49
5.500
 49
-1.300
 49
0.700
 49
-1.300
  0
LTYPE
  2
STRICHPUNKT
 70
    64
  3
--.--.--.--.--
 72
    65
 73
     4
 40
8.800
 49
5.500
 49
-1.300
 49
0.700
 49
-1.300
  0
LTYPE
  2
PHANTOM
 70
    64
  3
--..--..--..--
 72
    65
 73
     6
 40
14.200
 49
7.000
 49
-1.800
 49
0.900
 49
-1.800
 49
0.900
 49
-1.800
  0
LTYPE
  2
PHANTOM
 70
    64
  3
--..--..--..--
 72
    65
 73
     6
 40
14.200
 49
7.000
 49
-1.800
 49
0.900
 49
-1.800
 49
0.900
 49
-1.800
  0
LTYPE
  2
PHANTOM
 70
    64
  3
--..--..--..--
 72
    65
 73
     6
 40
14.200
 49
7.000
 49
-1.800
 49
0.900
 49
-1.800
 49
0.900
 49
-1.800
  0
ENDTAB
  0
ENDSEC
  0
SECTION
  2
BLOCKS
  0
ENDSEC
  0
SECTION
  2
ENTITIES
  0
LINE
  8
ZAPFEN
  6
STRICHPUNKT
 62
     4
 10
-4.816520622
 20
0.000000000
 11
22.273175990
 21
0.000000000
  0
TEXT
  8
TEXT
  6
STRICHPUNKT
 62
     4
 10
2.564729331
 20
2.392977056
 40
3.500000000
  1
639.104
 50
0.000000000
 41
1.000
 51
0.000000000
  7
STANDARD
  0
LINE
  8
AUFNAHME
  6
CONTINUOUS
 62
     7
 10
19.795935503
 20
12.169260508
 11
20.295935585
 21
11.880585434
  0
LINE
  8
AUFNAHME
  6
CONTINUOUS
 62
     7
 10
20.295935585
 20
11.880585434
 11
20.295935585
 21
2.600001613
  0
LINE
  8
AUFNAHME
  6
CONTINUOUS
 62
     7
 10
20.295935585
 20
2.600001613
 11
10.060401626
 21
-7.635532549
  0
ARC
  8
AUFNAHME
  6
CONTINUOUS
 62
     7
 10
13.595935532
 20
-11.171066455
 40
5.000000000
 50
135.000000000
 51
-179.999997289
  0
LINE
  8
AUFNAHME
  6
CONTINUOUS
 62
     7
 10
8.595935436
 20
-11.171066692
 11
8.595935436
 21
-18.799731066
  0
LINE
  8
AUFNAHME
  6
CONTINUOUS
 62
     7
 10
8.595935436
 20
-18.799731066
 11
7.895935694
 21
-19.499742916
  0
LINE
  8
AUFNAHME
  6
CONTINUOUS
 62
     7
 10
7.895935694
 20
-19.499742916
 11
0.251672132
 21
-19.499742916
  0
LINE
  8
AUFNAHME
  6
CONTINUOUS
 62
     7
 10
0.251672132
 20
19.499744963
 11
0.795935182
 21
19.499744963
  0
LINE
  8
AUFNAHME
  6
CONTINUOUS
 62
     7
 10
0.795935182
 20
19.499744963
 11
2.816661163
 21
22.999783954
  0
LINE
  8
AUFNAHME
  6
CONTINUOUS
 62
     7
 10
2.816661163
 20
22.999783954
 11
6.095935492
 21
22.999783954
  0
LINE
  8
AUFNAHME
  6
CONTINUOUS
 62
     7
 10
6.095935492
 20
22.999783954
 11
6.566087366
 21
22.185457101
  0
ARC
  8
AUFNAHME
  6
CONTINUOUS
 62
     7
 10
14.295935532
 20
18.650001356
 40
8.500000000
 50
155.421727192
 51
-166.826019172
  0
ARC
  8
AUFNAHME
  6
CONTINUOUS
 62
     7
 10
-0.450629312
 20
-18.679153024
 40
0.957090052
 50
-141.925933130
 51
-133.057425307
  0
LINE
  8
AUFNAHME
  6
CONTINUOUS
 62
     7
 10
-1.104064384
 20
-19.378469815
 11
-1.004064468
 21
-19.481204113
  0
ARC
  8
AUFNAHME
  6
CONTINUOUS
 62
     7
 10
0.478467287
 20
37.508272508
 40
57.008756748
 50
-91.490163870
 51
-90.301514173
  0
LINE
  8
AUFNAHME
  6
CONTINUOUS
 62
     7
 10
0.178467384
 20
-19.499228826
 11
0.208808011
 21
-19.499407640
  0
LINE
  8
AUFNAHME
  6
CONTINUOUS
 62
     7
 10
0.208808011
 20
-19.499407640
 11
0.251672132
 21
-19.499742916
  0
LINE
  8
AUFNAHME
  6
CONTINUOUS
 62
     7
 10
0.251672132
 20
19.499744963
 11
0.230162306
 21
19.499565742
  0
LINE
  8
AUFNAHME
  6
CONTINUOUS
 62
     7
 10
0.230162306
 20
19.499565742
 11
0.178467287
 21
19.499232111
  0
ARC
  8
AUFNAHME
  6
CONTINUOUS
 62
     7
 10
0.478467287
 20
-37.508269795
 40
57.008291271
 50
90.301514268
 51
91.490163958
  0
LINE
  8
AUFNAHME
  6
CONTINUOUS
 62
     7
 10
-1.004064554
 20
19.481206813
 11
-1.104064384
 21
19.378473900
  0
ARC
  8
AUFNAHME
  6
CONTINUOUS
 62
     7
 10
-0.473575240
 20
18.700199026
 40
0.926052572
 50
132.908939350
 51
142.075393595
  0
LINE
  8
AUFNAHME
  6
CONTINUOUS
 62
     7
 10
-1.204064214
 20
19.269373186
 11
-1.195936698
 21
-19.269369250
  0
LINE
  8
AUFNAHME
  6
CONTINUOUS
 62
     7
 10
20.169559302
 20
12.526744021
 11
20.295935585
 21
12.028264789
  0
LINE
  8
AUFNAHME
  6
CONTINUOUS
 62
     7
 10
20.295935585
 20
12.028264789
 11
20.295935585
 21
11.880585434
  0
LINE
  8
AUFNAHME
  6
CONTINUOUS
 62
     7
 10
6.426378986
 20
22.427439898
 11
11.049136308
 21
22.427439898
  0
LINE
  8
AUFNAHME
  6
CONTINUOUS
 62
     7
 10
7.224867720
 20
11.578933545
 11
8.285527889
 21
12.639593720
  0
LINE
  8
AUFNAHME
  6
CONTINUOUS
 62
     7
 10
12.195935373
 20
14.303854757
 11
12.195935532
 21
13.558832532
  0
ARC
  8
AUFNAHME
  6
CONTINUOUS
 62
     7
 10
14.295935532
 20
13.558832532
 40
2.100000000
 50
-180.000000000
 51
0.000003350
  0
LINE
  8
AUFNAHME
  6
CONTINUOUS
 62
     7
 10
16.395935434
 20
13.558832655
 11
16.395935476
 21
14.303854903
  0
LINE
  8
AUFNAHME
  6
CONTINUOUS
 62
     7
 10
7.031255354
 20
17.932770690
 11
7.840377929
 21
18.741893262
  0
LINE
  8
AUFNAHME
  6
CONTINUOUS
 62
     7
 10
7.840377929
 20
18.741893262
 11
7.955637675
 21
18.626633488
  0
ARC
  8
AUFNAHME
  6
CONTINUOUS
 62
     7
 10
14.295935532
 20
16.952402751
 40
0.600000000
 50
33.045762465
 51
146.954237527
  0
ARC
  8
AUFNAHME
  6
CONTINUOUS
 62
     7
 10
15.008435532
 20
17.415915156
 40
0.250000000
 50
-146.954237527
 51
-60.000000000
  0
ARC
  8
AUFNAHME
  6
CONTINUOUS
 62
     7
 10
15.008435532
 20
17.415915156
 40
0.250000000
 50
-60.000000000
 51
26.954237546
  0
ARC
  8
AUFNAHME
  6
CONTINUOUS
 62
     7
 10
15.766099050
 20
17.801202054
 40
0.600000000
 50
93.045762467
 51
-153.045762473
  0
ARC
  8
AUFNAHME
  6
CONTINUOUS
 62
     7
 10
15.720935532
 20
18.650001356
 40
0.250000000
 50
-86.954237527
 51
0.000000000
  0
ARC
  8
AUFNAHME
  6
CONTINUOUS
 62
     7
 10
15.720935532
 20
18.650001356
 40
0.250000000
 50
0.000000000
 51
86.954237536
  0
ARC
  8
AUFNAHME
  6
CONTINUOUS
 62
     7
 10
15.766099050
 20
19.498800659
 40
0.600000000
 50
153.045762469
 51
-93.045762473
  0
ARC
  8
AUFNAHME
  6
CONTINUOUS
 62
     7
 10
15.008435532
 20
19.884087557
 40
0.250000000
 50
-26.954237527
 51
60.000000000
  0
ARC
  8
AUFNAHME
  6
CONTINUOUS
 62
     7
 10
15.008435532
 20
19.884087557
 40
0.250000000
 50
60.000000000
 51
146.954237531
  0
ARC
  8
AUFNAHME
  6
CONTINUOUS
 62
     7
 10
14.295935532
 20
20.347599962
 40
0.600000000
 50
-146.954237526
 51
-33.045762473
  0
ARC
  8
AUFNAHME
  6
CONTINUOUS
 62
     7
 10
13.583435532
 20
19.884087557
 40
0.250000000
 50
33.045762473
 51
120.000000000
  0
ARC
  8
AUFNAHME
  6
CONTINUOUS
 62
     7
 10
13.583435532
 20
19.884087557
 40
0.250000000
 50
120.000000000
 51
-153.045762476
  0
ARC
  8
AUFNAHME
  6
CONTINUOUS
 62
     7
 10
12.825772014
 20
19.498800659
 40
0.600000000
 50
-86.954237529
 51
26.954237527
  0
ARC
  8
AUFNAHME
  6
CONTINUOUS
 62
     7
 10
12.870935532
 20
18.650001356
 40
0.250000000
 50
93.045762473
 51
180.000000000
  0
ARC
  8
AUFNAHME
  6
CONTINUOUS
 62
     7
 10
12.870935532
 20
18.650001356
 40
0.250000000
 50
180.000000000
 51
-93.045762464
  0
ARC
  8
AUFNAHME
  6
CONTINUOUS
 62
     7
 10
12.825772014
 20
17.801202054
 40
0.600000000
 50
-26.954237531
 51
86.954237527
  0
ARC
  8
AUFNAHME
  6
CONTINUOUS
 62
     7
 10
13.583435532
 20
17.415915156
 40
0.250000000
 50
153.045762473
 51
-120.000000000
  0
ARC
  8
AUFNAHME
  6
CONTINUOUS
 62
     7
 10
13.583435532
 20
17.415915156
 40
0.250000000
 50
-120.000000000
 51
-33.045762473
  0
LINE
  8
AUFNAHME
  6
CONTINUOUS
 62
     7
 10
14.861621046
 20
12.769540284
 11
20.465442198
 21
18.373361494
  0
ARC
  8
AUFNAHME
  6
CONTINUOUS
 62
     7
 10
19.899756773
 20
18.939046919
 40
0.800000000
 50
-45.000000000
 51
45.000006709
  0
LINE
  8
AUFNAHME
  6
CONTINUOUS
 62
     7
 10
20.465442117
 20
19.504732395
 11
14.861620957
 21
25.108553585
  0
ARC
  8
AUFNAHME
  6
CONTINUOUS
 62
     7
 10
14.295935532
 20
24.542868160
 40
0.800000000
 50
45.000000000
 51
134.999990719
  0
LINE
  8
AUFNAHME
  6
CONTINUOUS
 62
     7
 10
13.730250091
 20
25.108553784
 11
8.126428867
 21
19.504732344
  0
ARC
  8
AUFNAHME
  6
CONTINUOUS
 62
     7
 10
8.692114291
 20
18.939046919
 40
0.800000000
 50
135.000000000
 51
-135.000001319
  0
LINE
  8
AUFNAHME
  6
CONTINUOUS
 62
     7
 10
8.126429020
 20
18.373361673
 11
13.730250107
 21
12.769540253
  0
ARC
  8
AUFNAHME
  6
CONTINUOUS
 62
     7
 10
14.295935532
 20
13.335225678
 40
0.800000000
 50
-135.000000000
 51
-45.000000000
  0
ARC
  8
AUFNAHME
  6
CONTINUOUS
 62
     7
 10
14.295935532
 20
18.650001356
 40
7.300000000
 50
-174.361547693
 51
-5.638451441
  0
LINE
  8
AUFNAHME
  6
CONTINUOUS
 62
     7
 10
21.560615788
 20
17.932770676
 11
20.751493014
 21
18.741893134
  0
LINE
  8
AUFNAHME
  6
CONTINUOUS
 62
     7
 10
20.751493014
 20
18.741893134
 11
20.636233443
 21
18.626633504
  0
ARC
  8
AUFNAHME
  6
CONTINUOUS
 62
     7
 10
14.295935532
 20
18.650001356
 40
8.500000000
 50
-166.826019172
 51
-13.173979006
  0
LINE
  8
AUFNAHME
  6
CONTINUOUS
 62
     7
 10
22.572236714
 20
16.712777493
 11
22.072560254
 21
17.318410028
  0
LINE
  8
AUFNAHME
  6
CONTINUOUS
 62
     7
 10
22.072560254
 20
17.318410028
 11
21.560615788
 21
17.932770676
  0
LINE
  8
AUFNAHME
  6
CONTINUOUS
 62
     7
 10
6.019634283
 20
16.712777210
 11
6.518980124
 21
17.318011056
  0
LINE
  8
AUFNAHME
  6
CONTINUOUS
 62
     7
 10
6.518980124
 20
17.318011056
 11
7.031255354
 21
17.932770690
  0
LINE
  8
AUFNAHME
  6
CONTINUOUS
 62
     7
 10
7.917527345
 20
18.739009341
 11
7.840377929
 21
18.741893262
  0
LINE
  8
AUFNAHME
  6
CONTINUOUS
 62
     7
 10
20.751493014
 20
18.741893134
 11
20.674343693
 21
18.739009208
  0
CIRCLE
  8
AUFNAHME
  6
CONTINUOUS
 62
     7
 10
14.295935532
 20
18.650001356
 40
2.500000000
  0
LINE
  8
AUFNAHME
  6
CONTINUOUS
 62
     7
 10
11.707745081
 20
8.990743094
 11
12.406556495
 21
11.598742827
  0
LINE
  8
AUFNAHME
  6
CONTINUOUS
 62
     7
 10
10.045935600
 20
11.288785385
 11
9.295935644
 21
9.989747288
  0
LINE
  8
AUFNAHME
  6
CONTINUOUS
 62
     7
 10
14.295935485
 20
10.150001356
 11
14.295935476
 21
8.650001424
  0
LINE
  8
AUFNAHME
  6
CONTINUOUS
 62
     7
 10
16.495897416
 20
10.439631833
 11
16.884125926
 21
8.990743310
  0
LINE
  8
AUFNAHME
  6
CONTINUOUS
 62
     7
 10
18.545935574
 20
11.288785448
 11
19.295935547
 21
9.989747405
  0
LINE
  8
MASS
  6
CONTINUOUS
 62
     4
 10
35.128166097
 20
19.504733036
 11
20.465442117
 21
19.504732395
  0
LINE
  8
MASS
  6
CONTINUOUS
 62
     4
 10
33.128166097
 20
19.504732949
 11
33.578166250
 21
16.004732968
  0
LINE
  8
MASS
  6
CONTINUOUS
 62
     4
 10
33.578166250
 20
16.004732968
 11
32.678166250
 21
16.004732929
  0
LINE
  8
MASS
  6
CONTINUOUS
 62
     4
 10
32.678166250
 20
16.004732929
 11
33.128166097
 21
19.504732949
  0
LINE
  8
MASS
  6
CONTINUOUS
 62
     4
 10
33.128166245
 20
16.104732949
 11
33.128166101
 21
19.404732949
  0
LINE
  8
MASS
  6
CONTINUOUS
 62
     4
 10
32.928166245
 20
16.104732940
 11
32.928166169
 21
17.849177384
  0
LINE
  8
MASS
  6
CONTINUOUS
 62
     4
 10
33.328166245
 20
16.104732957
 11
33.328166169
 21
17.849177402
  0
LINE
  8
MASS
  6
CONTINUOUS
 62
     4
 10
32.728166245
 20
16.104732931
 11
32.728166237
 21
16.293621820
  0
LINE
  8
MASS
  6
CONTINUOUS
 62
     4
 10
33.528166245
 20
16.104732966
 11
33.528166237
 21
16.293621855
  0
LINE
  8
MASS
  6
CONTINUOUS
 62
     4
 10
33.128167447
 20
-11.385329551
 11
33.128166250
 21
16.004732949
  0
TEXT
  8
MASS
  6
CONTINUOUS
 62
     4
 10
31.748364195
 20
-1.587356210
 40
3.500000000
  1
33
 50
90.000002504
 41
1.000
 51
0.000000000
  7
STANDARD
  0
CIRCLE
  8
MASS
  6
CONTINUOUS
 62
     4
 10
30.498364294
 20
-3.837356265
 40
1.250000000
  0
LINE
  8
MASS
  6
CONTINUOUS
 62
     4
 10
31.748364348
 20
-5.087356210
 11
29.248364239
 21
-2.587356319
  0
TEXT
  8
MASS
  6
CONTINUOUS
 62
     4
 10
31.748364648
 20
-11.940168710
 40
3.500000000
  1
min.
 50
90.000002504
 41
1.000
 51
0.000000000
  7
STANDARD
  0
TEXT
  8
MASS
  6
CONTINUOUS
 62
     4
 10
31.748364018
 20
2.476393790
 40
3.500000000
  1
 (15 Grad)
 50
90.000002504
 41
1.000
 51
0.000000000
  7
STANDARD
  0
LINE
  8
MASS
  6
CONTINUOUS
 62
     4
 10
45.436735760
 20
25.108554921
 11
14.861620957
 21
25.108553585
  0
LINE
  8
MASS
  6
CONTINUOUS
 62
     4
 10
43.436735760
 20
25.108554834
 11
43.886735913
 21
21.608554853
  0
LINE
  8
MASS
  6
CONTINUOUS
 62
     4
 10
43.886735913
 20
21.608554853
 11
42.986735913
 21
21.608554814
  0
LINE
  8
MASS
  6
CONTINUOUS
 62
     4
 10
42.986735913
 20
21.608554814
 11
43.436735760
 21
25.108554834
  0
LINE
  8
MASS
  6
CONTINUOUS
 62
     4
 10
43.436735908
 20
21.708554834
 11
43.436735764
 21
25.008554834
  0
LINE
  8
MASS
  6
CONTINUOUS
 62
     4
 10
43.236735908
 20
21.708554825
 11
43.236735832
 21
23.452999269
  0
LINE
  8
MASS
  6
CONTINUOUS
 62
     4
 10
43.636735908
 20
21.708554842
 11
43.636735832
 21
23.452999287
  0
LINE
  8
MASS
  6
CONTINUOUS
 62
     4
 10
43.036735908
 20
21.708554816
 11
43.036735900
 21
21.897443705
  0
LINE
  8
MASS
  6
CONTINUOUS
 62
     4
 10
43.836735908
 20
21.708554851
 11
43.836735900
 21
21.897443740
  0
LINE
  8
MASS
  6
CONTINUOUS
 62
     4
 10
43.436737220
 20
-8.308070166
 11
43.436735913
 21
21.608554834
  0
TEXT
  8
MASS
  6
CONTINUOUS
 62
     4
 10
41.936736647
 20
4.821491895
 40
3.500000000
  1
63
 50
90.000002504
 41
1.000
 51
0.000000000
  7
STANDARD
  0
CIRCLE
  8
MASS
  6
CONTINUOUS
 62
     4
 10
40.686736745
 20
2.571491840
 40
1.250000000
  0
LINE
  8
MASS
  6
CONTINUOUS
 62
     4
 10
41.936736800
 20
1.321491895
 11
39.436736690
 21
3.821491785
  0
TEXT
  8
MASS
  6
CONTINUOUS
 62
     4
 10
41.936737154
 20
-6.789133105
 40
3.500000000
  1
max.
 50
90.000002504
 41
1.000
 51
0.000000000
  7
STANDARD
  0
TEXT
  8
MASS
  6
CONTINUOUS
 62
     4
 10
41.936736457
 20
9.158679395
 40
3.500000000
  1
 (45 Grad)
 50
90.000002504
 41
1.000
 51
0.000000000
  7
STANDARD
  0
LINE
  8
MASS
  6
CONTINUOUS
 62
     4
 10
22.572236714
 20
34.427906282
 11
22.572236714
 21
16.712777493
  0
LINE
  8
MASS
  6
CONTINUOUS
 62
     4
 10
22.572236714
 20
32.427906282
 11
19.072236714
 21
31.977906282
  0
LINE
  8
MASS
  6
CONTINUOUS
 62
     4
 10
19.072236714
 20
31.977906282
 11
19.072236714
 21
32.877906282
  0
LINE
  8
MASS
  6
CONTINUOUS
 62
     4
 10
19.072236714
 20
32.877906282
 11
22.572236714
 21
32.427906282
  0
LINE
  8
MASS
  6
CONTINUOUS
 62
     4
 10
19.172236714
 20
32.427906282
 11
22.472236714
 21
32.427906282
  0
LINE
  8
MASS
  6
CONTINUOUS
 62
     4
 10
19.172236714
 20
32.627906282
 11
20.916681158
 21
32.627906282
  0
LINE
  8
MASS
  6
CONTINUOUS
 62
     4
 10
19.172236714
 20
32.227906282
 11
20.916681158
 21
32.227906282
  0
LINE
  8
MASS
  6
CONTINUOUS
 62
     4
 10
19.172236714
 20
32.827906282
 11
19.361125603
 21
32.827906282
  0
LINE
  8
MASS
  6
CONTINUOUS
 62
     4
 10
19.172236714
 20
32.027906282
 11
19.361125603
 21
32.027906282
  0
LINE
  8
MASS
  6
CONTINUOUS
 62
     4
 10
-3.581694307
 20
32.427906282
 11
19.072236714
 21
32.427906282
  0
TEXT
  8
MASS
  6
CONTINUOUS
 62
     4
 10
-1.584104089
 20
33.927906282
 40
3.500000000
  1
50.6
 50
0.000000000
 41
1.000
 51
0.000000000
  7
STANDARD
  0
TEXT
  8
MASS
  6
CONTINUOUS
 62
     4
 10
6.143708411
 20
33.927906282
 40
3.500000000
  1
 (45 Grad)
 50
0.000000000
 41
1.000
 51
0.000000000
  7
STANDARD
  0
ENDSEC
  0
EOF
