999
NT  : 16.0 - 919
  0
SECTION
  2
HEADER
  9
$ACADVER
  1
AC1006
  9
$INSBASE
 10
0.000000000
 20
0.000000000
  9
$EXTMIN
 10
-49.074785263
 20
15.936839757
  9
$EXTMAX
 10
-6.583417589
 20
42.030523074
  9
$LIMMIN
 10
-49.074785263
 20
15.936839757
  9
$LIMMAX
 10
-6.583417589
 20
42.030523074
  9
$AUNITS
 70
     2
  9
$ANGBASE
 50
0.000
  9
$ANGDIR
 70
     0
  0
ENDSEC
  0
SECTION
  2
TABLES
  0
TABLE
  2
LTYPE
 70
     8
  0
LTYPE
  2
PUNKT
 70
    64
  3
..............
 72
    65
 73
     2
 40
1.500
 49
0.700
 49
-0.800
  0
LTYPE
  2
GESTRICHELT
 70
    64
  3
-- -- -- -- --
 72
    65
 73
     7
 40
2.800
 49
0.900
 49
0.000
 49
0.900
 49
0.000
 49
0.200
 49
0.000
 49
-0.800
  0
LTYPE
  2
STRICHPUNKT
 70
    64
  3
--.--.--.--.--
 72
    65
 73
     4
 40
8.800
 49
5.500
 49
-1.300
 49
0.700
 49
-1.300
  0
LTYPE
  2
STRICHPUNKT
 70
    64
  3
--.--.--.--.--
 72
    65
 73
     4
 40
8.800
 49
5.500
 49
-1.300
 49
0.700
 49
-1.300
  0
LTYPE
  2
STRICHPUNKT
 70
    64
  3
--.--.--.--.--
 72
    65
 73
     4
 40
8.800
 49
5.500
 49
-1.300
 49
0.700
 49
-1.300
  0
LTYPE
  2
PHANTOM
 70
    64
  3
--..--..--..--
 72
    65
 73
     6
 40
14.200
 49
7.000
 49
-1.800
 49
0.900
 49
-1.800
 49
0.900
 49
-1.800
  0
LTYPE
  2
PHANTOM
 70
    64
  3
--..--..--..--
 72
    65
 73
     6
 40
14.200
 49
7.000
 49
-1.800
 49
0.900
 49
-1.800
 49
0.900
 49
-1.800
  0
LTYPE
  2
PHANTOM
 70
    64
  3
--..--..--..--
 72
    65
 73
     6
 40
14.200
 49
7.000
 49
-1.800
 49
0.900
 49
-1.800
 49
0.900
 49
-1.800
  0
ENDTAB
  0
ENDSEC
  0
SECTION
  2
BLOCKS
  0
ENDSEC
  0
SECTION
  2
ENTITIES
  0
LINE
  8
AUFNAHME
  6
CONTINUOUS
 62
     7
 10
-18.559380670
 20
34.250001167
 11
-25.440618581
 21
34.250001167
  0
LINE
  8
AUFNAHME
  6
CONTINUOUS
 62
     7
 10
-25.440618581
 20
34.250001167
 11
-25.640618581
 21
34.050001167
  0
LINE
  8
AUFNAHME
  6
CONTINUOUS
 62
     7
 10
-25.640618581
 20
34.050001167
 11
-25.899999625
 21
32.500001167
  0
LINE
  8
AUFNAHME
  6
CONTINUOUS
 62
     7
 10
-25.899999625
 20
32.500001167
 11
-36.999999625
 21
32.500001167
  0
LINE
  8
AUFNAHME
  6
CONTINUOUS
 62
     7
 10
-36.999999625
 20
32.500001167
 11
-36.999999625
 21
26.500001167
  0
LINE
  8
AUFNAHME
  6
CONTINUOUS
 62
     7
 10
-36.999999625
 20
26.500001167
 11
-26.316314323
 21
26.500001167
  0
LINE
  8
EW
  6
CONTINUOUS
 62
     7
 10
-26.316314323
 20
26.500001167
 11
-25.816329582
 21
27.000001167
  0
LINE
  8
AUFNAHME
  6
CONTINUOUS
 62
     7
 10
-25.816329582
 20
27.000001167
 11
-25.548568351
 21
28.600007271
  0
LINE
  8
AUFNAHME
  6
CONTINUOUS
 62
     7
 10
-25.548568351
 20
28.600007271
 11
-18.451476676
 21
28.600007271
  0
LINE
  8
AUFNAHME
  6
CONTINUOUS
 62
     7
 10
-18.451476676
 20
28.600007271
 11
-18.183654411
 21
27.000001167
  0
LINE
  8
EW
  6
CONTINUOUS
 62
     7
 10
-18.183654411
 20
27.000001167
 11
-17.683669669
 21
26.500001167
  0
LINE
  8
AUFNAHME
  6
CONTINUOUS
 62
     7
 10
-17.683669669
 20
26.500001167
 11
-6.999999625
 21
26.500001167
  0
LINE
  8
AUFNAHME
  6
CONTINUOUS
 62
     7
 10
-6.999999625
 20
26.500001167
 11
-6.999999625
 21
32.500025791
  0
LINE
  8
AUFNAHME
  6
CONTINUOUS
 62
     7
 10
-6.999999625
 20
32.500025791
 11
-18.099999626
 21
32.500001167
  0
LINE
  8
AUFNAHME
  6
CONTINUOUS
 62
     7
 10
-18.099999626
 20
32.500001167
 11
-18.359380670
 21
34.050001167
  0
LINE
  8
AUFNAHME
  6
CONTINUOUS
 62
     7
 10
-18.359380670
 20
34.050001167
 11
-18.559380670
 21
34.250001167
  0
LINE
  8
ZAPFEN
  6
STRICHPUNKT
 62
     4
 10
-21.999999625
 20
25.907904147
 11
-21.999999625
 21
35.099111554
  0
LINE
  8
ZAPFEN
  6
STRICHPUNKT
 62
     4
 10
-13.999999625
 20
25.107116377
 11
-13.999999625
 21
33.782070743
  0
LINE
  8
ZAPFEN
  6
STRICHPUNKT
 62
     4
 10
-29.999999625
 20
25.107116377
 11
-29.999999625
 21
33.782070743
  0
LINE
  8
UNSICHT
  6
GESTRICHELT
 62
     1
 10
-25.199999626
 20
28.600007271
 11
-25.199999626
 21
34.250001167
  0
LINE
  8
UNSICHT
  6
GESTRICHELT
 62
     1
 10
-26.799999626
 20
32.500001167
 11
-26.799999626
 21
26.500001167
  0
LINE
  8
UNSICHT
  6
GESTRICHELT
 62
     1
 10
-18.799999626
 20
34.250001167
 11
-18.799999626
 21
28.600007271
  0
LINE
  8
UNSICHT
  6
GESTRICHELT
 62
     1
 10
-17.199999625
 20
26.500001167
 11
-17.199999625
 21
32.500002529
  0
LINE
  8
UNSICHT
  6
GESTRICHELT
 62
     1
 10
-10.799999626
 20
32.500002529
 11
-10.799999626
 21
26.500001167
  0
LINE
  8
UNSICHT
  6
GESTRICHELT
 62
     1
 10
-33.199999625
 20
26.500001167
 11
-33.199999625
 21
32.500001167
  0
LINE
  8
MASS
  6
CONTINUOUS
 62
     4
 10
-36.999999625
 20
15.967361664
 11
-36.999999625
 21
26.500001167
  0
LINE
  8
MASS
  6
CONTINUOUS
 62
     4
 10
-36.999999625
 20
17.967361664
 11
-33.499999625
 21
18.417361664
  0
LINE
  8
MASS
  6
CONTINUOUS
 62
     4
 10
-33.499999625
 20
18.417361664
 11
-33.499999625
 21
17.517361664
  0
LINE
  8
MASS
  6
CONTINUOUS
 62
     4
 10
-33.499999625
 20
17.517361664
 11
-36.999999625
 21
17.967361664
  0
LINE
  8
MASS
  6
CONTINUOUS
 62
     4
 10
-6.999999625
 20
15.967361664
 11
-6.999999625
 21
26.500001167
  0
LINE
  8
MASS
  6
CONTINUOUS
 62
     4
 10
-6.999999625
 20
17.967361664
 11
-10.499999625
 21
17.517361664
  0
LINE
  8
MASS
  6
CONTINUOUS
 62
     4
 10
-10.499999625
 20
17.517361664
 11
-10.499999625
 21
18.417361664
  0
LINE
  8
MASS
  6
CONTINUOUS
 62
     4
 10
-10.499999625
 20
18.417361664
 11
-6.999999625
 21
17.967361664
  0
LINE
  8
MASS
  6
CONTINUOUS
 62
     4
 10
-33.499999625
 20
17.967361664
 11
-10.499999625
 21
17.967361664
  0
TEXT
  8
MASS
  6
CONTINUOUS
 62
     4
 10
-21.723281211
 20
19.467361664
 40
3.500000000
  1
30
 50
0.000000000
 41
1.000
 51
0.000000000
  7
STANDARD
  0
CIRCLE
  8
MASS
  6
CONTINUOUS
 62
     4
 10
-23.973281211
 20
20.717361664
 40
1.250000000
  0
LINE
  8
MASS
  6
CONTINUOUS
 62
     4
 10
-25.223281211
 20
19.467361664
 11
-22.723281211
 21
21.967361664
  0
LINE
  8
MASS
  6
CONTINUOUS
 62
     4
 10
-45.658203227
 20
26.500001167
 11
-36.999999625
 21
26.500001167
  0
LINE
  8
MASS
  6
CONTINUOUS
 62
     4
 10
-43.658203227
 20
26.500001167
 11
-44.108203227
 21
23.000001167
  0
LINE
  8
MASS
  6
CONTINUOUS
 62
     4
 10
-44.108203227
 20
23.000001167
 11
-43.208203227
 21
23.000001167
  0
LINE
  8
MASS
  6
CONTINUOUS
 62
     4
 10
-43.208203227
 20
23.000001167
 11
-43.658203227
 21
26.500001167
  0
LINE
  8
MASS
  6
CONTINUOUS
 62
     4
 10
-43.658203227
 20
23.000001167
 11
-43.658203227
 21
19.000001167
  0
LINE
  8
MASS
  6
CONTINUOUS
 62
     4
 10
-45.658203227
 20
32.500001167
 11
-36.999999625
 21
32.500001167
  0
LINE
  8
MASS
  6
CONTINUOUS
 62
     4
 10
-43.658203227
 20
32.500001167
 11
-43.208203227
 21
36.000001167
  0
LINE
  8
MASS
  6
CONTINUOUS
 62
     4
 10
-43.208203227
 20
36.000001167
 11
-44.108203227
 21
36.000001167
  0
LINE
  8
MASS
  6
CONTINUOUS
 62
     4
 10
-44.108203227
 20
36.000001167
 11
-43.658203227
 21
32.500001167
  0
LINE
  8
MASS
  6
CONTINUOUS
 62
     4
 10
-43.658203227
 20
36.000001167
 11
-43.658203227
 21
40.000001167
  0
LINE
  8
MASS
  6
CONTINUOUS
 62
     4
 10
-43.658203227
 20
26.500001167
 11
-43.658203227
 21
32.500001167
  0
TEXT
  8
MASS
  6
CONTINUOUS
 62
     4
 10
-45.158203227
 20
29.011094850
 40
3.500000000
  1
6
 50
90.000000000
 41
1.000
 51
0.000000000
  7
STANDARD
  0
ENDSEC
  0
EOF
