999
NT  : 16.0 - 919
  0
SECTION
  2
HEADER
  9
$ACADVER
  1
AC1006
  9
$INSBASE
 10
0.000000000
 20
0.000000000
  9
$EXTMIN
 10
-38.907907241
 20
-10.020426847
  9
$EXTMAX
 10
36.464066963
 20
22.707497577
  9
$LIMMIN
 10
-38.907907241
 20
-10.020426847
  9
$LIMMAX
 10
36.464066963
 20
22.707497577
  9
$AUNITS
 70
     2
  9
$ANGBASE
 50
0.000
  9
$ANGDIR
 70
     0
  0
ENDSEC
  0
SECTION
  2
TABLES
  0
TABLE
  2
LTYPE
 70
     8
  0
LTYPE
  2
PUNKT
 70
    64
  3
..............
 72
    65
 73
     2
 40
1.500
 49
0.700
 49
-0.800
  0
LTYPE
  2
GESTRICHELT
 70
    64
  3
-- -- -- -- --
 72
    65
 73
     7
 40
2.800
 49
0.900
 49
0.000
 49
0.900
 49
0.000
 49
0.200
 49
0.000
 49
-0.800
  0
LTYPE
  2
STRICHPUNKT
 70
    64
  3
--.--.--.--.--
 72
    65
 73
     4
 40
8.800
 49
5.500
 49
-1.300
 49
0.700
 49
-1.300
  0
LTYPE
  2
STRICHPUNKT
 70
    64
  3
--.--.--.--.--
 72
    65
 73
     4
 40
8.800
 49
5.500
 49
-1.300
 49
0.700
 49
-1.300
  0
LTYPE
  2
STRICHPUNKT
 70
    64
  3
--.--.--.--.--
 72
    65
 73
     4
 40
8.800
 49
5.500
 49
-1.300
 49
0.700
 49
-1.300
  0
LTYPE
  2
PHANTOM
 70
    64
  3
--..--..--..--
 72
    65
 73
     6
 40
14.200
 49
7.000
 49
-1.800
 49
0.900
 49
-1.800
 49
0.900
 49
-1.800
  0
LTYPE
  2
PHANTOM
 70
    64
  3
--..--..--..--
 72
    65
 73
     6
 40
14.200
 49
7.000
 49
-1.800
 49
0.900
 49
-1.800
 49
0.900
 49
-1.800
  0
LTYPE
  2
PHANTOM
 70
    64
  3
--..--..--..--
 72
    65
 73
     6
 40
14.200
 49
7.000
 49
-1.800
 49
0.900
 49
-1.800
 49
0.900
 49
-1.800
  0
ENDTAB
  0
ENDSEC
  0
SECTION
  2
BLOCKS
  0
ENDSEC
  0
SECTION
  2
ENTITIES
  0
LINE
  8
ZAPFEN
  6
CONTINUOUS
 62
     4
 10
-15.000000000
 20
-1.800000000
 11
-14.800000000
 21
-2.000000000
  0
LINE
  8
AUFNAHME
  6
CONTINUOUS
 62
     7
 10
0.000000000
 20
-2.000000000
 11
1.000000000
 21
-2.000000000
  0
ARC
  8
AUFNAHME
  6
CONTINUOUS
 62
     7
 10
5.500000000
 20
-10.229347826
 40
9.379347826
 50
90.000000000
 51
118.670870839
  0
ARC
  8
AUFNAHME
  6
CONTINUOUS
 62
     7
 10
5.500000000
 20
10.229347826
 40
9.379347826
 50
-113.068685573
 51
-90.000000000
  0
LINE
  8
AUFNAHME
  6
CONTINUOUS
 62
     7
 10
5.500000000
 20
-0.850000000
 11
9.007106781
 21
-0.755566725
  0
LINE
  8
AUFNAHME
  6
CONTINUOUS
 62
     7
 10
9.007106781
 20
0.755566725
 11
5.500000000
 21
0.850000000
  0
LINE
  8
ZAPFEN
  6
CONTINUOUS
 62
     4
 10
-15.000000000
 20
-1.800000000
 11
-15.000000000
 21
1.600000000
  0
LINE
  8
ZAPFEN
  6
CONTINUOUS
 62
     4
 10
-15.000000000
 20
1.600000000
 11
-14.800000000
 21
1.600000000
  0
LINE
  8
ZAPFEN
  6
CONTINUOUS
 62
     4
 10
-14.800000000
 20
1.600000000
 11
-14.800000000
 21
-2.000000000
  0
LINE
  8
AUFNAHME
  6
CONTINUOUS
 62
     7
 10
1.000000000
 20
1.600000000
 11
0.000000000
 21
1.600000000
  0
LINE
  8
AUFNAHME
  6
CONTINUOUS
 62
     7
 10
1.000000000
 20
-2.000000000
 11
1.000000000
 21
1.600000000
  0
LINE
  8
AUFNAHME
  6
CONTINUOUS
 62
     7
 10
5.500000000
 20
-0.850000000
 11
5.500000000
 21
0.850000000
  0
LINE
  8
AUFNAHME
  6
CONTINUOUS
 62
     7
 10
1.824877997
 20
1.600000000
 11
1.000000000
 21
1.600000000
  0
ARC
  8
AUFNAHME
  6
CONTINUOUS
 62
     7
 10
8.867320875
 20
-2.073418008
 40
2.832436181
 50
87.171199378
 51
94.328299378
  0
ARC
  8
AUFNAHME
  6
CONTINUOUS
 62
     7
 10
8.779490385
 20
0.000000000
 40
0.761426961
 50
99.520241294
 51
-99.520241294
  0
ARC
  8
AUFNAHME
  6
CONTINUOUS
 62
     7
 10
8.856255378
 20
1.227842033
 40
1.989137111
 50
-95.848849612
 51
-85.650649143
  0
LINE
  8
AUFNAHME
  6
CONTINUOUS
 62
     7
 10
9.213846399
 20
-0.750000000
 11
9.007106781
 21
-0.755566725
  0
ARC
  8
AUFNAHME
  6
CONTINUOUS
 62
     7
 10
9.406031799
 20
1.884487608
 40
1.159371290
 50
-102.232679256
 51
-99.541788899
  0
LINE
  8
AUFNAHME
  6
CONTINUOUS
 62
     7
 10
9.007106781
 20
0.755566725
 11
9.160381611
 21
0.751439607
  0
LINE
  8
AUFNAHME
  6
CONTINUOUS
 62
     7
 10
9.992499616
 20
0.804257697
 11
9.982339437
 21
0.832172561
  0
ARC
  8
AUFNAHME
  6
CONTINUOUS
 62
     7
 10
9.801164741
 20
0.750879644
 40
0.198576959
 50
24.165729039
 51
77.651013031
  0
LINE
  8
AUFNAHME
  6
CONTINUOUS
 62
     7
 10
9.996722572
 20
0.786058463
 11
9.992499616
 21
0.804257697
  0
LINE
  8
AUFNAHME
  6
CONTINUOUS
 62
     7
 10
9.996722572
 20
0.786058463
 11
9.903042130
 21
-0.683614390
  0
LINE
  8
AUFNAHME
  6
CONTINUOUS
 62
     7
 10
9.340452481
 20
0.862087968
 11
9.370673440
 21
0.894620508
  0
LINE
  8
AUFNAHME
  6
CONTINUOUS
 62
     7
 10
9.370673440
 20
0.894620508
 11
9.843633535
 21
0.944862144
  0
ARC
  8
AUFNAHME
  6
CONTINUOUS
 62
     7
 10
8.378281436
 20
1.742666970
 40
1.304297703
 50
-50.161603105
 51
-42.464752027
  0
ARC
  8
AUFNAHME
  6
CONTINUOUS
 62
     7
 10
18.121916543
 20
-1.230390994
 40
8.237042022
 50
176.193895293
 51
176.885798934
  0
ARC
  8
AUFNAHME
  6
CONTINUOUS
 62
     7
 10
9.892104473
 20
-1.607282823
 40
0.824384374
 50
89.642282363
 51
101.690797943
  0
LINE
  8
AUFNAHME
  6
CONTINUOUS
 62
     7
 10
9.725059448
 20
-0.800000000
 11
9.160381611
 21
0.751439607
  0
LINE
  8
AUFNAHME
  6
CONTINUOUS
 62
     7
 10
9.263846399
 20
-0.800000000
 11
9.725059448
 21
-0.800000000
  0
LINE
  8
AUFNAHME
  6
CONTINUOUS
 62
     7
 10
9.263846399
 20
-0.800000000
 11
9.213846399
 21
-0.750000000
  0
LINE
  8
AUFNAHME
  6
CONTINUOUS
 62
     7
 10
8.653553391
 20
-0.750940004
 11
8.653553391
 21
0.750940004
  0
LINE
  8
AUFNAHME
  6
CONTINUOUS
 62
     7
 10
9.007106781
 20
0.755566725
 11
9.007106781
 21
-0.755566725
  0
LINE
  8
AUFNAHME
  6
CONTINUOUS
 62
     7
 10
9.903042130
 20
-0.683614390
 11
9.340452481
 21
0.862087968
  0
LINE
  8
ZAPFEN
  6
STRICHPUNKT
 62
     4
 10
10.334120913
 20
0.000000000
 11
-15.977079944
 21
0.000000000
  0
LINE
  8
ZAPFEN
  6
CONTINUOUS
 62
     4
 10
0.000000000
 20
1.600000000
 11
-14.800000000
 21
1.600000000
  0
LINE
  8
AUFNAHME
  6
CONTINUOUS
 62
     7
 10
-14.800000000
 20
1.600000000
 11
-14.800000000
 21
1.600000000
  0
LINE
  8
ZAPFEN
  6
CONTINUOUS
 62
     4
 10
-14.800000000
 20
-2.000000000
 11
0.000000000
 21
-2.000000000
  0
TEXT
  8
MASS
  6
CONTINUOUS
 62
     4
 10
-17.954028283
 20
6.209398778
 40
3.500000000
  1
615.566
 50
0.000000000
 41
1.000
 51
0.000000000
  7
STANDARD
  0
LINE
  8
MASS
  6
CONTINUOUS
 62
     4
 10
-15.000000000
 20
-11.699564266
 11
-15.000000000
 21
-1.800000000
  0
LINE
  8
MASS
  6
CONTINUOUS
 62
     4
 10
-15.000000000
 20
-9.699564266
 11
-11.499999994
 21
-9.249564311
  0
LINE
  8
MASS
  6
CONTINUOUS
 62
     4
 10
-11.499999994
 20
-9.249564311
 11
-11.500000006
 21
-10.149564311
  0
LINE
  8
MASS
  6
CONTINUOUS
 62
     4
 10
-11.500000006
 20
-10.149564311
 11
-15.000000000
 21
-9.699564266
  0
LINE
  8
MASS
  6
CONTINUOUS
 62
     4
 10
0.000000000
 20
-11.699564457
 11
0.000000000
 21
-2.000000000
  0
LINE
  8
MASS
  6
CONTINUOUS
 62
     4
 10
0.000000000
 20
-9.699564457
 11
-3.500000006
 21
-10.149564412
  0
LINE
  8
MASS
  6
CONTINUOUS
 62
     4
 10
-3.500000006
 20
-10.149564412
 11
-3.499999994
 21
-9.249564412
  0
LINE
  8
MASS
  6
CONTINUOUS
 62
     4
 10
-3.499999994
 20
-9.249564412
 11
0.000000000
 21
-9.699564457
  0
LINE
  8
MASS
  6
CONTINUOUS
 62
     4
 10
-11.500000000
 20
-9.699564311
 11
-3.500000000
 21
-9.699564412
  0
TEXT
  8
MASS
  6
CONTINUOUS
 62
     4
 10
-8.672500149
 20
-8.199564347
 40
3.500000000
  1
15
 50
359.999999271
 41
1.000
 51
0.000000000
  7
STANDARD
  0
LINE
  8
MASS
  6
CONTINUOUS
 62
     4
 10
0.000000000
 20
-11.699564457
 11
0.000000000
 21
-2.000000000
  0
LINE
  8
MASS
  6
CONTINUOUS
 62
     4
 10
0.000000000
 20
-9.699564457
 11
-3.500000023
 21
-9.249564637
  0
LINE
  8
MASS
  6
CONTINUOUS
 62
     4
 10
-3.500000023
 20
-9.249564637
 11
-3.499999977
 21
-10.149564637
  0
LINE
  8
MASS
  6
CONTINUOUS
 62
     4
 10
-3.499999977
 20
-10.149564637
 11
0.000000000
 21
-9.699564457
  0
LINE
  8
MASS
  6
CONTINUOUS
 62
     4
 10
-3.500000000
 20
-9.699564637
 11
-7.500000000
 21
-9.699564843
  0
LINE
  8
MASS
  6
CONTINUOUS
 62
     4
 10
9.996722572
 20
-11.699563943
 11
9.996722572
 21
0.786058463
  0
LINE
  8
MASS
  6
CONTINUOUS
 62
     4
 10
9.996722572
 20
-9.699563943
 11
13.496722596
 21
-10.149563763
  0
LINE
  8
MASS
  6
CONTINUOUS
 62
     4
 10
13.496722596
 20
-10.149563763
 11
13.496722549
 21
-9.249563763
  0
LINE
  8
MASS
  6
CONTINUOUS
 62
     4
 10
13.496722549
 20
-9.249563763
 11
9.996722572
 21
-9.699563943
  0
LINE
  8
MASS
  6
CONTINUOUS
 62
     4
 10
13.496722572
 20
-9.699563763
 11
17.496722572
 21
-9.699563557
  0
LINE
  8
MASS
  6
CONTINUOUS
 62
     4
 10
0.000000000
 20
-9.699564457
 11
9.996722572
 21
-9.699563943
  0
TEXT
  8
MASS
  6
CONTINUOUS
 62
     4
 10
3.716486097
 20
-8.199564266
 40
3.500000000
  1
10
 50
0.000002947
 41
1.000
 51
0.000000000
  7
STANDARD
  0
LINE
  8
MASS
  6
CONTINUOUS
 62
     4
 10
5.500000000
 20
11.501520729
 11
5.500000000
 21
0.850000000
  0
LINE
  8
MASS
  6
CONTINUOUS
 62
     4
 10
5.500000000
 20
9.501520729
 11
2.000000054
 21
9.951521145
  0
LINE
  8
MASS
  6
CONTINUOUS
 62
     4
 10
2.000000054
 20
9.951521145
 11
1.999999946
 21
9.051521145
  0
LINE
  8
MASS
  6
CONTINUOUS
 62
     4
 10
1.999999946
 20
9.051521145
 11
5.500000000
 21
9.501520729
  0
LINE
  8
MASS
  6
CONTINUOUS
 62
     4
 10
2.000000000
 20
9.501521145
 11
-3.069677086
 21
9.501521748
  0
LINE
  8
MASS
  6
CONTINUOUS
 62
     4
 10
9.996722572
 20
11.501520194
 11
9.996722572
 21
0.786058463
  0
LINE
  8
MASS
  6
CONTINUOUS
 62
     4
 10
9.996722572
 20
9.501520194
 11
13.496722519
 21
9.051519778
  0
LINE
  8
MASS
  6
CONTINUOUS
 62
     4
 10
13.496722519
 20
9.051519778
 11
13.496722626
 21
9.951519778
  0
LINE
  8
MASS
  6
CONTINUOUS
 62
     4
 10
13.496722626
 20
9.951519778
 11
9.996722572
 21
9.501520194
  0
LINE
  8
MASS
  6
CONTINUOUS
 62
     4
 10
13.496722572
 20
9.501519778
 11
17.496722572
 21
9.501519302
  0
LINE
  8
MASS
  6
CONTINUOUS
 62
     4
 10
5.500000000
 20
9.501520729
 11
9.996722572
 21
9.501520194
  0
TEXT
  8
MASS
  6
CONTINUOUS
 62
     4
 10
-3.069676887
 20
11.177437705
 40
3.500000000
  1
4.5
 50
359.999993185
 41
1.000
 51
0.000000000
  7
STANDARD
  0
LINE
  8
MASS
  6
CONTINUOUS
 62
     4
 10
-23.899368274
 20
-2.000000398
 11
-14.800000000
 21
-2.000000000
  0
LINE
  8
MASS
  6
CONTINUOUS
 62
     4
 10
-21.899368274
 20
-2.000000310
 11
-22.349368427
 21
1.499999670
  0
LINE
  8
MASS
  6
CONTINUOUS
 62
     4
 10
-22.349368427
 20
1.499999670
 11
-21.449368427
 21
1.499999709
  0
LINE
  8
MASS
  6
CONTINUOUS
 62
     4
 10
-21.449368427
 20
1.499999709
 11
-21.899368274
 21
-2.000000310
  0
LINE
  8
MASS
  6
CONTINUOUS
 62
     4
 10
-21.899368427
 20
1.499999690
 11
-21.899368449
 21
1.999999793
  0
TEXT
  8
MASS
  6
CONTINUOUS
 62
     4
 10
-23.029350869
 20
6.265703898
 40
3.500000000
  1
4
 50
90.000002504
 41
1.000
 51
0.000000000
  7
STANDARD
  0
CIRCLE
  8
MASS
  6
CONTINUOUS
 62
     4
 10
-24.279350770
 20
4.015703844
 40
1.250000000
  0
LINE
  8
MASS
  6
CONTINUOUS
 62
     4
 10
-23.029350716
 20
2.765703898
 11
-25.529350825
 21
5.265703789
  0
LINE
  8
MASS
  6
CONTINUOUS
 62
     4
 10
26.085510375
 20
0.949457315
 11
9.801164741
 21
0.949456604
  0
LINE
  8
MASS
  6
CONTINUOUS
 62
     4
 10
24.085510375
 20
0.949457228
 11
24.535510222
 21
4.449457248
  0
LINE
  8
MASS
  6
CONTINUOUS
 62
     4
 10
24.535510222
 20
4.449457248
 11
23.635510222
 21
4.449457208
  0
LINE
  8
MASS
  6
CONTINUOUS
 62
     4
 10
23.635510222
 20
4.449457208
 11
24.085510375
 21
0.949457228
  0
LINE
  8
MASS
  6
CONTINUOUS
 62
     4
 10
24.085510222
 20
4.449457228
 11
24.085509438
 21
22.386635573
  0
LINE
  8
MASS
  6
CONTINUOUS
 62
     4
 10
24.085510458
 20
-0.949456026
 11
24.085510375
 21
0.949457228
  0
CIRCLE
  8
MASS
  6
CONTINUOUS
 62
     4
 10
21.706451313
 20
6.088510469
 40
1.250000000
  0
LINE
  8
MASS
  6
CONTINUOUS
 62
     4
 10
22.956451367
 20
4.838510523
 11
20.456451258
 21
7.338510414
  0
TEXT
  8
MASS
  6
CONTINUOUS
 62
     4
 10
22.956451214
 20
8.338510523
 40
3.500000000
  1
1.9-3.0
 50
90.000002504
 41
1.000
 51
0.000000000
  7
STANDARD
  0
ENDSEC
  0
EOF
