999
NT  : 16.0 - 919
  0
SECTION
  2
HEADER
  9
$ACADVER
  1
AC1006
  9
$INSBASE
 10
0.000000000
 20
0.000000000
  9
$EXTMIN
 10
-39.370531150
 20
-9.576446213
  9
$EXTMAX
 10
40.471143658
 20
25.092306020
  9
$LIMMIN
 10
-39.370531150
 20
-9.576446213
  9
$LIMMAX
 10
40.471143658
 20
25.092306020
  9
$AUNITS
 70
     2
  9
$ANGBASE
 50
0.000
  9
$ANGDIR
 70
     0
  0
ENDSEC
  0
SECTION
  2
TABLES
  0
TABLE
  2
LTYPE
 70
     8
  0
LTYPE
  2
PUNKT
 70
    64
  3
..............
 72
    65
 73
     2
 40
1.500
 49
0.700
 49
-0.800
  0
LTYPE
  2
GESTRICHELT
 70
    64
  3
-- -- -- -- --
 72
    65
 73
     7
 40
2.800
 49
0.900
 49
0.000
 49
0.900
 49
0.000
 49
0.200
 49
0.000
 49
-0.800
  0
LTYPE
  2
STRICHPUNKT
 70
    64
  3
--.--.--.--.--
 72
    65
 73
     4
 40
8.800
 49
5.500
 49
-1.300
 49
0.700
 49
-1.300
  0
LTYPE
  2
STRICHPUNKT
 70
    64
  3
--.--.--.--.--
 72
    65
 73
     4
 40
8.800
 49
5.500
 49
-1.300
 49
0.700
 49
-1.300
  0
LTYPE
  2
STRICHPUNKT
 70
    64
  3
--.--.--.--.--
 72
    65
 73
     4
 40
8.800
 49
5.500
 49
-1.300
 49
0.700
 49
-1.300
  0
LTYPE
  2
PHANTOM
 70
    64
  3
--..--..--..--
 72
    65
 73
     6
 40
14.200
 49
7.000
 49
-1.800
 49
0.900
 49
-1.800
 49
0.900
 49
-1.800
  0
LTYPE
  2
PHANTOM
 70
    64
  3
--..--..--..--
 72
    65
 73
     6
 40
14.200
 49
7.000
 49
-1.800
 49
0.900
 49
-1.800
 49
0.900
 49
-1.800
  0
LTYPE
  2
PHANTOM
 70
    64
  3
--..--..--..--
 72
    65
 73
     6
 40
14.200
 49
7.000
 49
-1.800
 49
0.900
 49
-1.800
 49
0.900
 49
-1.800
  0
ENDTAB
  0
ENDSEC
  0
SECTION
  2
BLOCKS
  0
ENDSEC
  0
SECTION
  2
ENTITIES
  0
TEXT
  8
MASS
  6
CONTINUOUS
 62
     4
 10
-13.657551595
 20
4.457070300
 40
3.500000000
  1
615.561
 50
0.000000000
 41
1.000
 51
0.000000000
  7
STANDARD
  0
LINE
  8
ZAPFEN
  6
CONTINUOUS
 62
     4
 10
0.000000000
 20
1.600000000
 11
-14.800000000
 21
1.600000000
  0
LINE
  8
ZAPFEN
  6
CONTINUOUS
 62
     4
 10
-14.800000000
 20
-2.000000000
 11
0.000000000
 21
-2.000000000
  0
LINE
  8
MASS
  6
CONTINUOUS
 62
     4
 10
8.900000000
 20
9.829070473
 11
8.900000000
 21
0.150000000
  0
LINE
  8
MASS
  6
CONTINUOUS
 62
     4
 10
8.900000000
 20
7.829070473
 11
5.400000053
 21
8.279070887
  0
LINE
  8
MASS
  6
CONTINUOUS
 62
     4
 10
5.400000053
 20
8.279070887
 11
5.399999947
 21
7.379070887
  0
LINE
  8
MASS
  6
CONTINUOUS
 62
     4
 10
5.399999947
 20
7.379070887
 11
8.900000000
 21
7.829070473
  0
LINE
  8
MASS
  6
CONTINUOUS
 62
     4
 10
5.400000000
 20
7.829070887
 11
1.128225975
 21
7.829071394
  0
LINE
  8
MASS
  6
CONTINUOUS
 62
     4
 10
9.996196926
 20
9.829070343
 11
9.996196926
 21
0.127315773
  0
LINE
  8
MASS
  6
CONTINUOUS
 62
     4
 10
9.996196926
 20
7.829070343
 11
13.496196872
 21
7.379069928
  0
LINE
  8
MASS
  6
CONTINUOUS
 62
     4
 10
13.496196872
 20
7.379069928
 11
13.496196979
 21
8.279069928
  0
LINE
  8
MASS
  6
CONTINUOUS
 62
     4
 10
13.496196979
 20
8.279069928
 11
9.996196926
 21
7.829070343
  0
LINE
  8
MASS
  6
CONTINUOUS
 62
     4
 10
13.496196926
 20
7.829069928
 11
17.496196926
 21
7.829069454
  0
LINE
  8
MASS
  6
CONTINUOUS
 62
     4
 10
8.900000000
 20
7.829070473
 11
9.996196926
 21
7.829070343
  0
TEXT
  8
MASS
  6
CONTINUOUS
 62
     4
 10
1.128226143
 20
9.248423210
 40
3.500000000
  1
1.1
 50
359.999993210
 41
1.000
 51
0.000000000
  7
STANDARD
  0
LINE
  8
MASS
  6
CONTINUOUS
 62
     4
 10
0.000000000
 20
-11.217809200
 11
0.000000000
 21
-2.000000000
  0
LINE
  8
MASS
  6
CONTINUOUS
 62
     4
 10
0.000000000
 20
-9.217809200
 11
-3.499999990
 21
-8.767809121
  0
LINE
  8
MASS
  6
CONTINUOUS
 62
     4
 10
-3.499999990
 20
-8.767809121
 11
-3.500000010
 21
-9.667809121
  0
LINE
  8
MASS
  6
CONTINUOUS
 62
     4
 10
-3.500000010
 20
-9.667809121
 11
0.000000000
 21
-9.217809200
  0
LINE
  8
MASS
  6
CONTINUOUS
 62
     4
 10
-3.500000000
 20
-9.217809121
 11
-7.500000000
 21
-9.217809031
  0
LINE
  8
MASS
  6
CONTINUOUS
 62
     4
 10
9.996196926
 20
-11.217809426
 11
9.996196926
 21
0.127315773
  0
LINE
  8
MASS
  6
CONTINUOUS
 62
     4
 10
9.996196926
 20
-9.217809426
 11
13.496196916
 21
-9.667809504
  0
LINE
  8
MASS
  6
CONTINUOUS
 62
     4
 10
13.496196916
 20
-9.667809504
 11
13.496196936
 21
-8.767809504
  0
LINE
  8
MASS
  6
CONTINUOUS
 62
     4
 10
13.496196936
 20
-8.767809504
 11
9.996196926
 21
-9.217809426
  0
LINE
  8
MASS
  6
CONTINUOUS
 62
     4
 10
13.496196926
 20
-9.217809504
 11
17.496196926
 21
-9.217809595
  0
LINE
  8
MASS
  6
CONTINUOUS
 62
     4
 10
0.000000000
 20
-9.217809200
 11
9.996196926
 21
-9.217809426
  0
TEXT
  8
MASS
  6
CONTINUOUS
 62
     4
 10
3.716223385
 20
-7.717809284
 40
3.500000000
  1
10
 50
359.999998709
 41
1.000
 51
0.000000000
  7
STANDARD
  0
LINE
  8
MASS
  6
CONTINUOUS
 62
     4
 10
-15.000000000
 20
-11.236556339
 11
-15.000000000
 21
-1.800000000
  0
LINE
  8
MASS
  6
CONTINUOUS
 62
     4
 10
-15.000000000
 20
-9.236556339
 11
-11.499999994
 21
-8.786556384
  0
LINE
  8
MASS
  6
CONTINUOUS
 62
     4
 10
-11.499999994
 20
-8.786556384
 11
-11.500000006
 21
-9.686556384
  0
LINE
  8
MASS
  6
CONTINUOUS
 62
     4
 10
-11.500000006
 20
-9.686556384
 11
-15.000000000
 21
-9.236556339
  0
LINE
  8
MASS
  6
CONTINUOUS
 62
     4
 10
0.000000000
 20
-11.236556530
 11
0.000000000
 21
-2.000000000
  0
LINE
  8
MASS
  6
CONTINUOUS
 62
     4
 10
0.000000000
 20
-9.236556530
 11
-3.500000006
 21
-9.686556485
  0
LINE
  8
MASS
  6
CONTINUOUS
 62
     4
 10
-3.500000006
 20
-9.686556485
 11
-3.499999994
 21
-8.786556485
  0
LINE
  8
MASS
  6
CONTINUOUS
 62
     4
 10
-3.499999994
 20
-8.786556485
 11
0.000000000
 21
-9.236556530
  0
LINE
  8
MASS
  6
CONTINUOUS
 62
     4
 10
-11.500000000
 20
-9.236556384
 11
-3.500000000
 21
-9.236556485
  0
TEXT
  8
MASS
  6
CONTINUOUS
 62
     4
 10
-8.672500149
 20
-7.736556420
 40
3.500000000
  1
15
 50
359.999999271
 41
1.000
 51
0.000000000
  7
STANDARD
  0
LINE
  8
MASS
  6
CONTINUOUS
 62
     4
 10
-21.822913037
 20
-2.000000307
 11
-14.800000000
 21
-2.000000000
  0
LINE
  8
MASS
  6
CONTINUOUS
 62
     4
 10
-19.822913037
 20
-2.000000220
 11
-20.272913190
 21
1.499999761
  0
LINE
  8
MASS
  6
CONTINUOUS
 62
     4
 10
-20.272913190
 20
1.499999761
 11
-19.372913190
 21
1.499999800
  0
LINE
  8
MASS
  6
CONTINUOUS
 62
     4
 10
-19.372913190
 20
1.499999800
 11
-19.822913037
 21
-2.000000220
  0
LINE
  8
MASS
  6
CONTINUOUS
 62
     4
 10
-19.822913190
 20
1.499999780
 11
-19.822913212
 21
1.999999855
  0
TEXT
  8
MASS
  6
CONTINUOUS
 62
     4
 10
-21.391449549
 20
5.985282326
 40
3.500000000
  1
4
 50
90.000002504
 41
1.000
 51
0.000000000
  7
STANDARD
  0
CIRCLE
  8
MASS
  6
CONTINUOUS
 62
     4
 10
-22.641449450
 20
3.735282272
 40
1.250000000
  0
LINE
  8
MASS
  6
CONTINUOUS
 62
     4
 10
-21.391449396
 20
2.485282326
 11
-23.891449505
 21
4.985282217
  0
LINE
  8
MASS
  6
CONTINUOUS
 62
     4
 10
27.992061907
 20
0.199726617
 11
9.900555094
 21
0.199725826
  0
LINE
  8
MASS
  6
CONTINUOUS
 62
     4
 10
25.992061907
 20
0.199726530
 11
26.442061754
 21
3.699726549
  0
LINE
  8
MASS
  6
CONTINUOUS
 62
     4
 10
26.442061754
 20
3.699726549
 11
25.542061754
 21
3.699726510
  0
LINE
  8
MASS
  6
CONTINUOUS
 62
     4
 10
25.542061754
 20
3.699726510
 11
25.992061907
 21
0.199726530
  0
LINE
  8
MASS
  6
CONTINUOUS
 62
     4
 10
25.992061754
 20
3.699726530
 11
25.992060834
 21
24.752416292
  0
LINE
  8
MASS
  6
CONTINUOUS
 62
     4
 10
25.992061925
 20
-0.199725152
 11
25.992061907
 21
0.199726530
  0
CIRCLE
  8
MASS
  6
CONTINUOUS
 62
     4
 10
22.075776797
 20
7.305853621
 40
1.250000000
  0
LINE
  8
MASS
  6
CONTINUOUS
 62
     4
 10
23.325776852
 20
6.055853675
 11
20.825776742
 21
8.555853566
  0
TEXT
  8
MASS
  6
CONTINUOUS
 62
     4
 10
23.325776699
 20
9.555853675
 40
3.500000000
  1
0.4-0.9
 50
90.000002504
 41
1.000
 51
0.000000000
  7
STANDARD
  0
LINE
  8
ZAPFEN
  6
CONTINUOUS
 62
     4
 10
-15.000000000
 20
-1.800000000
 11
-14.800000000
 21
-2.000000000
  0
LINE
  8
AUFNAHME
  6
CONTINUOUS
 62
     7
 10
0.000000000
 20
-2.000000000
 11
3.000000000
 21
-2.000000000
  0
ARC
  8
AUFNAHME
  6
CONTINUOUS
 62
     7
 10
8.900000000
 20
-10.483108108
 40
10.333108108
 50
90.000000000
 51
124.818605494
  0
ARC
  8
AUFNAHME
  6
CONTINUOUS
 62
     7
 10
8.900000000
 20
10.483108108
 40
10.333108108
 50
-120.719921142
 51
-90.000000000
  0
LINE
  8
AUFNAHME
  6
CONTINUOUS
 62
     7
 10
8.900000000
 20
-0.150000000
 11
9.582842712
 21
-0.150000000
  0
LINE
  8
AUFNAHME
  6
CONTINUOUS
 62
     7
 10
9.582842712
 20
0.150000000
 11
8.900000000
 21
0.150000000
  0
LINE
  8
ZAPFEN
  6
CONTINUOUS
 62
     4
 10
-15.000000000
 20
-1.800000000
 11
-15.000000000
 21
1.600000000
  0
LINE
  8
ZAPFEN
  6
CONTINUOUS
 62
     4
 10
-15.000000000
 20
1.600000000
 11
-14.800000000
 21
1.600000000
  0
LINE
  8
ZAPFEN
  6
CONTINUOUS
 62
     4
 10
-14.800000000
 20
1.600000000
 11
-14.800000000
 21
-2.000000000
  0
LINE
  8
AUFNAHME
  6
CONTINUOUS
 62
     7
 10
3.000000000
 20
1.600000000
 11
0.000000000
 21
1.600000000
  0
LINE
  8
AUFNAHME
  6
CONTINUOUS
 62
     7
 10
3.000000000
 20
-2.000000000
 11
3.000000000
 21
1.600000000
  0
LINE
  8
AUFNAHME
  6
CONTINUOUS
 62
     7
 10
3.621409893
 20
1.600000000
 11
3.000000000
 21
1.600000000
  0
ARC
  8
AUFNAHME
  6
CONTINUOUS
 62
     7
 10
9.500000000
 20
0.000000000
 40
0.150000000
 50
112.987126296
 51
-112.987126296
  0
ARC
  8
AUFNAHME
  6
CONTINUOUS
 62
     7
 10
9.552477212
 20
-0.334976517
 40
0.485926214
 50
86.417255760
 51
103.211406673
  0
ARC
  8
AUFNAHME
  6
CONTINUOUS
 62
     7
 10
9.541111312
 20
0.200028436
 40
0.352507327
 50
-106.427538534
 51
-83.201123899
  0
LINE
  8
AUFNAHME
  6
CONTINUOUS
 62
     7
 10
9.724669392
 20
-0.150000000
 11
9.582842712
 21
-0.150000000
  0
ARC
  8
AUFNAHME
  6
CONTINUOUS
 62
     7
 10
9.776477995
 20
-0.290553882
 40
0.149798281
 50
86.319266527
 51
110.234045179
  0
ARC
  8
AUFNAHME
  6
CONTINUOUS
 62
     7
 10
10.089412370
 20
4.579887851
 40
4.730686387
 50
-93.676159992
 51
-91.296211369
  0
ARC
  8
AUFNAHME
  6
CONTINUOUS
 62
     7
 10
9.682035152
 20
0.373319157
 40
0.233026302
 50
-106.595876108
 51
-96.186462334
  0
LINE
  8
AUFNAHME
  6
CONTINUOUS
 62
     7
 10
9.582842712
 20
0.150000000
 11
9.615478322
 21
0.150000000
  0
LINE
  8
AUFNAHME
  6
CONTINUOUS
 62
     7
 10
9.996196926
 20
0.127315773
 11
9.991249361
 21
0.140909096
  0
ARC
  8
AUFNAHME
  6
CONTINUOUS
 62
     7
 10
9.900555094
 20
0.100393054
 40
0.099332772
 50
24.071849499
 51
78.172948656
  0
LINE
  8
AUFNAHME
  6
CONTINUOUS
 62
     7
 10
9.998369426
 20
0.117984707
 11
9.996196926
 21
0.127315773
  0
LINE
  8
AUFNAHME
  6
CONTINUOUS
 62
     7
 10
9.676056740
 20
0.161261820
 11
9.687867012
 21
0.174392340
  0
LINE
  8
AUFNAHME
  6
CONTINUOUS
 62
     7
 10
9.687867012
 20
0.174392340
 11
9.920914159
 21
0.197617064
  0
LINE
  8
AUFNAHME
  6
CONTINUOUS
 62
     7
 10
9.998369426
 20
0.117984707
 11
9.982416270
 21
-0.148800063
  0
LINE
  8
AUFNAHME
  6
CONTINUOUS
 62
     7
 10
9.656923199
 20
0.141649894
 11
9.671159517
 21
0.155879527
  0
LINE
  8
AUFNAHME
  6
CONTINUOUS
 62
     7
 10
9.671159517
 20
0.155879527
 11
9.676056740
 21
0.161261820
  0
LINE
  8
AUFNAHME
  6
CONTINUOUS
 62
     7
 10
9.724669392
 20
-0.150000000
 11
9.615478322
 21
0.150000000
  0
LINE
  8
AUFNAHME
  6
CONTINUOUS
 62
     7
 10
8.900000000
 20
-0.150000000
 11
8.900000000
 21
0.150000000
  0
LINE
  8
AUFNAHME
  6
CONTINUOUS
 62
     7
 10
9.441421356
 20
-0.138088894
 11
9.441421356
 21
0.138088893
  0
LINE
  8
AUFNAHME
  6
CONTINUOUS
 62
     7
 10
9.582842712
 20
0.150000000
 11
9.582842712
 21
-0.150000000
  0
LINE
  8
AUFNAHME
  6
CONTINUOUS
 62
     7
 10
9.786094557
 20
-0.141064595
 11
9.676056740
 21
0.161261820
  0
LINE
  8
ZAPFEN
  6
STRICHPUNKT
 62
     4
 10
10.228464427
 20
0.000000000
 11
-15.649572804
 21
0.000000000
  0
ENDSEC
  0
EOF
