999
NT  : 16.0 - 919
  0
SECTION
  2
HEADER
  9
$ACADVER
  1
AC1006
  9
$INSBASE
 10
0.000000000
 20
0.000000000
  9
$EXTMIN
 10
-35.684279707
 20
-8.609194523
  9
$EXTMAX
 10
36.173271623
 20
22.592701594
  9
$LIMMIN
 10
-35.684279707
 20
-8.609194523
  9
$LIMMAX
 10
36.173271623
 20
22.592701594
  9
$AUNITS
 70
     2
  9
$ANGBASE
 50
0.000
  9
$ANGDIR
 70
     0
  0
ENDSEC
  0
SECTION
  2
TABLES
  0
TABLE
  2
LTYPE
 70
     8
  0
LTYPE
  2
PUNKT
 70
    64
  3
..............
 72
    65
 73
     2
 40
1.500
 49
0.700
 49
-0.800
  0
LTYPE
  2
GESTRICHELT
 70
    64
  3
-- -- -- -- --
 72
    65
 73
     7
 40
2.800
 49
0.900
 49
0.000
 49
0.900
 49
0.000
 49
0.200
 49
0.000
 49
-0.800
  0
LTYPE
  2
STRICHPUNKT
 70
    64
  3
--.--.--.--.--
 72
    65
 73
     4
 40
8.800
 49
5.500
 49
-1.300
 49
0.700
 49
-1.300
  0
LTYPE
  2
STRICHPUNKT
 70
    64
  3
--.--.--.--.--
 72
    65
 73
     4
 40
8.800
 49
5.500
 49
-1.300
 49
0.700
 49
-1.300
  0
LTYPE
  2
STRICHPUNKT
 70
    64
  3
--.--.--.--.--
 72
    65
 73
     4
 40
8.800
 49
5.500
 49
-1.300
 49
0.700
 49
-1.300
  0
LTYPE
  2
PHANTOM
 70
    64
  3
--..--..--..--
 72
    65
 73
     6
 40
14.200
 49
7.000
 49
-1.800
 49
0.900
 49
-1.800
 49
0.900
 49
-1.800
  0
LTYPE
  2
PHANTOM
 70
    64
  3
--..--..--..--
 72
    65
 73
     6
 40
14.200
 49
7.000
 49
-1.800
 49
0.900
 49
-1.800
 49
0.900
 49
-1.800
  0
LTYPE
  2
PHANTOM
 70
    64
  3
--..--..--..--
 72
    65
 73
     6
 40
14.200
 49
7.000
 49
-1.800
 49
0.900
 49
-1.800
 49
0.900
 49
-1.800
  0
ENDTAB
  0
ENDSEC
  0
SECTION
  2
BLOCKS
  0
ENDSEC
  0
SECTION
  2
ENTITIES
  0
LINE
  8
ZAPFEN
  6
CONTINUOUS
 62
     4
 10
-15.000000000
 20
-1.800000000
 11
-14.800000000
 21
-2.000000000
  0
LINE
  8
AUFNAHME
  6
CONTINUOUS
 62
     7
 10
0.000000000
 20
-2.000000000
 11
2.000000000
 21
-2.000000000
  0
ARC
  8
AUFNAHME
  6
CONTINUOUS
 62
     7
 10
6.500000000
 20
-8.257758621
 40
7.707758621
 50
90.000000000
 51
125.720188141
  0
ARC
  8
AUFNAHME
  6
CONTINUOUS
 62
     7
 10
6.500000000
 20
8.257758621
 40
7.707758621
 50
-120.256857913
 51
-90.000000000
  0
LINE
  8
AUFNAHME
  6
CONTINUOUS
 62
     7
 10
6.500000000
 20
-0.550000000
 11
9.007106781
 21
-0.550000000
  0
LINE
  8
AUFNAHME
  6
CONTINUOUS
 62
     7
 10
9.007106781
 20
0.550000000
 11
6.500000000
 21
0.550000000
  0
LINE
  8
ZAPFEN
  6
CONTINUOUS
 62
     4
 10
-15.000000000
 20
-1.800000000
 11
-15.000000000
 21
1.600000000
  0
LINE
  8
ZAPFEN
  6
CONTINUOUS
 62
     4
 10
-15.000000000
 20
1.600000000
 11
-14.800000000
 21
1.600000000
  0
LINE
  8
ZAPFEN
  6
CONTINUOUS
 62
     4
 10
-14.800000000
 20
1.600000000
 11
-14.800000000
 21
-2.000000000
  0
LINE
  8
AUFNAHME
  6
CONTINUOUS
 62
     7
 10
2.000000000
 20
1.600000000
 11
0.000000000
 21
1.600000000
  0
LINE
  8
AUFNAHME
  6
CONTINUOUS
 62
     7
 10
2.000000000
 20
-2.000000000
 11
2.000000000
 21
1.600000000
  0
LINE
  8
AUFNAHME
  6
CONTINUOUS
 62
     7
 10
2.616214076
 20
1.600000000
 11
2.000000000
 21
1.600000000
  0
ARC
  8
AUFNAHME
  6
CONTINUOUS
 62
     7
 10
8.800000000
 20
0.000000000
 40
0.550000000
 50
105.442225738
 51
-105.442225738
  0
ARC
  8
AUFNAHME
  6
CONTINUOUS
 62
     7
 10
8.941120458
 20
-1.432715220
 40
1.983812954
 50
88.093854921
 51
98.334774378
  0
ARC
  8
AUFNAHME
  6
CONTINUOUS
 62
     7
 10
8.909757857
 20
0.874257393
 40
1.427580448
 50
-100.338751754
 51
-86.089877545
  0
LINE
  8
AUFNAHME
  6
CONTINUOUS
 62
     7
 10
9.667711799
 20
-0.550000000
 11
9.007106781
 21
-0.550000000
  0
ARC
  8
AUFNAHME
  6
CONTINUOUS
 62
     7
 10
9.813971239
 20
-1.095081048
 40
0.564362625
 50
85.931508204
 51
105.020143653
  0
ARC
  8
AUFNAHME
  6
CONTINUOUS
 62
     7
 10
10.388936799
 20
7.231928775
 40
7.782475077
 50
-93.941305129
 51
-93.416975328
  0
ARC
  8
AUFNAHME
  6
CONTINUOUS
 62
     7
 10
9.459575078
 20
1.399820645
 40
0.871290829
 50
-102.745879615
 51
-99.861319064
  0
LINE
  8
AUFNAHME
  6
CONTINUOUS
 62
     7
 10
9.007106781
 20
0.550000000
 11
9.267344541
 21
0.550000000
  0
LINE
  8
AUFNAHME
  6
CONTINUOUS
 62
     7
 10
9.992426076
 20
0.604517935
 11
9.982450379
 21
0.631925937
  0
ARC
  8
AUFNAHME
  6
CONTINUOUS
 62
     7
 10
9.801262008
 20
0.550876901
 40
0.198489728
 50
24.099884166
 51
75.641555722
  0
LINE
  8
AUFNAHME
  6
CONTINUOUS
 62
     7
 10
9.996669787
 20
0.586345189
 11
9.992426076
 21
0.604517935
  0
LINE
  8
AUFNAHME
  6
CONTINUOUS
 62
     7
 10
9.424102500
 20
0.649026432
 11
9.463167518
 21
0.691556183
  0
LINE
  8
AUFNAHME
  6
CONTINUOUS
 62
     7
 10
9.463167518
 20
0.691556183
 11
9.850484945
 21
0.743166460
  0
LINE
  8
AUFNAHME
  6
CONTINUOUS
 62
     7
 10
9.996669787
 20
0.586345189
 11
9.925102731
 21
-0.536409539
  0
ARC
  8
AUFNAHME
  6
CONTINUOUS
 62
     7
 10
8.716247947
 20
1.283241768
 40
0.950414205
 50
-51.310282779
 51
-41.859336685
  0
LINE
  8
AUFNAHME
  6
CONTINUOUS
 62
     7
 10
9.667711799
 20
-0.550000000
 11
9.267344541
 21
0.550000000
  0
LINE
  8
AUFNAHME
  6
CONTINUOUS
 62
     7
 10
6.500000000
 20
-0.550000000
 11
6.500000000
 21
0.550000000
  0
LINE
  8
AUFNAHME
  6
CONTINUOUS
 62
     7
 10
8.653553391
 20
-0.530144688
 11
8.653553391
 21
0.530144688
  0
LINE
  8
AUFNAHME
  6
CONTINUOUS
 62
     7
 10
9.007106781
 20
0.550000000
 11
9.007106781
 21
-0.550000000
  0
LINE
  8
AUFNAHME
  6
CONTINUOUS
 62
     7
 10
9.854012157
 20
-0.532140645
 11
9.424102500
 21
0.649026432
  0
LINE
  8
ZAPFEN
  6
STRICHPUNKT
 62
     4
 10
10.585078184
 20
0.000000000
 11
-16.214516660
 21
0.000000000
  0
LINE
  8
ZAPFEN
  6
CONTINUOUS
 62
     4
 10
0.000000000
 20
1.600000000
 11
-14.800000000
 21
1.600000000
  0
LINE
  8
ZAPFEN
  6
CONTINUOUS
 62
     4
 10
-14.800000000
 20
-2.000000000
 11
0.000000000
 21
-2.000000000
  0
LINE
  8
MASS
  6
CONTINUOUS
 62
     4
 10
-15.000000000
 20
-10.303293037
 11
-15.000000000
 21
-1.800000000
  0
LINE
  8
MASS
  6
CONTINUOUS
 62
     4
 10
-15.000000000
 20
-8.303293037
 11
-11.499999994
 21
-7.853293082
  0
LINE
  8
MASS
  6
CONTINUOUS
 62
     4
 10
-11.499999994
 20
-7.853293082
 11
-11.500000006
 21
-8.753293082
  0
LINE
  8
MASS
  6
CONTINUOUS
 62
     4
 10
-11.500000006
 20
-8.753293082
 11
-15.000000000
 21
-8.303293037
  0
LINE
  8
MASS
  6
CONTINUOUS
 62
     4
 10
0.000000000
 20
-10.303293228
 11
0.000000000
 21
-2.000000000
  0
LINE
  8
MASS
  6
CONTINUOUS
 62
     4
 10
0.000000000
 20
-8.303293228
 11
-3.500000006
 21
-8.753293184
  0
LINE
  8
MASS
  6
CONTINUOUS
 62
     4
 10
-3.500000006
 20
-8.753293184
 11
-3.499999994
 21
-7.853293184
  0
LINE
  8
MASS
  6
CONTINUOUS
 62
     4
 10
-3.499999994
 20
-7.853293184
 11
0.000000000
 21
-8.303293228
  0
LINE
  8
MASS
  6
CONTINUOUS
 62
     4
 10
-11.500000000
 20
-8.303293082
 11
-3.500000000
 21
-8.303293184
  0
TEXT
  8
MASS
  6
CONTINUOUS
 62
     4
 10
-8.672500149
 20
-6.803293118
 40
3.500000000
  1
15
 50
359.999999271
 41
1.000
 51
0.000000000
  7
STANDARD
  0
LINE
  8
MASS
  6
CONTINUOUS
 62
     4
 10
0.000000000
 20
-10.303293228
 11
0.000000000
 21
-2.000000000
  0
LINE
  8
MASS
  6
CONTINUOUS
 62
     4
 10
0.000000000
 20
-8.303293228
 11
-3.500000021
 21
-7.853293393
  0
LINE
  8
MASS
  6
CONTINUOUS
 62
     4
 10
-3.500000021
 20
-7.853293393
 11
-3.499999979
 21
-8.753293393
  0
LINE
  8
MASS
  6
CONTINUOUS
 62
     4
 10
-3.499999979
 20
-8.753293393
 11
0.000000000
 21
-8.303293228
  0
LINE
  8
MASS
  6
CONTINUOUS
 62
     4
 10
-3.500000000
 20
-8.303293393
 11
-7.500000000
 21
-8.303293581
  0
LINE
  8
MASS
  6
CONTINUOUS
 62
     4
 10
9.996669787
 20
-10.303292758
 11
9.996669787
 21
0.586345189
  0
LINE
  8
MASS
  6
CONTINUOUS
 62
     4
 10
9.996669787
 20
-8.303292758
 11
13.496669808
 21
-8.753292594
  0
LINE
  8
MASS
  6
CONTINUOUS
 62
     4
 10
13.496669808
 20
-8.753292594
 11
13.496669766
 21
-7.853292594
  0
LINE
  8
MASS
  6
CONTINUOUS
 62
     4
 10
13.496669766
 20
-7.853292594
 11
9.996669787
 21
-8.303292758
  0
LINE
  8
MASS
  6
CONTINUOUS
 62
     4
 10
13.496669787
 20
-8.303292594
 11
17.496669787
 21
-8.303292406
  0
LINE
  8
MASS
  6
CONTINUOUS
 62
     4
 10
0.000000000
 20
-8.303293228
 11
9.996669787
 21
-8.303292758
  0
TEXT
  8
MASS
  6
CONTINUOUS
 62
     4
 10
3.716459711
 20
-6.803293054
 40
3.500000000
  1
10
 50
0.000002692
 41
1.000
 51
0.000000000
  7
STANDARD
  0
LINE
  8
MASS
  6
CONTINUOUS
 62
     4
 10
6.500000000
 20
9.715788174
 11
6.500000000
 21
0.550000000
  0
LINE
  8
MASS
  6
CONTINUOUS
 62
     4
 10
6.500000000
 20
7.715788174
 11
3.000000053
 21
8.165788585
  0
LINE
  8
MASS
  6
CONTINUOUS
 62
     4
 10
3.000000053
 20
8.165788585
 11
2.999999947
 21
7.265788585
  0
LINE
  8
MASS
  6
CONTINUOUS
 62
     4
 10
2.999999947
 20
7.265788585
 11
6.500000000
 21
7.715788174
  0
LINE
  8
MASS
  6
CONTINUOUS
 62
     4
 10
3.000000000
 20
7.715788585
 11
-2.399660320
 21
7.715789219
  0
LINE
  8
MASS
  6
CONTINUOUS
 62
     4
 10
9.982450379
 20
9.715787765
 11
9.982450379
 21
0.631925937
  0
LINE
  8
MASS
  6
CONTINUOUS
 62
     4
 10
9.982450379
 20
7.715787765
 11
13.482450326
 21
7.265787354
  0
LINE
  8
MASS
  6
CONTINUOUS
 62
     4
 10
13.482450326
 20
7.265787354
 11
13.482450432
 21
8.165787354
  0
LINE
  8
MASS
  6
CONTINUOUS
 62
     4
 10
13.482450432
 20
8.165787354
 11
9.982450379
 21
7.715787765
  0
LINE
  8
MASS
  6
CONTINUOUS
 62
     4
 10
13.482450379
 20
7.715787354
 11
17.482450379
 21
7.715786884
  0
LINE
  8
MASS
  6
CONTINUOUS
 62
     4
 10
6.500000000
 20
7.715788174
 11
9.982450379
 21
7.715787765
  0
TEXT
  8
MASS
  6
CONTINUOUS
 62
     4
 10
-2.399660227
 20
8.509375473
 40
3.500000000
  1
3.5
 50
359.999993270
 41
1.000
 51
0.000000000
  7
STANDARD
  0
TEXT
  8
MASS
  6
CONTINUOUS
 62
     4
 10
-16.479874809
 20
4.724421511
 40
3.500000000
  1
615.555
 50
0.000000000
 41
1.000
 51
0.000000000
  7
STANDARD
  0
LINE
  8
MASS
  6
CONTINUOUS
 62
     4
 10
27.030030162
 20
0.749367382
 11
9.801262008
 21
0.749366629
  0
LINE
  8
MASS
  6
CONTINUOUS
 62
     4
 10
25.030030162
 20
0.749367294
 11
25.480030009
 21
4.249367314
  0
LINE
  8
MASS
  6
CONTINUOUS
 62
     4
 10
25.480030009
 20
4.249367314
 11
24.580030009
 21
4.249367275
  0
LINE
  8
MASS
  6
CONTINUOUS
 62
     4
 10
24.580030009
 20
4.249367275
 11
25.030030162
 21
0.749367294
  0
LINE
  8
MASS
  6
CONTINUOUS
 62
     4
 10
25.030030009
 20
4.249367294
 11
25.030029221
 21
22.286800652
  0
LINE
  8
MASS
  6
CONTINUOUS
 62
     4
 10
25.030030228
 20
-0.749366032
 11
25.030030162
 21
0.749367294
  0
CIRCLE
  8
MASS
  6
CONTINUOUS
 62
     4
 10
21.932435293
 20
6.480863016
 40
1.250000000
  0
LINE
  8
MASS
  6
CONTINUOUS
 62
     4
 10
23.182435348
 20
5.230863071
 11
20.682435238
 21
7.730862962
  0
TEXT
  8
MASS
  6
CONTINUOUS
 62
     4
 10
23.182435195
 20
8.730863071
 40
3.500000000
  1
1.5-2.1
 50
90.000002504
 41
1.000
 51
0.000000000
  7
STANDARD
  0
LINE
  8
MASS
  6
CONTINUOUS
 62
     4
 10
-21.841077738
 20
-2.000000308
 11
-14.800000000
 21
-2.000000000
  0
LINE
  8
MASS
  6
CONTINUOUS
 62
     4
 10
-19.841077738
 20
-2.000000220
 11
-20.291077891
 21
1.499999760
  0
LINE
  8
MASS
  6
CONTINUOUS
 62
     4
 10
-20.291077891
 20
1.499999760
 11
-19.391077891
 21
1.499999799
  0
LINE
  8
MASS
  6
CONTINUOUS
 62
     4
 10
-19.391077891
 20
1.499999799
 11
-19.841077738
 21
-2.000000220
  0
LINE
  8
MASS
  6
CONTINUOUS
 62
     4
 10
-19.841077891
 20
1.499999780
 11
-19.841077913
 21
1.999999903
  0
TEXT
  8
MASS
  6
CONTINUOUS
 62
     4
 10
-21.041038444
 20
6.118578464
 40
3.500000000
  1
4
 50
90.000002504
 41
1.000
 51
0.000000000
  7
STANDARD
  0
CIRCLE
  8
MASS
  6
CONTINUOUS
 62
     4
 10
-22.291038345
 20
3.868578409
 40
1.250000000
  0
LINE
  8
MASS
  6
CONTINUOUS
 62
     4
 10
-21.041038291
 20
2.618578464
 11
-23.541038400
 21
5.118578354
  0
ENDSEC
  0
EOF
