999
NT  : 16.0 - 919
  0
SECTION
  2
HEADER
  9
$ACADVER
  1
AC1006
  9
$INSBASE
 10
0.000000000
 20
0.000000000
  9
$EXTMIN
 10
-38.066025093
 20
-10.001673965
  9
$EXTMAX
 10
37.195958514
 20
22.678490479
  9
$LIMMIN
 10
-38.066025093
 20
-10.001673965
  9
$LIMMAX
 10
37.195958514
 20
22.678490479
  9
$AUNITS
 70
     2
  9
$ANGBASE
 50
0.000
  9
$ANGDIR
 70
     0
  0
ENDSEC
  0
SECTION
  2
TABLES
  0
TABLE
  2
LTYPE
 70
     8
  0
LTYPE
  2
PUNKT
 70
    64
  3
..............
 72
    65
 73
     2
 40
1.500
 49
0.700
 49
-0.800
  0
LTYPE
  2
GESTRICHELT
 70
    64
  3
-- -- -- -- --
 72
    65
 73
     7
 40
2.800
 49
0.900
 49
0.000
 49
0.900
 49
0.000
 49
0.200
 49
0.000
 49
-0.800
  0
LTYPE
  2
STRICHPUNKT
 70
    64
  3
--.--.--.--.--
 72
    65
 73
     4
 40
8.800
 49
5.500
 49
-1.300
 49
0.700
 49
-1.300
  0
LTYPE
  2
STRICHPUNKT
 70
    64
  3
--.--.--.--.--
 72
    65
 73
     4
 40
8.800
 49
5.500
 49
-1.300
 49
0.700
 49
-1.300
  0
LTYPE
  2
STRICHPUNKT
 70
    64
  3
--.--.--.--.--
 72
    65
 73
     4
 40
8.800
 49
5.500
 49
-1.300
 49
0.700
 49
-1.300
  0
LTYPE
  2
PHANTOM
 70
    64
  3
--..--..--..--
 72
    65
 73
     6
 40
14.200
 49
7.000
 49
-1.800
 49
0.900
 49
-1.800
 49
0.900
 49
-1.800
  0
LTYPE
  2
PHANTOM
 70
    64
  3
--..--..--..--
 72
    65
 73
     6
 40
14.200
 49
7.000
 49
-1.800
 49
0.900
 49
-1.800
 49
0.900
 49
-1.800
  0
LTYPE
  2
PHANTOM
 70
    64
  3
--..--..--..--
 72
    65
 73
     6
 40
14.200
 49
7.000
 49
-1.800
 49
0.900
 49
-1.800
 49
0.900
 49
-1.800
  0
ENDTAB
  0
ENDSEC
  0
SECTION
  2
BLOCKS
  0
ENDSEC
  0
SECTION
  2
ENTITIES
  0
LINE
  8
ZAPFEN
  6
CONTINUOUS
 62
     4
 10
-15.000000000
 20
-1.800000000
 11
-14.800000000
 21
-2.000000000
  0
ARC
  8
AUFNAHME
  6
CONTINUOUS
 62
     7
 10
7.500000000
 20
-8.000000000
 40
7.500000000
 50
90.000000000
 51
126.869897646
  0
ARC
  8
AUFNAHME
  6
CONTINUOUS
 62
     7
 10
7.500000000
 20
8.000000000
 40
7.500000000
 50
-121.424020467
 51
-90.000000000
  0
LINE
  8
AUFNAHME
  6
CONTINUOUS
 62
     7
 10
0.000000000
 20
-2.000000000
 11
3.000000000
 21
-2.000000000
  0
LINE
  8
AUFNAHME
  6
CONTINUOUS
 62
     7
 10
7.500000000
 20
-0.500000000
 11
9.007106781
 21
-0.459571307
  0
LINE
  8
AUFNAHME
  6
CONTINUOUS
 62
     7
 10
9.007106781
 20
0.459571307
 11
7.500000000
 21
0.500000000
  0
LINE
  8
ZAPFEN
  6
CONTINUOUS
 62
     4
 10
-15.000000000
 20
-1.800000000
 11
-15.000000000
 21
1.600000000
  0
LINE
  8
ZAPFEN
  6
CONTINUOUS
 62
     4
 10
-15.000000000
 20
1.600000000
 11
-14.800000000
 21
1.600000000
  0
LINE
  8
ZAPFEN
  6
CONTINUOUS
 62
     4
 10
-14.800000000
 20
1.600000000
 11
-14.800000000
 21
-2.000000000
  0
LINE
  8
AUFNAHME
  6
CONTINUOUS
 62
     7
 10
7.500000000
 20
-0.500000000
 11
7.500000000
 21
0.500000000
  0
LINE
  8
AUFNAHME
  6
CONTINUOUS
 62
     7
 10
3.589757041
 20
1.600000000
 11
3.000000000
 21
1.600000000
  0
LINE
  8
AUFNAHME
  6
CONTINUOUS
 62
     7
 10
3.000000000
 20
-2.000000000
 11
3.000000000
 21
1.600000000
  0
LINE
  8
AUFNAHME
  6
CONTINUOUS
 62
     7
 10
3.000000000
 20
1.600000000
 11
0.000000000
 21
1.600000000
  0
ARC
  8
AUFNAHME
  6
CONTINUOUS
 62
     7
 10
8.894051841
 20
-1.160852438
 40
1.624362807
 50
86.009012284
 51
98.514349552
  0
ARC
  8
AUFNAHME
  6
CONTINUOUS
 62
     7
 10
8.787513812
 20
0.000000000
 40
0.465308342
 50
106.732035827
 51
-106.732035827
  0
ARC
  8
AUFNAHME
  6
CONTINUOUS
 62
     7
 10
8.877480732
 20
0.741270065
 40
1.207817417
 50
-100.684357222
 51
-83.839004614
  0
LINE
  8
AUFNAHME
  6
CONTINUOUS
 62
     7
 10
9.363907353
 20
-0.450000000
 11
9.007106781
 21
-0.459571307
  0
ARC
  8
AUFNAHME
  6
CONTINUOUS
 62
     7
 10
9.498719208
 20
1.193781450
 40
0.773407887
 50
-106.515299567
 51
-100.038441121
  0
LINE
  8
AUFNAHME
  6
CONTINUOUS
 62
     7
 10
9.007106781
 20
0.459571307
 11
9.278861491
 21
0.452281387
  0
LINE
  8
AUFNAHME
  6
CONTINUOUS
 62
     7
 10
9.363907353
 20
-0.450000000
 11
9.607265059
 21
-0.450000000
  0
ARC
  8
AUFNAHME
  6
CONTINUOUS
 62
     7
 10
9.752302895
 20
-0.880929338
 40
0.454682381
 50
84.984456693
 51
108.601682962
  0
ARC
  8
AUFNAHME
  6
CONTINUOUS
 62
     7
 10
10.332799049
 20
5.917032634
 40
6.368020978
 50
-94.871178554
 51
-93.608475379
  0
ARC
  8
AUFNAHME
  6
CONTINUOUS
 62
     7
 10
8.812729090
 20
1.071908937
 40
0.844397742
 50
-49.250949159
 51
-41.163004879
  0
LINE
  8
AUFNAHME
  6
CONTINUOUS
 62
     7
 10
9.607265059
 20
-0.450000000
 11
9.278861491
 21
0.452281387
  0
LINE
  8
AUFNAHME
  6
CONTINUOUS
 62
     7
 10
9.993996070
 20
0.534128359
 11
9.932051873
 21
-0.437661059
  0
LINE
  8
AUFNAHME
  6
CONTINUOUS
 62
     7
 10
9.448425535
 20
0.516123389
 11
9.465466911
 21
0.535291006
  0
LINE
  8
AUFNAHME
  6
CONTINUOUS
 62
     7
 10
9.465466911
 20
0.535291006
 11
9.925479982
 21
0.596588021
  0
ARC
  8
AUFNAHME
  6
CONTINUOUS
 62
     7
 10
9.900361702
 20
0.500224575
 40
0.099583341
 50
19.949758568
 51
75.390265757
  0
LINE
  8
AUFNAHME
  6
CONTINUOUS
 62
     7
 10
9.993996070
 20
0.534128359
 11
9.993969262
 21
0.534202014
  0
LINE
  8
AUFNAHME
  6
CONTINUOUS
 62
     7
 10
8.653553391
 20
-0.445607965
 11
8.653553391
 21
0.445607965
  0
LINE
  8
AUFNAHME
  6
CONTINUOUS
 62
     7
 10
9.007106781
 20
0.459571307
 11
9.007106781
 21
-0.459571307
  0
LINE
  8
AUFNAHME
  6
CONTINUOUS
 62
     7
 10
9.792053952
 20
-0.427987927
 11
9.448425535
 21
0.516123389
  0
LINE
  8
ZAPFEN
  6
STRICHPUNKT
 62
     4
 10
10.547952118
 20
0.000000000
 11
-16.288040753
 21
0.000000000
  0
LINE
  8
ZAPFEN
  6
CONTINUOUS
 62
     4
 10
0.000000000
 20
1.600000000
 11
-14.800000000
 21
1.600000000
  0
LINE
  8
ZAPFEN
  6
CONTINUOUS
 62
     4
 10
0.000000000
 20
-2.000000000
 11
-14.800000000
 21
-2.000000000
  0
TEXT
  8
MASS
  6
CONTINUOUS
 62
     4
 10
-17.012488561
 20
4.826574665
 40
3.500000000
  1
615.554
 50
0.000000000
 41
1.000
 51
0.000000000
  7
STANDARD
  0
LINE
  8
MASS
  6
CONTINUOUS
 62
     4
 10
27.407344258
 20
0.599808681
 11
9.900361702
 21
0.599807916
  0
LINE
  8
MASS
  6
CONTINUOUS
 62
     4
 10
25.407344258
 20
0.599808594
 11
25.857344105
 21
4.099808613
  0
LINE
  8
MASS
  6
CONTINUOUS
 62
     4
 10
25.857344105
 20
4.099808613
 11
24.957344105
 21
4.099808574
  0
LINE
  8
MASS
  6
CONTINUOUS
 62
     4
 10
24.957344105
 20
4.099808574
 11
25.407344258
 21
0.599808594
  0
LINE
  8
MASS
  6
CONTINUOUS
 62
     4
 10
25.407344105
 20
4.099808594
 11
25.407343307
 21
22.358096710
  0
LINE
  8
MASS
  6
CONTINUOUS
 62
     4
 10
25.407344311
 20
-0.599807295
 11
25.407344258
 21
0.599808594
  0
CIRCLE
  8
MASS
  6
CONTINUOUS
 62
     4
 10
22.032862330
 20
6.333409063
 40
1.250000000
  0
LINE
  8
MASS
  6
CONTINUOUS
 62
     4
 10
23.282862384
 20
5.083409117
 11
20.782862275
 21
7.583409008
  0
TEXT
  8
MASS
  6
CONTINUOUS
 62
     4
 10
23.282862231
 20
8.583409117
 40
3.500000000
  1
1.2-1.8
 50
90.000002504
 41
1.000
 51
0.000000000
  7
STANDARD
  0
LINE
  8
MASS
  6
CONTINUOUS
 62
     4
 10
-23.502334145
 20
-2.000000380
 11
-14.800000000
 21
-2.000000000
  0
LINE
  8
MASS
  6
CONTINUOUS
 62
     4
 10
-21.502334145
 20
-2.000000293
 11
-21.952334298
 21
1.499999687
  0
LINE
  8
MASS
  6
CONTINUOUS
 62
     4
 10
-21.952334298
 20
1.499999687
 11
-21.052334298
 21
1.499999727
  0
LINE
  8
MASS
  6
CONTINUOUS
 62
     4
 10
-21.052334298
 20
1.499999727
 11
-21.502334145
 21
-2.000000293
  0
LINE
  8
MASS
  6
CONTINUOUS
 62
     4
 10
-21.502334298
 20
1.499999707
 11
-21.502334320
 21
1.999999837
  0
TEXT
  8
MASS
  6
CONTINUOUS
 62
     4
 10
-22.777411021
 20
6.413225313
 40
3.500000000
  1
4
 50
90.000002504
 41
1.000
 51
0.000000000
  7
STANDARD
  0
CIRCLE
  8
MASS
  6
CONTINUOUS
 62
     4
 10
-24.027410923
 20
4.163225258
 40
1.250000000
  0
LINE
  8
MASS
  6
CONTINUOUS
 62
     4
 10
-22.777410868
 20
2.913225313
 11
-25.277410978
 21
5.413225204
  0
LINE
  8
MASS
  6
CONTINUOUS
 62
     4
 10
-15.000000000
 20
-11.681279469
 11
-15.000000000
 21
-1.800000000
  0
LINE
  8
MASS
  6
CONTINUOUS
 62
     4
 10
-15.000000000
 20
-9.681279469
 11
-11.499999994
 21
-9.231279513
  0
LINE
  8
MASS
  6
CONTINUOUS
 62
     4
 10
-11.499999994
 20
-9.231279513
 11
-11.500000006
 21
-10.131279513
  0
LINE
  8
MASS
  6
CONTINUOUS
 62
     4
 10
-11.500000006
 20
-10.131279513
 11
-15.000000000
 21
-9.681279469
  0
LINE
  8
MASS
  6
CONTINUOUS
 62
     4
 10
0.000000000
 20
-11.681279659
 11
0.000000000
 21
-2.000000000
  0
LINE
  8
MASS
  6
CONTINUOUS
 62
     4
 10
0.000000000
 20
-9.681279659
 11
-3.500000006
 21
-10.131279615
  0
LINE
  8
MASS
  6
CONTINUOUS
 62
     4
 10
-3.500000006
 20
-10.131279615
 11
-3.499999994
 21
-9.231279615
  0
LINE
  8
MASS
  6
CONTINUOUS
 62
     4
 10
-3.499999994
 20
-9.231279615
 11
0.000000000
 21
-9.681279659
  0
LINE
  8
MASS
  6
CONTINUOUS
 62
     4
 10
-11.500000000
 20
-9.681279513
 11
-3.500000000
 21
-9.681279615
  0
TEXT
  8
MASS
  6
CONTINUOUS
 62
     4
 10
-8.672500149
 20
-8.181279549
 40
3.500000000
  1
15
 50
359.999999271
 41
1.000
 51
0.000000000
  7
STANDARD
  0
LINE
  8
MASS
  6
CONTINUOUS
 62
     4
 10
0.000000000
 20
-11.681279659
 11
0.000000000
 21
-2.000000000
  0
LINE
  8
MASS
  6
CONTINUOUS
 62
     4
 10
0.000000000
 20
-9.681279659
 11
-3.499999986
 21
-9.231279552
  0
LINE
  8
MASS
  6
CONTINUOUS
 62
     4
 10
-3.499999986
 20
-9.231279552
 11
-3.500000014
 21
-10.131279552
  0
LINE
  8
MASS
  6
CONTINUOUS
 62
     4
 10
-3.500000014
 20
-10.131279552
 11
0.000000000
 21
-9.681279659
  0
LINE
  8
MASS
  6
CONTINUOUS
 62
     4
 10
-3.500000000
 20
-9.681279552
 11
-7.500000000
 21
-9.681279429
  0
LINE
  8
MASS
  6
CONTINUOUS
 62
     4
 10
9.993996070
 20
-11.681279966
 11
9.993996070
 21
0.534128359
  0
LINE
  8
MASS
  6
CONTINUOUS
 62
     4
 10
9.993996070
 20
-9.681279966
 11
13.493996056
 21
-10.131280073
  0
LINE
  8
MASS
  6
CONTINUOUS
 62
     4
 10
13.493996056
 20
-10.131280073
 11
13.493996084
 21
-9.231280073
  0
LINE
  8
MASS
  6
CONTINUOUS
 62
     4
 10
13.493996084
 20
-9.231280073
 11
9.993996070
 21
-9.681279966
  0
LINE
  8
MASS
  6
CONTINUOUS
 62
     4
 10
13.493996070
 20
-9.681280073
 11
17.493996070
 21
-9.681280196
  0
LINE
  8
MASS
  6
CONTINUOUS
 62
     4
 10
0.000000000
 20
-9.681279659
 11
9.993996070
 21
-9.681279966
  0
TEXT
  8
MASS
  6
CONTINUOUS
 62
     4
 10
3.715122969
 20
-8.181279773
 40
3.500000000
  1
10
 50
359.999998243
 41
1.000
 51
0.000000000
  7
STANDARD
  0
LINE
  8
MASS
  6
CONTINUOUS
 62
     4
 10
7.500000000
 20
10.759434700
 11
7.500000000
 21
0.500000000
  0
LINE
  8
MASS
  6
CONTINUOUS
 62
     4
 10
7.500000000
 20
8.759434700
 11
3.999999969
 21
9.209434461
  0
LINE
  8
MASS
  6
CONTINUOUS
 62
     4
 10
3.999999969
 20
9.209434461
 11
4.000000031
 21
8.309434461
  0
LINE
  8
MASS
  6
CONTINUOUS
 62
     4
 10
4.000000031
 20
8.309434461
 11
7.500000000
 21
8.759434700
  0
LINE
  8
MASS
  6
CONTINUOUS
 62
     4
 10
4.000000000
 20
8.759434461
 11
0.146782188
 21
8.759434198
  0
LINE
  8
MASS
  6
CONTINUOUS
 62
     4
 10
9.993996070
 20
10.759434870
 11
9.993996070
 21
0.534128359
  0
LINE
  8
MASS
  6
CONTINUOUS
 62
     4
 10
9.993996070
 20
8.759434870
 11
13.493996101
 21
8.309435109
  0
LINE
  8
MASS
  6
CONTINUOUS
 62
     4
 10
13.493996101
 20
8.309435109
 11
13.493996039
 21
9.209435109
  0
LINE
  8
MASS
  6
CONTINUOUS
 62
     4
 10
13.493996039
 20
9.209435109
 11
9.993996070
 21
8.759434870
  0
LINE
  8
MASS
  6
CONTINUOUS
 62
     4
 10
13.493996070
 20
8.759435109
 11
17.493996070
 21
8.759435382
  0
LINE
  8
MASS
  6
CONTINUOUS
 62
     4
 10
7.500000000
 20
8.759434700
 11
9.993996070
 21
8.759434870
  0
TEXT
  8
MASS
  6
CONTINUOUS
 62
     4
 10
0.146782072
 20
10.460204576
 40
3.500000000
  1
2.5
 50
0.000003913
 41
1.000
 51
0.000000000
  7
STANDARD
  0
ENDSEC
  0
EOF
