999
NT  : 16.0 - 919
  0
SECTION
  2
HEADER
  9
$ACADVER
  1
AC1006
  9
$INSBASE
 10
0.000000000
 20
0.000000000
  9
$EXTMIN
 10
-39.361026131
 20
-10.325935578
  9
$EXTMAX
 10
38.593546515
 20
23.523401513
  9
$LIMMIN
 10
-39.361026131
 20
-10.325935578
  9
$LIMMAX
 10
38.593546515
 20
23.523401513
  9
$AUNITS
 70
     2
  9
$ANGBASE
 50
0.000
  9
$ANGDIR
 70
     0
  0
ENDSEC
  0
SECTION
  2
TABLES
  0
TABLE
  2
LTYPE
 70
     8
  0
LTYPE
  2
PUNKT
 70
    64
  3
..............
 72
    65
 73
     2
 40
1.500
 49
0.700
 49
-0.800
  0
LTYPE
  2
GESTRICHELT
 70
    64
  3
-- -- -- -- --
 72
    65
 73
     7
 40
2.800
 49
0.900
 49
0.000
 49
0.900
 49
0.000
 49
0.200
 49
0.000
 49
-0.800
  0
LTYPE
  2
STRICHPUNKT
 70
    64
  3
--.--.--.--.--
 72
    65
 73
     4
 40
8.800
 49
5.500
 49
-1.300
 49
0.700
 49
-1.300
  0
LTYPE
  2
STRICHPUNKT
 70
    64
  3
--.--.--.--.--
 72
    65
 73
     4
 40
8.800
 49
5.500
 49
-1.300
 49
0.700
 49
-1.300
  0
LTYPE
  2
STRICHPUNKT
 70
    64
  3
--.--.--.--.--
 72
    65
 73
     4
 40
8.800
 49
5.500
 49
-1.300
 49
0.700
 49
-1.300
  0
LTYPE
  2
PHANTOM
 70
    64
  3
--..--..--..--
 72
    65
 73
     6
 40
14.200
 49
7.000
 49
-1.800
 49
0.900
 49
-1.800
 49
0.900
 49
-1.800
  0
LTYPE
  2
PHANTOM
 70
    64
  3
--..--..--..--
 72
    65
 73
     6
 40
14.200
 49
7.000
 49
-1.800
 49
0.900
 49
-1.800
 49
0.900
 49
-1.800
  0
LTYPE
  2
PHANTOM
 70
    64
  3
--..--..--..--
 72
    65
 73
     6
 40
14.200
 49
7.000
 49
-1.800
 49
0.900
 49
-1.800
 49
0.900
 49
-1.800
  0
ENDTAB
  0
ENDSEC
  0
SECTION
  2
BLOCKS
  0
ENDSEC
  0
SECTION
  2
ENTITIES
  0
LINE
  8
ZAPFEN
  6
CONTINUOUS
 62
     4
 10
-15.000000000
 20
-1.800000000
 11
-14.800000000
 21
-2.000000000
  0
LINE
  8
AUFNAHME
  6
CONTINUOUS
 62
     7
 10
0.000000000
 20
-2.000000000
 11
3.000000000
 21
-2.000000000
  0
ARC
  8
AUFNAHME
  6
CONTINUOUS
 62
     7
 10
8.000000000
 20
-8.502941177
 40
8.202941176
 50
90.000000000
 51
127.556066445
  0
ARC
  8
AUFNAHME
  6
CONTINUOUS
 62
     7
 10
8.000000000
 20
8.502941177
 40
8.202941176
 50
-122.698452855
 51
-90.000000000
  0
LINE
  8
AUFNAHME
  6
CONTINUOUS
 62
     7
 10
8.000000000
 20
-0.300000000
 11
9.207106781
 21
-0.300000000
  0
LINE
  8
AUFNAHME
  6
CONTINUOUS
 62
     7
 10
9.207106781
 20
0.300000000
 11
8.000000000
 21
0.300000000
  0
LINE
  8
ZAPFEN
  6
CONTINUOUS
 62
     4
 10
-15.000000000
 20
-1.800000000
 11
-15.000000000
 21
1.600000000
  0
LINE
  8
ZAPFEN
  6
CONTINUOUS
 62
     4
 10
-15.000000000
 20
1.600000000
 11
-14.800000000
 21
1.600000000
  0
LINE
  8
ZAPFEN
  6
CONTINUOUS
 62
     4
 10
-14.800000000
 20
1.600000000
 11
-14.800000000
 21
-2.000000000
  0
LINE
  8
AUFNAHME
  6
CONTINUOUS
 62
     7
 10
3.000000000
 20
1.600000000
 11
0.000000000
 21
1.600000000
  0
LINE
  8
AUFNAHME
  6
CONTINUOUS
 62
     7
 10
3.000000000
 20
-2.000000000
 11
3.000000000
 21
1.600000000
  0
LINE
  8
AUFNAHME
  6
CONTINUOUS
 62
     7
 10
3.568561514
 20
1.600000000
 11
3.000000000
 21
1.600000000
  0
ARC
  8
AUFNAHME
  6
CONTINUOUS
 62
     7
 10
9.127278412
 20
-0.617009915
 40
0.920478002
 50
85.024778865
 51
107.299869023
  0
ARC
  8
AUFNAHME
  6
CONTINUOUS
 62
     7
 10
9.000000000
 20
0.000000000
 40
0.300000000
 50
119.219410993
 51
-119.219410993
  0
ARC
  8
AUFNAHME
  6
CONTINUOUS
 62
     7
 10
9.112467865
 20
0.479836462
 40
0.785558038
 50
-109.244077523
 51
-83.080570366
  0
LINE
  8
AUFNAHME
  6
CONTINUOUS
 62
     7
 10
9.586014531
 20
-0.300000000
 11
9.207106781
 21
-0.300000000
  0
ARC
  8
AUFNAHME
  6
CONTINUOUS
 62
     7
 10
9.708853900
 20
-0.570713744
 40
0.297280073
 50
83.542199980
 51
114.406699295
  0
ARC
  8
AUFNAHME
  6
CONTINUOUS
 62
     7
 10
10.211594228
 20
3.944688423
 40
4.246023724
 50
-96.345757607
 51
-93.405593646
  0
ARC
  8
AUFNAHME
  6
CONTINUOUS
 62
     7
 10
9.520108835
 20
0.723092198
 40
0.449728890
 50
-109.818445487
 51
-91.235061925
  0
LINE
  8
AUFNAHME
  6
CONTINUOUS
 62
     7
 10
9.207106781
 20
0.300000000
 11
9.367632391
 21
0.300000000
  0
LINE
  8
AUFNAHME
  6
CONTINUOUS
 62
     7
 10
9.510415276
 20
0.273467789
 11
9.532981204
 21
0.299749626
  0
LINE
  8
AUFNAHME
  6
CONTINUOUS
 62
     7
 10
9.586014531
 20
-0.300000000
 11
9.367632391
 21
0.300000000
  0
LINE
  8
AUFNAHME
  6
CONTINUOUS
 62
     7
 10
9.996196926
 20
0.327315773
 11
9.991249361
 21
0.340909096
  0
ARC
  8
AUFNAHME
  6
CONTINUOUS
 62
     7
 10
9.900574908
 20
0.300391328
 40
0.099315387
 50
24.077421110
 51
75.600628523
  0
LINE
  8
AUFNAHME
  6
CONTINUOUS
 62
     7
 10
9.998360979
 20
0.318030878
 11
9.996196926
 21
0.327315773
  0
LINE
  8
AUFNAHME
  6
CONTINUOUS
 62
     7
 10
9.532981204
 20
0.299749626
 11
9.575476293
 21
0.349976246
  0
LINE
  8
AUFNAHME
  6
CONTINUOUS
 62
     7
 10
9.575476293
 20
0.349976246
 11
9.925272585
 21
0.396586810
  0
LINE
  8
AUFNAHME
  6
CONTINUOUS
 62
     7
 10
9.998360979
 20
0.318030878
 11
9.959435748
 21
-0.292633989
  0
LINE
  8
AUFNAHME
  6
CONTINUOUS
 62
     7
 10
8.000000000
 20
-0.300000000
 11
8.000000000
 21
0.300000000
  0
LINE
  8
AUFNAHME
  6
CONTINUOUS
 62
     7
 10
8.853553391
 20
-0.261827024
 11
8.853553391
 21
0.261827024
  0
LINE
  8
AUFNAHME
  6
CONTINUOUS
 62
     7
 10
9.207106781
 20
0.300000000
 11
9.207106781
 21
-0.300000000
  0
LINE
  8
AUFNAHME
  6
CONTINUOUS
 62
     7
 10
9.742289403
 20
-0.275319924
 11
9.532981204
 21
0.299749626
  0
LINE
  8
ZAPFEN
  6
STRICHPUNKT
 62
     4
 10
10.400417358
 20
0.000000000
 11
-15.848479477
 21
0.000000000
  0
LINE
  8
ZAPFEN
  6
CONTINUOUS
 62
     4
 10
0.000000000
 20
1.600000000
 11
-14.800000000
 21
1.600000000
  0
LINE
  8
ZAPFEN
  6
CONTINUOUS
 62
     4
 10
-14.800000000
 20
-2.000000000
 11
0.000000000
 21
-2.000000000
  0
TEXT
  8
MASS
  6
CONTINUOUS
 62
     4
 10
-14.421768283
 20
5.228145742
 40
3.500000000
  1
615.553
 50
0.000000000
 41
1.000
 51
0.000000000
  7
STANDARD
  0
LINE
  8
MASS
  6
CONTINUOUS
 62
     4
 10
0.000000000
 20
-11.994079113
 11
0.000000000
 21
-2.000000000
  0
LINE
  8
MASS
  6
CONTINUOUS
 62
     4
 10
0.000000000
 20
-9.994079113
 11
-3.500000002
 21
-9.544079128
  0
LINE
  8
MASS
  6
CONTINUOUS
 62
     4
 10
-3.500000002
 20
-9.544079128
 11
-3.499999998
 21
-10.444079128
  0
LINE
  8
MASS
  6
CONTINUOUS
 62
     4
 10
-3.499999998
 20
-10.444079128
 11
0.000000000
 21
-9.994079113
  0
LINE
  8
MASS
  6
CONTINUOUS
 62
     4
 10
-3.500000000
 20
-9.994079128
 11
-7.500000000
 21
-9.994079146
  0
LINE
  8
MASS
  6
CONTINUOUS
 62
     4
 10
9.998360979
 20
-11.994079069
 11
9.998360979
 21
0.318030878
  0
LINE
  8
MASS
  6
CONTINUOUS
 62
     4
 10
9.998360979
 20
-9.994079069
 11
13.498360981
 21
-10.444079053
  0
LINE
  8
MASS
  6
CONTINUOUS
 62
     4
 10
13.498360981
 20
-10.444079053
 11
13.498360977
 21
-9.544079053
  0
LINE
  8
MASS
  6
CONTINUOUS
 62
     4
 10
13.498360977
 20
-9.544079053
 11
9.998360979
 21
-9.994079069
  0
LINE
  8
MASS
  6
CONTINUOUS
 62
     4
 10
13.498360979
 20
-9.994079053
 11
17.498360979
 21
-9.994079036
  0
LINE
  8
MASS
  6
CONTINUOUS
 62
     4
 10
0.000000000
 20
-9.994079113
 11
9.998360979
 21
-9.994079069
  0
TEXT
  8
MASS
  6
CONTINUOUS
 62
     4
 10
3.717305371
 20
-8.494079097
 40
3.500000000
  1
10
 50
0.000000253
 41
1.000
 51
0.000000000
  7
STANDARD
  0
LINE
  8
MASS
  6
CONTINUOUS
 62
     4
 10
-15.000000000
 20
-11.994079399
 11
-15.000000000
 21
-1.800000000
  0
LINE
  8
MASS
  6
CONTINUOUS
 62
     4
 10
-15.000000000
 20
-9.994079399
 11
-11.500000009
 21
-9.544079332
  0
LINE
  8
MASS
  6
CONTINUOUS
 62
     4
 10
-11.500000009
 20
-9.544079332
 11
-11.499999991
 21
-10.444079332
  0
LINE
  8
MASS
  6
CONTINUOUS
 62
     4
 10
-11.499999991
 20
-10.444079332
 11
-15.000000000
 21
-9.994079399
  0
LINE
  8
MASS
  6
CONTINUOUS
 62
     4
 10
0.000000000
 20
-11.994079113
 11
0.000000000
 21
-2.000000000
  0
LINE
  8
MASS
  6
CONTINUOUS
 62
     4
 10
0.000000000
 20
-9.994079113
 11
-3.499999991
 21
-10.444079180
  0
LINE
  8
MASS
  6
CONTINUOUS
 62
     4
 10
-3.499999991
 20
-10.444079180
 11
-3.500000009
 21
-9.544079180
  0
LINE
  8
MASS
  6
CONTINUOUS
 62
     4
 10
-3.500000009
 20
-9.544079180
 11
0.000000000
 21
-9.994079113
  0
LINE
  8
MASS
  6
CONTINUOUS
 62
     4
 10
-11.500000000
 20
-9.994079332
 11
-3.500000000
 21
-9.994079180
  0
TEXT
  8
MASS
  6
CONTINUOUS
 62
     4
 10
-8.672500196
 20
-8.494079278
 40
3.500000000
  1
15
 50
0.000001093
 41
1.000
 51
0.000000000
  7
STANDARD
  0
LINE
  8
MASS
  6
CONTINUOUS
 62
     4
 10
8.000000000
 20
7.950041103
 11
8.000000000
 21
0.300000000
  0
LINE
  8
MASS
  6
CONTINUOUS
 62
     4
 10
8.000000000
 20
5.950041103
 11
4.500000055
 21
6.400041527
  0
LINE
  8
MASS
  6
CONTINUOUS
 62
     4
 10
4.500000055
 20
6.400041527
 11
4.499999945
 21
5.500041527
  0
LINE
  8
MASS
  6
CONTINUOUS
 62
     4
 10
4.499999945
 20
5.500041527
 11
8.000000000
 21
5.950041103
  0
LINE
  8
MASS
  6
CONTINUOUS
 62
     4
 10
4.500000000
 20
5.950041527
 11
1.531381874
 21
5.950041887
  0
LINE
  8
MASS
  6
CONTINUOUS
 62
     4
 10
9.998360979
 20
7.950040861
 11
9.998360979
 21
0.318030878
  0
LINE
  8
MASS
  6
CONTINUOUS
 62
     4
 10
9.998360979
 20
5.950040861
 11
13.498360924
 21
5.500040437
  0
LINE
  8
MASS
  6
CONTINUOUS
 62
     4
 10
13.498360924
 20
5.500040437
 11
13.498361033
 21
6.400040437
  0
LINE
  8
MASS
  6
CONTINUOUS
 62
     4
 10
13.498361033
 20
6.400040437
 11
9.998360979
 21
5.950040861
  0
LINE
  8
MASS
  6
CONTINUOUS
 62
     4
 10
13.498360979
 20
5.950040437
 11
17.498360979
 21
5.950039953
  0
LINE
  8
MASS
  6
CONTINUOUS
 62
     4
 10
8.000000000
 20
5.950041103
 11
9.998360979
 21
5.950040861
  0
TEXT
  8
MASS
  6
CONTINUOUS
 62
     4
 10
1.531382053
 20
7.429985401
 40
3.500000000
  1
2
 50
359.999993061
 41
1.000
 51
0.000000000
  7
STANDARD
  0
LINE
  8
MASS
  6
CONTINUOUS
 62
     4
 10
26.775664342
 20
0.399707452
 11
9.900574908
 21
0.399706715
  0
LINE
  8
MASS
  6
CONTINUOUS
 62
     4
 10
24.775664342
 20
0.399707365
 11
25.225664189
 21
3.899707384
  0
LINE
  8
MASS
  6
CONTINUOUS
 62
     4
 10
25.225664189
 20
3.899707384
 11
24.325664189
 21
3.899707345
  0
LINE
  8
MASS
  6
CONTINUOUS
 62
     4
 10
24.325664189
 20
3.899707345
 11
24.775664342
 21
0.399707365
  0
LINE
  8
MASS
  6
CONTINUOUS
 62
     4
 10
24.775664189
 20
3.899707365
 11
24.775663346
 21
23.191545267
  0
LINE
  8
MASS
  6
CONTINUOUS
 62
     4
 10
24.775664377
 20
-0.399706108
 11
24.775664342
 21
0.399707365
  0
CIRCLE
  8
MASS
  6
CONTINUOUS
 62
     4
 10
21.503555270
 20
6.784045124
 40
1.250000000
  0
LINE
  8
MASS
  6
CONTINUOUS
 62
     4
 10
22.753555325
 20
5.534045178
 11
20.253555215
 21
8.034045069
  0
TEXT
  8
MASS
  6
CONTINUOUS
 62
     4
 10
22.753555172
 20
9.034045178
 40
3.500000000
  1
0.8-1.3
 50
90.000002504
 41
1.000
 51
0.000000000
  7
STANDARD
  0
LINE
  8
MASS
  6
CONTINUOUS
 62
     4
 10
-22.863665699
 20
-2.000000352
 11
-14.800000000
 21
-2.000000000
  0
LINE
  8
MASS
  6
CONTINUOUS
 62
     4
 10
-20.863665699
 20
-2.000000265
 11
-21.313665852
 21
1.499999715
  0
LINE
  8
MASS
  6
CONTINUOUS
 62
     4
 10
-21.313665852
 20
1.499999715
 11
-20.413665852
 21
1.499999755
  0
LINE
  8
MASS
  6
CONTINUOUS
 62
     4
 10
-20.413665852
 20
1.499999755
 11
-20.863665699
 21
-2.000000265
  0
LINE
  8
MASS
  6
CONTINUOUS
 62
     4
 10
-20.863665852
 20
1.499999735
 11
-20.863665874
 21
1.999999827
  0
TEXT
  8
MASS
  6
CONTINUOUS
 62
     4
 10
-22.043144126
 20
6.632577910
 40
3.500000000
  1
4
 50
90.000002504
 41
1.000
 51
0.000000000
  7
STANDARD
  0
CIRCLE
  8
MASS
  6
CONTINUOUS
 62
     4
 10
-23.293144027
 20
4.382577855
 40
1.250000000
  0
LINE
  8
MASS
  6
CONTINUOUS
 62
     4
 10
-22.043143973
 20
3.132577910
 11
-24.543144082
 21
5.632577800
  0
ENDSEC
  0
EOF
