999
NT  : 16.0 - 919
  0
SECTION
  2
HEADER
  9
$ACADVER
  1
AC1006
  9
$INSBASE
 10
0.000000000
 20
0.000000000
  9
$EXTMIN
 10
-42.931120063
 20
-12.322092138
  9
$EXTMAX
 10
40.972419605
 20
24.110397977
  9
$LIMMIN
 10
-42.931120063
 20
-12.322092138
  9
$LIMMAX
 10
40.972419605
 20
24.110397977
  9
$AUNITS
 70
     2
  9
$ANGBASE
 50
0.000
  9
$ANGDIR
 70
     0
  0
ENDSEC
  0
SECTION
  2
TABLES
  0
TABLE
  2
LTYPE
 70
     8
  0
LTYPE
  2
PUNKT
 70
    64
  3
..............
 72
    65
 73
     2
 40
1.500
 49
0.700
 49
-0.800
  0
LTYPE
  2
GESTRICHELT
 70
    64
  3
-- -- -- -- --
 72
    65
 73
     7
 40
2.800
 49
0.900
 49
0.000
 49
0.900
 49
0.000
 49
0.200
 49
0.000
 49
-0.800
  0
LTYPE
  2
STRICHPUNKT
 70
    64
  3
--.--.--.--.--
 72
    65
 73
     4
 40
8.800
 49
5.500
 49
-1.300
 49
0.700
 49
-1.300
  0
LTYPE
  2
STRICHPUNKT
 70
    64
  3
--.--.--.--.--
 72
    65
 73
     4
 40
8.800
 49
5.500
 49
-1.300
 49
0.700
 49
-1.300
  0
LTYPE
  2
STRICHPUNKT
 70
    64
  3
--.--.--.--.--
 72
    65
 73
     4
 40
8.800
 49
5.500
 49
-1.300
 49
0.700
 49
-1.300
  0
LTYPE
  2
PHANTOM
 70
    64
  3
--..--..--..--
 72
    65
 73
     6
 40
14.200
 49
7.000
 49
-1.800
 49
0.900
 49
-1.800
 49
0.900
 49
-1.800
  0
LTYPE
  2
PHANTOM
 70
    64
  3
--..--..--..--
 72
    65
 73
     6
 40
14.200
 49
7.000
 49
-1.800
 49
0.900
 49
-1.800
 49
0.900
 49
-1.800
  0
LTYPE
  2
PHANTOM
 70
    64
  3
--..--..--..--
 72
    65
 73
     6
 40
14.200
 49
7.000
 49
-1.800
 49
0.900
 49
-1.800
 49
0.900
 49
-1.800
  0
ENDTAB
  0
ENDSEC
  0
SECTION
  2
BLOCKS
  0
ENDSEC
  0
SECTION
  2
ENTITIES
  0
LINE
  8
ZAPFEN
  6
CONTINUOUS
 62
     4
 10
-15.000000000
 20
-1.800000000
 11
-14.800000000
 21
-2.000000000
  0
LINE
  8
AUFNAHME
  6
CONTINUOUS
 62
     7
 10
0.000000000
 20
-2.000000000
 11
3.000000000
 21
-2.000000000
  0
ARC
  8
AUFNAHME
  6
CONTINUOUS
 62
     7
 10
8.500000000
 20
-9.633626761
 40
9.408626761
 50
90.000000000
 51
125.772611194
  0
ARC
  8
AUFNAHME
  6
CONTINUOUS
 62
     7
 10
8.500000000
 20
9.633626760
 40
9.408626761
 50
-121.366112035
 51
-90.000000000
  0
LINE
  8
AUFNAHME
  6
CONTINUOUS
 62
     7
 10
8.500000000
 20
-0.225000000
 11
9.582842712
 21
-0.225000000
  0
LINE
  8
AUFNAHME
  6
CONTINUOUS
 62
     7
 10
9.582842712
 20
0.225000000
 11
8.500000000
 21
0.225000000
  0
LINE
  8
ZAPFEN
  6
CONTINUOUS
 62
     4
 10
-15.000000000
 20
-1.800000000
 11
-15.000000000
 21
1.600000000
  0
LINE
  8
ZAPFEN
  6
CONTINUOUS
 62
     4
 10
-15.000000000
 20
1.600000000
 11
-14.800000000
 21
1.600000000
  0
LINE
  8
ZAPFEN
  6
CONTINUOUS
 62
     4
 10
-14.800000000
 20
1.600000000
 11
-14.800000000
 21
-2.000000000
  0
LINE
  8
AUFNAHME
  6
CONTINUOUS
 62
     7
 10
3.000000000
 20
1.600000000
 11
0.000000000
 21
1.600000000
  0
LINE
  8
AUFNAHME
  6
CONTINUOUS
 62
     7
 10
3.000000000
 20
-2.000000000
 11
3.000000000
 21
1.600000000
  0
LINE
  8
AUFNAHME
  6
CONTINUOUS
 62
     7
 10
3.602745811
 20
1.600000000
 11
3.000000000
 21
1.600000000
  0
ARC
  8
AUFNAHME
  6
CONTINUOUS
 62
     7
 10
9.500000000
 20
0.000000000
 40
0.225000000
 50
105.090802894
 51
-105.090802894
  0
ARC
  8
AUFNAHME
  6
CONTINUOUS
 62
     7
 10
9.556549064
 20
-0.588431420
 40
0.813856271
 50
88.148595339
 51
98.132310482
  0
ARC
  8
AUFNAHME
  6
CONTINUOUS
 62
     7
 10
9.543898611
 20
0.357862261
 40
0.584161843
 50
-100.103457484
 51
-86.177448337
  0
LINE
  8
AUFNAHME
  6
CONTINUOUS
 62
     7
 10
9.788364183
 20
-0.225000000
 11
9.582842712
 21
-0.225000000
  0
ARC
  8
AUFNAHME
  6
CONTINUOUS
 62
     7
 10
9.841032555
 20
-0.450600230
 40
0.231666616
 50
87.556304145
 51
103.140842627
  0
ARC
  8
AUFNAHME
  6
CONTINUOUS
 62
     7
 10
10.149247540
 20
6.869831776
 40
7.095251003
 50
-92.409852386
 51
-91.431461892
  0
LINE
  8
AUFNAHME
  6
CONTINUOUS
 62
     7
 10
9.624577578
 20
0.225000000
 11
9.627280367
 21
0.224468989
  0
LINE
  8
AUFNAHME
  6
CONTINUOUS
 62
     7
 10
9.627280367
 20
0.224468989
 11
9.631923199
 21
0.223608360
  0
LINE
  8
AUFNAHME
  6
CONTINUOUS
 62
     7
 10
9.582842712
 20
0.225000000
 11
9.624577578
 21
0.225000000
  0
LINE
  8
AUFNAHME
  6
CONTINUOUS
 62
     7
 10
9.996196926
 20
0.227315773
 11
9.991249361
 21
0.240909096
  0
ARC
  8
AUFNAHME
  6
CONTINUOUS
 62
     7
 10
9.900363254
 20
0.200254609
 40
0.099564410
 50
24.099562164
 51
77.978690124
  0
LINE
  8
AUFNAHME
  6
CONTINUOUS
 62
     7
 10
9.998369430
 20
0.217984768
 11
9.998203604
 21
0.218869274
  0
LINE
  8
AUFNAHME
  6
CONTINUOUS
 62
     7
 10
9.998203604
 20
0.218869274
 11
9.996196926
 21
0.227315773
  0
LINE
  8
AUFNAHME
  6
CONTINUOUS
 62
     7
 10
9.675261255
 20
0.263447399
 11
9.685353752
 21
0.274141877
  0
LINE
  8
AUFNAHME
  6
CONTINUOUS
 62
     7
 10
9.685353752
 20
0.274141877
 11
9.921100079
 21
0.297635592
  0
LINE
  8
AUFNAHME
  6
CONTINUOUS
 62
     7
 10
9.998369430
 20
0.217984768
 11
9.972009499
 21
-0.222832602
  0
ARC
  8
AUFNAHME
  6
CONTINUOUS
 62
     7
 10
9.402854282
 20
0.516287846
 40
0.371663625
 50
-51.951087029
 51
-42.866603056
  0
LINE
  8
AUFNAHME
  6
CONTINUOUS
 62
     7
 10
9.788364183
 20
-0.225000000
 11
9.624577578
 21
0.225000000
  0
LINE
  8
AUFNAHME
  6
CONTINUOUS
 62
     7
 10
8.500000000
 20
-0.225000000
 11
8.500000000
 21
0.225000000
  0
LINE
  8
AUFNAHME
  6
CONTINUOUS
 62
     7
 10
9.441421356
 20
-0.217240748
 11
9.441421356
 21
0.217240748
  0
LINE
  8
AUFNAHME
  6
CONTINUOUS
 62
     7
 10
9.582842712
 20
0.225000000
 11
9.582842712
 21
-0.225000000
  0
LINE
  8
AUFNAHME
  6
CONTINUOUS
 62
     7
 10
9.850910265
 20
-0.219144290
 11
9.675261255
 21
0.263447399
  0
LINE
  8
ZAPFEN
  6
STRICHPUNKT
 62
     4
 10
10.145684640
 20
0.000000000
 11
-15.723034732
 21
0.000000000
  0
LINE
  8
ZAPFEN
  6
CONTINUOUS
 62
     4
 10
-14.800000000
 20
1.600000000
 11
0.000000000
 21
1.600000000
  0
LINE
  8
ZAPFEN
  6
CONTINUOUS
 62
     4
 10
0.000000000
 20
-2.000000000
 11
-14.800000000
 21
-2.000000000
  0
TEXT
  8
MASS
  6
CONTINUOUS
 62
     4
 10
-13.325991141
 20
5.034254497
 40
3.500000000
  1
615.552
 50
0.000000000
 41
1.000
 51
0.000000000
  7
STANDARD
  0
LINE
  8
MASS
  6
CONTINUOUS
 62
     4
 10
8.500000000
 20
12.623520470
 11
8.500000000
 21
0.225000000
  0
LINE
  8
MASS
  6
CONTINUOUS
 62
     4
 10
8.500000000
 20
10.623520470
 11
4.999999924
 21
11.073519881
  0
LINE
  8
MASS
  6
CONTINUOUS
 62
     4
 10
4.999999924
 20
11.073519881
 11
5.000000076
 21
10.173519881
  0
LINE
  8
MASS
  6
CONTINUOUS
 62
     4
 10
5.000000076
 20
10.173519881
 11
8.500000000
 21
10.623520470
  0
LINE
  8
MASS
  6
CONTINUOUS
 62
     4
 10
5.000000000
 20
10.623519881
 11
0.287586479
 21
10.623519088
  0
LINE
  8
MASS
  6
CONTINUOUS
 62
     4
 10
9.996196926
 20
12.623520721
 11
9.996196926
 21
0.227315773
  0
LINE
  8
MASS
  6
CONTINUOUS
 62
     4
 10
9.996196926
 20
10.623520721
 11
13.496197002
 21
10.173521310
  0
LINE
  8
MASS
  6
CONTINUOUS
 62
     4
 10
13.496197002
 20
10.173521310
 11
13.496196850
 21
11.073521310
  0
LINE
  8
MASS
  6
CONTINUOUS
 62
     4
 10
13.496196850
 20
11.073521310
 11
9.996196926
 21
10.623520721
  0
LINE
  8
MASS
  6
CONTINUOUS
 62
     4
 10
13.496196926
 20
10.623521310
 11
17.496196926
 21
10.623521983
  0
LINE
  8
MASS
  6
CONTINUOUS
 62
     4
 10
8.500000000
 20
10.623520470
 11
9.996196926
 21
10.623520721
  0
TEXT
  8
MASS
  6
CONTINUOUS
 62
     4
 10
0.287586347
 20
11.410154487
 40
3.500000000
  1
1.5
 50
0.000009640
 41
1.000
 51
0.000000000
  7
STANDARD
  0
LINE
  8
MASS
  6
CONTINUOUS
 62
     4
 10
27.345558551
 20
0.299819782
 11
9.900363254
 21
0.299819019
  0
LINE
  8
MASS
  6
CONTINUOUS
 62
     4
 10
25.345558551
 20
0.299819695
 11
25.795558398
 21
3.799819714
  0
LINE
  8
MASS
  6
CONTINUOUS
 62
     4
 10
25.795558398
 20
3.799819714
 11
24.895558398
 21
3.799819675
  0
LINE
  8
MASS
  6
CONTINUOUS
 62
     4
 10
24.895558398
 20
3.799819675
 11
25.345558551
 21
0.299819695
  0
LINE
  8
MASS
  6
CONTINUOUS
 62
     4
 10
25.345558398
 20
3.799819695
 11
25.345557560
 21
22.987591702
  0
LINE
  8
MASS
  6
CONTINUOUS
 62
     4
 10
25.345558578
 20
-0.299818366
 11
25.345558551
 21
0.299819695
  0
CIRCLE
  8
MASS
  6
CONTINUOUS
 62
     4
 10
22.043969482
 20
7.072279057
 40
1.250000000
  0
LINE
  8
MASS
  6
CONTINUOUS
 62
     4
 10
23.293969536
 20
5.822279112
 11
20.793969427
 21
8.322279003
  0
TEXT
  8
MASS
  6
CONTINUOUS
 62
     4
 10
23.293969383
 20
9.322279112
 40
3.500000000
  1
0.6-1.1
 50
90.000002504
 41
1.000
 51
0.000000000
  7
STANDARD
  0
LINE
  8
MASS
  6
CONTINUOUS
 62
     4
 10
0.000000000
 20
-13.964910507
 11
0.000000000
 21
-2.000000000
  0
LINE
  8
MASS
  6
CONTINUOUS
 62
     4
 10
0.000000000
 20
-11.964910507
 11
-3.500000021
 21
-11.514910673
  0
LINE
  8
MASS
  6
CONTINUOUS
 62
     4
 10
-3.500000021
 20
-11.514910673
 11
-3.499999979
 21
-12.414910673
  0
LINE
  8
MASS
  6
CONTINUOUS
 62
     4
 10
-3.499999979
 20
-12.414910673
 11
0.000000000
 21
-11.964910507
  0
LINE
  8
MASS
  6
CONTINUOUS
 62
     4
 10
-3.500000000
 20
-11.964910673
 11
-7.500000000
 21
-11.964910862
  0
LINE
  8
MASS
  6
CONTINUOUS
 62
     4
 10
9.991249361
 20
-13.964910034
 11
9.991249361
 21
0.240909096
  0
LINE
  8
MASS
  6
CONTINUOUS
 62
     4
 10
9.991249361
 20
-11.964910034
 11
13.491249382
 21
-12.414909868
  0
LINE
  8
MASS
  6
CONTINUOUS
 62
     4
 10
13.491249382
 20
-12.414909868
 11
13.491249340
 21
-11.514909868
  0
LINE
  8
MASS
  6
CONTINUOUS
 62
     4
 10
13.491249340
 20
-11.514909868
 11
9.991249361
 21
-11.964910034
  0
LINE
  8
MASS
  6
CONTINUOUS
 62
     4
 10
13.491249361
 20
-11.964909868
 11
17.491249361
 21
-11.964909679
  0
LINE
  8
MASS
  6
CONTINUOUS
 62
     4
 10
0.000000000
 20
-11.964910507
 11
9.991249361
 21
-11.964910034
  0
TEXT
  8
MASS
  6
CONTINUOUS
 62
     4
 10
3.713749498
 20
-10.464910331
 40
3.500000000
  1
10
 50
0.000002713
 41
1.000
 51
0.000000000
  7
STANDARD
  0
LINE
  8
MASS
  6
CONTINUOUS
 62
     4
 10
-15.000000000
 20
-13.950367737
 11
-15.000000000
 21
-1.800000000
  0
LINE
  8
MASS
  6
CONTINUOUS
 62
     4
 10
-15.000000000
 20
-11.950367737
 11
-11.499999994
 21
-11.500367781
  0
LINE
  8
MASS
  6
CONTINUOUS
 62
     4
 10
-11.499999994
 20
-11.500367781
 11
-11.500000006
 21
-12.400367781
  0
LINE
  8
MASS
  6
CONTINUOUS
 62
     4
 10
-11.500000006
 20
-12.400367781
 11
-15.000000000
 21
-11.950367737
  0
LINE
  8
MASS
  6
CONTINUOUS
 62
     4
 10
0.000000000
 20
-13.950367928
 11
0.000000000
 21
-2.000000000
  0
LINE
  8
MASS
  6
CONTINUOUS
 62
     4
 10
0.000000000
 20
-11.950367928
 11
-3.500000006
 21
-12.400367883
  0
LINE
  8
MASS
  6
CONTINUOUS
 62
     4
 10
-3.500000006
 20
-12.400367883
 11
-3.499999994
 21
-11.500367883
  0
LINE
  8
MASS
  6
CONTINUOUS
 62
     4
 10
-3.499999994
 20
-11.500367883
 11
0.000000000
 21
-11.950367928
  0
LINE
  8
MASS
  6
CONTINUOUS
 62
     4
 10
-11.500000000
 20
-11.950367781
 11
-3.500000000
 21
-11.950367883
  0
TEXT
  8
MASS
  6
CONTINUOUS
 62
     4
 10
-8.672500149
 20
-10.450367817
 40
3.500000000
  1
15
 50
359.999999271
 41
1.000
 51
0.000000000
  7
STANDARD
  0
LINE
  8
MASS
  6
CONTINUOUS
 62
     4
 10
-25.083066249
 20
-2.000000449
 11
-14.800000000
 21
-2.000000000
  0
LINE
  8
MASS
  6
CONTINUOUS
 62
     4
 10
-23.083066249
 20
-2.000000362
 11
-23.533066402
 21
1.499999618
  0
LINE
  8
MASS
  6
CONTINUOUS
 62
     4
 10
-23.533066402
 20
1.499999618
 11
-22.633066402
 21
1.499999658
  0
LINE
  8
MASS
  6
CONTINUOUS
 62
     4
 10
-22.633066402
 20
1.499999658
 11
-23.083066249
 21
-2.000000362
  0
LINE
  8
MASS
  6
CONTINUOUS
 62
     4
 10
-23.083066402
 20
1.499999638
 11
-23.083066424
 21
1.999999719
  0
TEXT
  8
MASS
  6
CONTINUOUS
 62
     4
 10
-23.804259167
 20
6.675053284
 40
3.500000000
  1
4
 50
90.000002504
 41
1.000
 51
0.000000000
  7
STANDARD
  0
CIRCLE
  8
MASS
  6
CONTINUOUS
 62
     4
 10
-25.054259069
 20
4.425053229
 40
1.250000000
  0
LINE
  8
MASS
  6
CONTINUOUS
 62
     4
 10
-23.804259014
 20
3.175053284
 11
-26.304259124
 21
5.675053174
  0
ENDSEC
  0
EOF
