999
NT  : 16.0 - 919
  0
SECTION
  2
HEADER
  9
$ACADVER
  1
AC1006
  9
$INSBASE
 10
0.000000000
 20
0.000000000
  9
$EXTMIN
 10
-42.561773346
 20
-9.878847488
  9
$EXTMAX
 10
41.008749231
 20
26.610131932
  9
$LIMMIN
 10
-42.561773346
 20
-9.878847488
  9
$LIMMAX
 10
41.008749231
 20
26.610131932
  9
$AUNITS
 70
     2
  9
$ANGBASE
 50
0.000
  9
$ANGDIR
 70
     0
  0
ENDSEC
  0
SECTION
  2
TABLES
  0
TABLE
  2
LTYPE
 70
     8
  0
LTYPE
  2
PUNKT
 70
    64
  3
..............
 72
    65
 73
     2
 40
1.500
 49
0.700
 49
-0.800
  0
LTYPE
  2
GESTRICHELT
 70
    64
  3
-- -- -- -- --
 72
    65
 73
     7
 40
2.800
 49
0.900
 49
0.000
 49
0.900
 49
0.000
 49
0.200
 49
0.000
 49
-0.800
  0
LTYPE
  2
STRICHPUNKT
 70
    64
  3
--.--.--.--.--
 72
    65
 73
     4
 40
8.800
 49
5.500
 49
-1.300
 49
0.700
 49
-1.300
  0
LTYPE
  2
STRICHPUNKT
 70
    64
  3
--.--.--.--.--
 72
    65
 73
     4
 40
8.800
 49
5.500
 49
-1.300
 49
0.700
 49
-1.300
  0
LTYPE
  2
STRICHPUNKT
 70
    64
  3
--.--.--.--.--
 72
    65
 73
     4
 40
8.800
 49
5.500
 49
-1.300
 49
0.700
 49
-1.300
  0
LTYPE
  2
PHANTOM
 70
    64
  3
--..--..--..--
 72
    65
 73
     6
 40
14.200
 49
7.000
 49
-1.800
 49
0.900
 49
-1.800
 49
0.900
 49
-1.800
  0
LTYPE
  2
PHANTOM
 70
    64
  3
--..--..--..--
 72
    65
 73
     6
 40
14.200
 49
7.000
 49
-1.800
 49
0.900
 49
-1.800
 49
0.900
 49
-1.800
  0
LTYPE
  2
PHANTOM
 70
    64
  3
--..--..--..--
 72
    65
 73
     6
 40
14.200
 49
7.000
 49
-1.800
 49
0.900
 49
-1.800
 49
0.900
 49
-1.800
  0
ENDTAB
  0
ENDSEC
  0
SECTION
  2
BLOCKS
  0
ENDSEC
  0
SECTION
  2
ENTITIES
  0
LINE
  8
ZAPFEN
  6
CONTINUOUS
 62
     4
 10
-13.903553430
 20
-2.000000000
 11
-0.103553425
 21
-2.000000000
  0
LINE
  8
AUFNAHME
  6
CONTINUOUS
 62
     7
 10
-0.103553425
 20
-2.000000000
 11
13.903553430
 21
-2.000000000
  0
LINE
  8
AUFNAHME
  6
CONTINUOUS
 62
     7
 10
13.903553430
 20
2.000000190
 11
11.296446268
 21
2.000000190
  0
LINE
  8
ZAPFEN
  6
CONTINUOUS
 62
     4
 10
-14.103553425
 20
-1.799999874
 11
-13.903553430
 21
-2.000000000
  0
LINE
  8
ZAPFEN
  6
CONTINUOUS
 62
     4
 10
-13.903553430
 20
1.600000055
 11
-13.903553430
 21
-2.000000000
  0
LINE
  8
AUFNAHME
  6
CONTINUOUS
 62
     7
 10
10.896446947
 20
1.600000055
 11
-0.103553425
 21
1.600000055
  0
LINE
  8
ZAPFEN
  6
CONTINUOUS
 62
     4
 10
-0.103553425
 20
1.600000055
 11
-14.103553425
 21
1.600000055
  0
LINE
  8
AUFNAHME
  6
CONTINUOUS
 62
     7
 10
11.296446268
 20
2.000000190
 11
11.288001035
 21
1.991555190
  0
LINE
  8
AUFNAHME
  6
CONTINUOUS
 62
     7
 10
11.288001035
 20
1.991555190
 11
11.262737979
 21
1.966291668
  0
LINE
  8
AUFNAHME
  6
CONTINUOUS
 62
     7
 10
11.262737979
 20
1.966291668
 11
11.220869441
 21
1.924422897
  0
LINE
  8
AUFNAHME
  6
CONTINUOUS
 62
     7
 10
11.220869441
 20
1.924422897
 11
11.162749324
 21
1.866302548
  0
LINE
  8
AUFNAHME
  6
CONTINUOUS
 62
     7
 10
11.162749324
 20
1.866302548
 11
11.088867504
 21
1.792421427
  0
LINE
  8
AUFNAHME
  6
CONTINUOUS
 62
     7
 10
11.088867504
 20
1.792421427
 11
10.999849830
 21
1.703403287
  0
LINE
  8
AUFNAHME
  6
CONTINUOUS
 62
     7
 10
10.999849830
 20
1.703403287
 11
10.896446947
 21
1.600000055
  0
ARC
  8
AUFNAHME
  6
CONTINUOUS
 62
     7
 10
13.843138141
 20
-5.665458983
 40
7.665697250
 50
89.548432865
 51
92.191545220
  0
ARC
  8
AUFNAHME
  6
CONTINUOUS
 62
     7
 10
13.696446575
 20
0.000000095
 40
2.000000000
 50
94.199144430
 51
-94.199144430
  0
ARC
  8
AUFNAHME
  6
CONTINUOUS
 62
     7
 10
13.805969857
 20
3.217816676
 40
5.218729100
 50
-92.811398481
 51
-88.928579605
  0
LINE
  8
AUFNAHME
  6
CONTINUOUS
 62
     7
 10
14.479591344
 20
-2.000000000
 11
13.903553430
 21
-2.000000000
  0
ARC
  8
AUFNAHME
  6
CONTINUOUS
 62
     7
 10
14.734705826
 20
4.674727426
 40
2.703321177
 50
-98.340831930
 51
-95.415104486
  0
LINE
  8
AUFNAHME
  6
CONTINUOUS
 62
     7
 10
13.903553430
 20
2.000000190
 11
14.342558403
 21
2.000000190
  0
LINE
  8
ZAPFEN
  6
CONTINUOUS
 62
     4
 10
-14.103553425
 20
-1.799999874
 11
-14.103553425
 21
1.600000055
  0
LINE
  8
AUFNAHME
  6
CONTINUOUS
 62
     7
 10
14.708292503
 20
2.205933306
 11
14.835680668
 21
2.340174841
  0
LINE
  8
AUFNAHME
  6
CONTINUOUS
 62
     7
 10
14.835680668
 20
2.340174841
 11
15.857602302
 21
2.448731896
  0
ARC
  8
AUFNAHME
  6
CONTINUOUS
 62
     7
 10
15.846464364
 20
2.400006520
 40
0.049982155
 50
0.284220471
 51
77.124205211
  0
LINE
  8
AUFNAHME
  6
CONTINUOUS
 62
     7
 10
15.896445904
 20
2.400254460
 11
15.708834697
 21
-0.543031572
  0
LINE
  8
AUFNAHME
  6
CONTINUOUS
 62
     7
 10
14.579591174
 20
-2.099999830
 11
15.660679732
 21
-2.099999830
  0
LINE
  8
AUFNAHME
  6
CONTINUOUS
 62
     7
 10
14.579591174
 20
-2.099999830
 11
14.479591344
 21
-2.000000000
  0
LINE
  8
AUFNAHME
  6
CONTINUOUS
 62
     7
 10
15.682601203
 20
-1.681734131
 11
14.342558403
 21
2.000000190
  0
LINE
  8
AUFNAHME
  6
CONTINUOUS
 62
     7
 10
15.682601203
 20
-1.681734131
 11
15.660679732
 21
-2.099999830
  0
ARC
  8
AUFNAHME
  6
CONTINUOUS
 62
     7
 10
12.190670129
 20
4.565370790
 40
3.450415578
 50
-48.442180204
 51
-43.142292549
  0
ARC
  8
AUFNAHME
  6
CONTINUOUS
 62
     7
 10
32.146582703
 20
-1.636584782
 40
16.474084043
 50
176.193895293
 51
177.225911418
  0
ARC
  8
AUFNAHME
  6
CONTINUOUS
 62
     7
 10
32.146582703
 20
-1.636584782
 40
16.473598583
 50
177.225911418
 51
179.614601147
  0
ARC
  8
AUFNAHME
  6
CONTINUOUS
 62
     7
 10
17.220032493
 20
-1.536191823
 40
1.546710765
 50
179.614168467
 51
-176.324067178
  0
ARC
  8
AUFNAHME
  6
CONTINUOUS
 62
     7
 10
15.976379340
 20
-1.616090696
 40
0.300493691
 50
-176.324067178
 51
-167.404434970
  0
LINE
  8
AUFNAHME
  6
CONTINUOUS
 62
     7
 10
13.549999167
 20
-1.994631158
 11
13.549999167
 21
1.994631348
  0
LINE
  8
AUFNAHME
  6
CONTINUOUS
 62
     7
 10
13.903553430
 20
2.000000190
 11
13.903553430
 21
-2.000000000
  0
LINE
  8
AUFNAHME
  6
CONTINUOUS
 62
     7
 10
15.708834697
 20
-0.543031572
 11
14.708292503
 21
2.205933306
  0
LINE
  8
ZAPFEN
  6
STRICHPUNKT
 62
     4
 10
-14.800397160
 20
0.000000000
 11
16.561016202
 21
0.000000000
  0
LINE
  8
MASS
  6
CONTINUOUS
 62
     4
 10
-14.103553425
 20
-11.483758610
 11
-14.103553425
 21
-1.799999874
  0
LINE
  8
MASS
  6
CONTINUOUS
 62
     4
 10
-14.103553425
 20
-9.483758610
 11
-10.603553415
 21
-9.033758689
  0
LINE
  8
MASS
  6
CONTINUOUS
 62
     4
 10
-10.603553415
 20
-9.033758689
 11
-10.603553435
 21
-9.933758689
  0
LINE
  8
MASS
  6
CONTINUOUS
 62
     4
 10
-10.603553435
 20
-9.933758689
 11
-14.103553425
 21
-9.483758610
  0
LINE
  8
MASS
  6
CONTINUOUS
 62
     4
 10
-0.103553425
 20
-11.483758926
 11
-0.103553425
 21
-2.000000000
  0
LINE
  8
MASS
  6
CONTINUOUS
 62
     4
 10
-0.103553425
 20
-9.483758926
 11
-3.603553435
 21
-9.933758847
  0
LINE
  8
MASS
  6
CONTINUOUS
 62
     4
 10
-3.603553435
 20
-9.933758847
 11
-3.603553415
 21
-9.033758847
  0
LINE
  8
MASS
  6
CONTINUOUS
 62
     4
 10
-3.603553415
 20
-9.033758847
 11
-0.103553425
 21
-9.483758926
  0
LINE
  8
MASS
  6
CONTINUOUS
 62
     4
 10
-10.603553425
 20
-9.483758689
 11
-3.603553425
 21
-9.483758847
  0
TEXT
  8
MASS
  6
CONTINUOUS
 62
     4
 10
-8.385428548
 20
-7.983758739
 40
3.500000000
  1
14
 50
359.999998704
 41
1.000
 51
0.000000000
  7
STANDARD
  0
LINE
  8
MASS
  6
CONTINUOUS
 62
     4
 10
-0.103553425
 20
-11.521112442
 11
-0.103553425
 21
-2.000000000
  0
LINE
  8
MASS
  6
CONTINUOUS
 62
     4
 10
-0.103553425
 20
-9.521112442
 11
3.396446569
 21
-9.071112396
  0
LINE
  8
MASS
  6
CONTINUOUS
 62
     4
 10
3.396446569
 20
-9.071112396
 11
3.396446581
 21
-9.971112396
  0
LINE
  8
MASS
  6
CONTINUOUS
 62
     4
 10
3.396446581
 20
-9.971112396
 11
-0.103553425
 21
-9.521112442
  0
LINE
  8
MASS
  6
CONTINUOUS
 62
     4
 10
15.896445904
 20
-11.521112232
 11
15.896445904
 21
2.400254460
  0
LINE
  8
MASS
  6
CONTINUOUS
 62
     4
 10
15.896445904
 20
-9.521112232
 11
12.396445910
 21
-9.971112278
  0
LINE
  8
MASS
  6
CONTINUOUS
 62
     4
 10
12.396445910
 20
-9.971112278
 11
12.396445898
 21
-9.071112278
  0
LINE
  8
MASS
  6
CONTINUOUS
 62
     4
 10
12.396445898
 20
-9.071112278
 11
15.896445904
 21
-9.521112232
  0
LINE
  8
MASS
  6
CONTINUOUS
 62
     4
 10
3.396446575
 20
-9.521112396
 11
12.396445904
 21
-9.521112278
  0
TEXT
  8
MASS
  6
CONTINUOUS
 62
     4
 10
6.669258541
 20
-8.021112353
 40
3.500000000
  1
16
 50
0.000000754
 41
1.000
 51
0.000000000
  7
STANDARD
  0
LINE
  8
MASS
  6
CONTINUOUS
 62
     4
 10
-0.103553425
 20
9.120625646
 11
-0.103553425
 21
1.600000055
  0
LINE
  8
MASS
  6
CONTINUOUS
 62
     4
 10
-0.103553425
 20
7.120625646
 11
3.396446573
 21
7.570625659
  0
LINE
  8
MASS
  6
CONTINUOUS
 62
     4
 10
3.396446573
 20
7.570625659
 11
3.396446576
 21
6.670625659
  0
LINE
  8
MASS
  6
CONTINUOUS
 62
     4
 10
3.396446576
 20
6.670625659
 11
-0.103553425
 21
7.120625646
  0
LINE
  8
MASS
  6
CONTINUOUS
 62
     4
 10
15.896445904
 20
9.120625706
 11
15.896445904
 21
2.400254460
  0
LINE
  8
MASS
  6
CONTINUOUS
 62
     4
 10
15.896445904
 20
7.120625706
 11
12.396445906
 21
6.670625693
  0
LINE
  8
MASS
  6
CONTINUOUS
 62
     4
 10
12.396445906
 20
6.670625693
 11
12.396445902
 21
7.570625693
  0
LINE
  8
MASS
  6
CONTINUOUS
 62
     4
 10
12.396445902
 20
7.570625693
 11
15.896445904
 21
7.120625706
  0
LINE
  8
MASS
  6
CONTINUOUS
 62
     4
 10
3.396446575
 20
7.120625659
 11
12.396445904
 21
7.120625693
  0
TEXT
  8
MASS
  6
CONTINUOUS
 62
     4
 10
6.669258555
 20
8.620625671
 40
3.500000000
  1
16
 50
0.000000217
 41
1.000
 51
0.000000000
  7
STANDARD
  0
LINE
  8
MASS
  6
CONTINUOUS
 62
     4
 10
-21.932620678
 20
-2.000000351
 11
-13.903553430
 21
-2.000000000
  0
LINE
  8
MASS
  6
CONTINUOUS
 62
     4
 10
-19.932620678
 20
-2.000000264
 11
-20.382620831
 21
1.499999717
  0
LINE
  8
MASS
  6
CONTINUOUS
 62
     4
 10
-20.382620831
 20
1.499999717
 11
-19.482620831
 21
1.499999756
  0
LINE
  8
MASS
  6
CONTINUOUS
 62
     4
 10
-19.482620831
 20
1.499999756
 11
-19.932620678
 21
-2.000000264
  0
LINE
  8
MASS
  6
CONTINUOUS
 62
     4
 10
-19.932620831
 20
1.499999736
 11
-19.932620853
 21
1.999999815
  0
TEXT
  8
MASS
  6
CONTINUOUS
 62
     4
 10
-21.163605871
 20
6.825134992
 40
3.500000000
  1
4
 50
90.000002504
 41
1.000
 51
0.000000000
  7
STANDARD
  0
CIRCLE
  8
MASS
  6
CONTINUOUS
 62
     4
 10
-22.413605773
 20
4.575134937
 40
1.250000000
  0
LINE
  8
MASS
  6
CONTINUOUS
 62
     4
 10
-21.163605718
 20
3.325134992
 11
-23.663605827
 21
5.825134883
  0
LINE
  8
MASS
  6
CONTINUOUS
 62
     4
 10
25.110581410
 20
2.448732300
 11
15.857602302
 21
2.448731896
  0
LINE
  8
MASS
  6
CONTINUOUS
 62
     4
 10
23.110581410
 20
2.448732213
 11
23.560581257
 21
5.948732232
  0
LINE
  8
MASS
  6
CONTINUOUS
 62
     4
 10
23.560581257
 20
5.948732232
 11
22.660581257
 21
5.948732193
  0
LINE
  8
MASS
  6
CONTINUOUS
 62
     4
 10
22.660581257
 20
5.948732193
 11
23.110581410
 21
2.448732213
  0
LINE
  8
MASS
  6
CONTINUOUS
 62
     4
 10
23.110581257
 20
5.948732213
 11
23.110580370
 21
26.252396840
  0
LINE
  8
MASS
  6
CONTINUOUS
 62
     4
 10
23.110581624
 20
-2.448731640
 11
23.110581410
 21
2.448732213
  0
TEXT
  8
MASS
  6
CONTINUOUS
 62
     4
 10
21.576285728
 20
10.710834273
 40
3.500000000
  1
4.9
 50
90.000002504
 41
1.000
 51
0.000000000
  7
STANDARD
  0
CIRCLE
  8
MASS
  6
CONTINUOUS
 62
     4
 10
20.326285827
 20
8.460834218
 40
1.250000000
  0
LINE
  8
MASS
  6
CONTINUOUS
 62
     4
 10
21.576285881
 20
7.210834273
 11
19.076285772
 21
9.710834163
  0
TEXT
  8
MASS
  6
CONTINUOUS
 62
     4
 10
21.576285479
 20
16.415209273
 40
3.500000000
  1
-7.0
 50
90.000002504
 41
1.000
 51
0.000000000
  7
STANDARD
  0
TEXT
  8
MASS
  6
CONTINUOUS
 62
     4
 10
-14.717322943
 20
3.325135005
 40
3.500000000
  1
615.547
 50
0.000000000
 41
1.000
 51
0.000000000
  7
STANDARD
  0
ENDSEC
  0
EOF
